  0
SECTION
  2
HEADER
  9
$ACADVER
  1
AC1015
  9
$ACADMAINTVER
 70
    20
  9
$DWGCODEPAGE
  3
ANSI_1252
  9
$INSBASE
 10
0.0
 20
0.0
 30
0.0
  9
$EXTMIN
 10
-479.848815266151
 20
-26.30883317081362
 30
0.0
  9
$EXTMAX
 10
122.2222763875733
 20
989.4357429757475
 30
0.0
  9
$LIMMIN
 10
0.0
 20
0.0
  9
$LIMMAX
 10
420.0
 20
297.0
  9
$ORTHOMODE
 70
     0
  9
$REGENMODE
 70
     1
  9
$FILLMODE
 70
     1
  9
$QTEXTMODE
 70
     0
  9
$MIRRTEXT
 70
     0
  9
$LTSCALE
 40
1.0
  9
$ATTMODE
 70
     1
  9
$TEXTSIZE
 40
2.5
  9
$TRACEWID
 40
1.0
  9
$TEXTSTYLE
  7
Standard
  9
$CLAYER
  8
0
  9
$CELTYPE
  6
ByLayer
  9
$CECOLOR
 62
   256
  9
$CELTSCALE
 40
1.0
  9
$DISPSILH
 70
     0
  9
$DIMSCALE
 40
1.0
  9
$DIMASZ
 40
2.5
  9
$DIMEXO
 40
0.625
  9
$DIMDLI
 40
3.75
  9
$DIMRND
 40
0.0
  9
$DIMDLE
 40
0.0
  9
$DIMEXE
 40
1.25
  9
$DIMTP
 40
0.0
  9
$DIMTM
 40
0.0
  9
$DIMTXT
 40
2.5
  9
$DIMCEN
 40
2.5
  9
$DIMTSZ
 40
0.0
  9
$DIMTOL
 70
     0
  9
$DIMLIM
 70
     0
  9
$DIMTIH
 70
     0
  9
$DIMTOH
 70
     0
  9
$DIMSE1
 70
     0
  9
$DIMSE2
 70
     0
  9
$DIMTAD
 70
     1
  9
$DIMZIN
 70
     8
  9
$DIMBLK
  1

  9
$DIMASO
 70
     1
  9
$DIMSHO
 70
     1
  9
$DIMPOST
  1

  9
$DIMAPOST
  1

  9
$DIMALT
 70
     0
  9
$DIMALTD
 70
     3
  9
$DIMALTF
 40
0.03937007874016
  9
$DIMLFAC
 40
1.0
  9
$DIMTOFL
 70
     1
  9
$DIMTVP
 40
0.0
  9
$DIMTIX
 70
     0
  9
$DIMSOXD
 70
     0
  9
$DIMSAH
 70
     0
  9
$DIMBLK1
  1

  9
$DIMBLK2
  1

  9
$DIMSTYLE
  2
ISO-25
  9
$DIMCLRD
 70
     0
  9
$DIMCLRE
 70
     0
  9
$DIMCLRT
 70
     0
  9
$DIMTFAC
 40
1.0
  9
$DIMGAP
 40
0.625
  9
$DIMJUST
 70
     0
  9
$DIMSD1
 70
     0
  9
$DIMSD2
 70
     0
  9
$DIMTOLJ
 70
     0
  9
$DIMTZIN
 70
     8
  9
$DIMALTZ
 70
     0
  9
$DIMALTTZ
 70
     0
  9
$DIMUPT
 70
     0
  9
$DIMDEC
 70
     2
  9
$DIMTDEC
 70
     2
  9
$DIMALTU
 70
     2
  9
$DIMALTTD
 70
     3
  9
$DIMTXSTY
  7
Standard
  9
$DIMAUNIT
 70
     0
  9
$DIMADEC
 70
     0
  9
$DIMALTRND
 40
0.0
  9
$DIMAZIN
 70
     0
  9
$DIMDSEP
 70
    44
  9
$DIMATFIT
 70
     3
  9
$DIMFRAC
 70
     0
  9
$DIMLDRBLK
  1

  9
$DIMLUNIT
 70
     2
  9
$DIMLWD
 70
    -2
  9
$DIMLWE
 70
    -2
  9
$DIMTMOVE
 70
     0
  9
$LUNITS
 70
     2
  9
$LUPREC
 70
     4
  9
$SKETCHINC
 40
1.0
  9
$FILLETRAD
 40
0.0
  9
$AUNITS
 70
     0
  9
$AUPREC
 70
     0
  9
$MENU
  1
.
  9
$ELEVATION
 40
0.0
  9
$PELEVATION
 40
0.0
  9
$THICKNESS
 40
0.0
  9
$LIMCHECK
 70
     0
  9
$CHAMFERA
 40
0.0
  9
$CHAMFERB
 40
0.0
  9
$CHAMFERC
 40
0.0
  9
$CHAMFERD
 40
0.0
  9
$SKPOLY
 70
     0
  9
$TDCREATE
 40
2454550.307324757
  9
$TDUCREATE
 40
2454550.265658090
  9
$TDUPDATE
 40
2454550.407890440
  9
$TDUUPDATE
 40
2454550.366223773
  9
$TDINDWG
 40
0.0375743403
  9
$TDUSRTIMER
 40
0.0375736111
  9
$USRTIMER
 70
     1
  9
$ANGBASE
 50
0.0
  9
$ANGDIR
 70
     0
  9
$PDMODE
 70
     0
  9
$PDSIZE
 40
0.0
  9
$PLINEWID
 40
0.0
  9
$SPLFRAME
 70
     0
  9
$SPLINETYPE
 70
     6
  9
$SPLINESEGS
 70
     8
  9
$HANDSEED
  5
3C6
  9
$SURFTAB1
 70
     6
  9
$SURFTAB2
 70
     6
  9
$SURFTYPE
 70
     6
  9
$SURFU
 70
     6
  9
$SURFV
 70
     6
  9
$UCSBASE
  2

  9
$UCSNAME
  2

  9
$UCSORG
 10
0.0
 20
0.0
 30
0.0
  9
$UCSXDIR
 10
1.0
 20
0.0
 30
0.0
  9
$UCSYDIR
 10
0.0
 20
1.0
 30
0.0
  9
$UCSORTHOREF
  2

  9
$UCSORTHOVIEW
 70
     0
  9
$UCSORGTOP
 10
0.0
 20
0.0
 30
0.0
  9
$UCSORGBOTTOM
 10
0.0
 20
0.0
 30
0.0
  9
$UCSORGLEFT
 10
0.0
 20
0.0
 30
0.0
  9
$UCSORGRIGHT
 10
0.0
 20
0.0
 30
0.0
  9
$UCSORGFRONT
 10
0.0
 20
0.0
 30
0.0
  9
$UCSORGBACK
 10
0.0
 20
0.0
 30
0.0
  9
$PUCSBASE
  2

  9
$PUCSNAME
  2

  9
$PUCSORG
 10
0.0
 20
0.0
 30
0.0
  9
$PUCSXDIR
 10
1.0
 20
0.0
 30
0.0
  9
$PUCSYDIR
 10
0.0
 20
1.0
 30
0.0
  9
$PUCSORTHOREF
  2

  9
$PUCSORTHOVIEW
 70
     0
  9
$PUCSORGTOP
 10
0.0
 20
0.0
 30
0.0
  9
$PUCSORGBOTTOM
 10
0.0
 20
0.0
 30
0.0
  9
$PUCSORGLEFT
 10
0.0
 20
0.0
 30
0.0
  9
$PUCSORGRIGHT
 10
0.0
 20
0.0
 30
0.0
  9
$PUCSORGFRONT
 10
0.0
 20
0.0
 30
0.0
  9
$PUCSORGBACK
 10
0.0
 20
0.0
 30
0.0
  9
$USERI1
 70
     0
  9
$USERI2
 70
     0
  9
$USERI3
 70
     0
  9
$USERI4
 70
     0
  9
$USERI5
 70
     0
  9
$USERR1
 40
0.0
  9
$USERR2
 40
0.0
  9
$USERR3
 40
0.0
  9
$USERR4
 40
0.0
  9
$USERR5
 40
0.0
  9
$WORLDVIEW
 70
     1
  9
$SHADEDGE
 70
     3
  9
$SHADEDIF
 70
    70
  9
$TILEMODE
 70
     1
  9
$MAXACTVP
 70
    64
  9
$PINSBASE
 10
0.0
 20
0.0
 30
0.0
  9
$PLIMCHECK
 70
     0
  9
$PEXTMIN
 10
0.0
 20
0.0
 30
0.0
  9
$PEXTMAX
 10
0.0
 20
0.0
 30
0.0
  9
$PLIMMIN
 10
0.0
 20
0.0
  9
$PLIMMAX
 10
12.0
 20
9.0
  9
$UNITMODE
 70
     0
  9
$VISRETAIN
 70
     1
  9
$PLINEGEN
 70
     0
  9
$PSLTSCALE
 70
     1
  9
$TREEDEPTH
 70
  3020
  9
$CMLSTYLE
  2
Standard
  9
$CMLJUST
 70
     0
  9
$CMLSCALE
 40
20.0
  9
$PROXYGRAPHICS
 70
     1
  9
$MEASUREMENT
 70
     1
  9
$CELWEIGHT
370
    -1
  9
$ENDCAPS
280
     0
  9
$JOINSTYLE
280
     0
  9
$LWDISPLAY
290
     0
  9
$INSUNITS
 70
     4
  9
$HYPERLINKBASE
  1

  9
$STYLESHEET
  1

  9
$XEDIT
290
     1
  9
$CEPSNTYPE
380
     0
  9
$PSTYLEMODE
290
     1
  9
$FINGERPRINTGUID
  2
{4A4C6E15-96AD-4E98-A744-8BD4BACD0A4F}
  9
$VERSIONGUID
  2
{D31A62BF-6F1C-4191-8423-C11D8547EEE2}
  9
$EXTNAMES
290
     1
  9
$PSVPSCALE
 40
0.0
  9
$OLESTARTUP
290
     0
  0
ENDSEC
  0
SECTION
  2
CLASSES
  0
CLASS
  1
ACDBDICTIONARYWDFLT
  2
AcDbDictionaryWithDefault
  3
ObjectDBX Classes
 90
        0
280
     0
281
     0
  0
CLASS
  1
DICTIONARYVAR
  2
AcDbDictionaryVar
  3
ObjectDBX Classes
 90
        0
280
     0
281
     0
  0
CLASS
  1
TABLESTYLE
  2
AcDbTableStyle
  3
ObjectDBX Classes
 90
     2047
280
     0
281
     0
  0
CLASS
  1
SORTENTSTABLE
  2
AcDbSortentsTable
  3
ObjectDBX Classes
 90
        0
280
     0
281
     0
  0
CLASS
  1
ACDBPLACEHOLDER
  2
AcDbPlaceHolder
  3
ObjectDBX Classes
 90
        0
280
     0
281
     0
  0
CLASS
  1
LAYOUT
  2
AcDbLayout
  3
ObjectDBX Classes
 90
        0
280
     0
281
     0
  0
ENDSEC
  0
SECTION
  2
TABLES
  0
TABLE
  2
VPORT
  5
8
330
0
100
AcDbSymbolTable
 70
     2
  0
VPORT
  5
3BD
330
8
100
AcDbSymbolTableRecord
100
AcDbViewportTableRecord
  2
*Active
 70
     0
 10
0.0
 20
0.0
 11
1.0
 21
1.0
 12
-90.18631511794183
 22
538.7772425429243
 13
0.0
 23
0.0
 14
10.0
 24
10.0
 15
10.0
 25
10.0
 16
0.0
 26
0.0
 36
1.0
 17
0.0
 27
0.0
 37
0.0
 40
1634.031674841168
 41
1.454088050314465
 42
50.0
 43
0.0
 44
0.0
 50
0.0
 51
0.0
 71
     0
 72
  1000
 73
     1
 74
     0
 75
     0
 76
     0
 77
     0
 78
     0
281
     0
 65
     1
110
0.0
120
0.0
130
0.0
111
1.0
121
0.0
131
0.0
112
0.0
122
1.0
132
0.0
 79
     0
146
0.0
  0
ENDTAB
  0
TABLE
  2
LTYPE
  5
5
330
0
100
AcDbSymbolTable
 70
     1
  0
LTYPE
  5
14
330
5
100
AcDbSymbolTableRecord
100
AcDbLinetypeTableRecord
  2
ByBlock
 70
     0
  3

 72
    65
 73
     0
 40
0.0
  0
LTYPE
  5
15
330
5
100
AcDbSymbolTableRecord
100
AcDbLinetypeTableRecord
  2
ByLayer
 70
     0
  3

 72
    65
 73
     0
 40
0.0
  0
LTYPE
  5
16
330
5
100
AcDbSymbolTableRecord
100
AcDbLinetypeTableRecord
  2
Continuous
 70
     0
  3
Solid line
 72
    65
 73
     0
 40
0.0
  0
ENDTAB
  0
TABLE
  2
LAYER
  5
2
102
{ACAD_XDICTIONARY
360
118
102
}
330
0
100
AcDbSymbolTable
 70
     1
  0
LAYER
  5
10
330
2
100
AcDbSymbolTableRecord
100
AcDbLayerTableRecord
  2
0
 70
     0
 62
     7
  6
Continuous
370
    -3
390
F
  0
ENDTAB
  0
TABLE
  2
STYLE
  5
3
330
0
100
AcDbSymbolTable
 70
     2
  0
STYLE
  5
11
330
3
100
AcDbSymbolTableRecord
100
AcDbTextStyleTableRecord
  2
Standard
 70
     0
 40
0.0
 41
1.0
 50
0.0
 71
     0
 42
2.5
  3
txt
  4

  0
STYLE
  5
112
330
3
100
AcDbSymbolTableRecord
100
AcDbTextStyleTableRecord
  2
ISO
 70
     0
 40
0.0
 41
1.0
 50
0.0
 71
     0
 42
2.0
  3
ISOCP.SHX
  4

  0
ENDTAB
  0
TABLE
  2
VIEW
  5
6
330
0
100
AcDbSymbolTable
 70
     0
  0
ENDTAB
  0
TABLE
  2
UCS
  5
7
330
0
100
AcDbSymbolTable
 70
     0
  0
ENDTAB
  0
TABLE
  2
APPID
  5
9
330
0
100
AcDbSymbolTable
 70
     6
  0
APPID
  5
12
330
9
100
AcDbSymbolTableRecord
100
AcDbRegAppTableRecord
  2
ACAD
 70
     0
  0
APPID
  5
9E
330
9
100
AcDbSymbolTableRecord
100
AcDbRegAppTableRecord
  2
ACAD_PSEXT
 70
     0
  0
APPID
  5
114
330
9
100
AcDbSymbolTableRecord
100
AcDbRegAppTableRecord
  2
ACAD_DSTYLE_DIMEXT_ENABLED
 70
     0
  0
APPID
  5
115
330
9
100
AcDbSymbolTableRecord
100
AcDbRegAppTableRecord
  2
ACAD_DSTYLE_DIMEXT_LENGTH
 70
     0
  0
APPID
  5
116
330
9
100
AcDbSymbolTableRecord
100
AcDbRegAppTableRecord
  2
ACAD_DSTYLE_DIMJOGGED_JOGANGLE_SYMBOL
 70
     0
  0
APPID
  5
117
330
9
100
AcDbSymbolTableRecord
100
AcDbRegAppTableRecord
  2
ACAD_DSTYLE_DIMARC_LENGTH_SYMBOL
 70
     0
  0
ENDTAB
  0
TABLE
  2
DIMSTYLE
  5
A
330
0
100
AcDbSymbolTable
 70
     2
100
AcDbDimStyleTable
 71
     1
340
27
  0
DIMSTYLE
105
27
330
A
100
AcDbSymbolTableRecord
100
AcDbDimStyleTableRecord
  2
ISO-25
 70
     0
 41
2.5
 42
0.625
 43
3.75
 44
1.25
 73
     0
 74
     0
 77
     1
 78
     8
140
2.5
141
2.5
143
0.03937007874016
147
0.625
171
     3
172
     1
271
     2
272
     2
274
     3
278
    44
283
     0
284
     8
340
11
  0
DIMSTYLE
105
113
330
A
100
AcDbSymbolTableRecord
100
AcDbDimStyleTableRecord
  2
STANDARD
 70
     0
 40
0.0
 41
3.5
 42
0.1
 43
7.0
 44
1.8
 73
     0
 74
     0
 77
     1
140
5.0
141
1.5
146
0.8
147
1.1
172
     1
176
   256
177
   256
178
     6
271
     0
272
     1
284
     8
288
     1
289
     0
340
112
  0
ENDTAB
  0
TABLE
  2
BLOCK_RECORD
  5
1
330
0
100
AcDbSymbolTable
 70
     2
  0
BLOCK_RECORD
  5
1F
102
{ACAD_XDICTIONARY
360
1DD
102
}
330
1
100
AcDbSymbolTableRecord
100
AcDbBlockTableRecord
  2
*Model_Space
340
22
  0
BLOCK_RECORD
  5
D2
330
1
100
AcDbSymbolTableRecord
100
AcDbBlockTableRecord
  2
*Paper_Space
340
D3
  0
BLOCK_RECORD
  5
D6
330
1
100
AcDbSymbolTableRecord
100
AcDbBlockTableRecord
  2
*Paper_Space0
340
D7
  0
BLOCK_RECORD
  5
36A
330
1
100
AcDbSymbolTableRecord
100
AcDbBlockTableRecord
  2
12040-430-A
340
0
310
2800000020000000200000000100080000000000000400000000000000000000000000000000000000000000000080000080000000808000800000008000800080800000C0C0C000C0DCC000F0CAA6000020400000206000002080000020A0000020C0000020E00000400000004020000040400000406000004080000040A0
310
000040C0000040E00000600000006020000060400000606000006080000060A0000060C0000060E00000800000008020000080400000806000008080000080A0000080C0000080E00000A0000000A0200000A0400000A0600000A0800000A0A00000A0C00000A0E00000C0000000C0200000C0400000C0600000C0800000C0
310
A00000C0C00000C0E00000E0000000E0200000E0400000E0600000E0800000E0A00000E0C00000E0E00040000000400020004000400040006000400080004000A0004000C0004000E00040200000402020004020400040206000402080004020A0004020C0004020E000404000004040200040404000404060004040800040
310
40A0004040C0004040E00040600000406020004060400040606000406080004060A0004060C0004060E00040800000408020004080400040806000408080004080A0004080C0004080E00040A0000040A0200040A0400040A0600040A0800040A0A00040A0C00040A0E00040C0000040C0200040C0400040C0600040C08000
310
40C0A00040C0C00040C0E00040E0000040E0200040E0400040E0600040E0800040E0A00040E0C00040E0E00080000000800020008000400080006000800080008000A0008000C0008000E00080200000802020008020400080206000802080008020A0008020C0008020E00080400000804020008040400080406000804080
310
008040A0008040C0008040E00080600000806020008060400080606000806080008060A0008060C0008060E00080800000808020008080400080806000808080008080A0008080C0008080E00080A0000080A0200080A0400080A0600080A0800080A0A00080A0C00080A0E00080C0000080C0200080C0400080C0600080C0
310
800080C0A00080C0C00080C0E00080E0000080E0200080E0400080E0600080E0800080E0A00080E0C00080E0E000C0000000C0002000C0004000C0006000C0008000C000A000C000C000C000E000C0200000C0202000C0204000C0206000C0208000C020A000C020C000C020E000C0400000C0402000C0404000C0406000C0
310
408000C040A000C040C000C040E000C0600000C0602000C0604000C0606000C0608000C060A000C060C000C060E000C0800000C0802000C0804000C0806000C0808000C080A000C080C000C080E000C0A00000C0A02000C0A04000C0A06000C0A08000C0A0A000C0A0C000C0A0E000C0C00000C0C02000C0C04000C0C06000
310
C0C08000C0C0A000F0FBFF00A4A0A000808080000000FF0000FF000000FFFF00FF000000FF00FF00FFFF0000FFFFFF0000000000000000000000000000000000000000000000000000000000000000000000000000000000000000FFFFFFFFFFFFFFFFFFFF0000000000000000000000000000000000000000000000FF0000
310
00000000FF000000000000000000000000000000000000000000000000FFFFFFFFFFFFFFFF000000000000000000000000000000000000000000000000FF000000000000FF000000000000000000000000000000000000000000000000FF000000000000FF000000000000000000000000000000000000000000000000FF00
310
0000000000FF000000000000000000000000000000000000000000000000FF000000000000FF000000000000000000000000000000000000000000000000FF000000000000FF000000000000000000000000000000000000000000000000FF000000000000FF000000000000000000000000000000000000000000000000FF
310
000000000000FF000000000000000000000000000000000000000000000000FF000000000000FF000000000000000000000000000000000000000000000000FF000000000000FF000000000000000000000000000000000000000000000000FF000000000000FF000000000000000000000000000000000000000000000000
310
FF000000000000FF000000000000000000000000000000000000000000000000FF000000000000FF000000000000000000000000000000000000000000000000FF000000000000FF000000000000000000000000000000000000000000000000FF000000000000FF0000000000000000000000000000000000000000000000
310
00FF000000000000FF000000000000000000000000000000000000000000000000FF000000000000FF000000000000000000000000000000000000000000000000FF000000000000FF000000000000000000000000000000000000000000000000FF000000000000FF00000000000000000000000000000000000000000000
310
0000FF000000000000FF00000000000000000000000000000000000000000000FFFFFFFFFFFFFFFFFFFFFFFF000000000000000000000000000000000000FFFF000000000000000000000000FFFF00000000000000000000000000000000FF0000000000000000000000000000FF000000000000000000000000000000FF00
310
000000000000000000000000000000FF00000000000000000000000000FFFFFFFFFFFFFFFFFFFFFFFFFFFFFFFFFFFFFFFF000000000000000000000000FFFFFFFFFFFFFFFFFFFFFFFFFFFFFFFFFFFFFFFF000000000000000000000000FFFFFFFFFFFFFFFFFFFFFFFFFFFFFFFFFFFFFFFF000000000000000000000000FFFF
310
FFFFFFFFFFFFFFFFFFFFFFFFFFFFFFFFFFFF0000000000000000000000000000000000000000000000000000000000000000000000000000
102
{BLKREFS
331
3AD
102
}
1001
ACAD
1000
DesignCenter Data
1002
{
1070
     1
1070
     4
1002
}
  0
ENDTAB
  0
ENDSEC
  0
SECTION
  2
BLOCKS
  0
BLOCK
  5
20
330
1F
100
AcDbEntity
  8
0
100
AcDbBlockBegin
  2
*Model_Space
 70
     0
 10
0.0
 20
0.0
 30
0.0
  3
*Model_Space
  1

  0
ENDBLK
  5
21
330
1F
100
AcDbEntity
  8
0
100
AcDbBlockEnd
  0
BLOCK
  5
D4
330
D2
100
AcDbEntity
 67
     1
  8
0
100
AcDbBlockBegin
  2
*Paper_Space
 70
     0
 10
0.0
 20
0.0
 30
0.0
  3
*Paper_Space
  1

  0
ENDBLK
  5
D5
330
D2
100
AcDbEntity
 67
     1
  8
0
100
AcDbBlockEnd
  0
BLOCK
  5
D8
330
D6
100
AcDbEntity
  8
0
100
AcDbBlockBegin
  2
*Paper_Space0
 70
     0
 10
0.0
 20
0.0
 30
0.0
  3
*Paper_Space0
  1

  0
ENDBLK
  5
D9
330
D6
100
AcDbEntity
  8
0
100
AcDbBlockEnd
  0
BLOCK
  5
36B
330
36A
100
AcDbEntity
  8
0
100
AcDbBlockBegin
  2
12040-430-A
 70
     0
 10
0.0
 20
0.0
 30
0.0
  3
12040-430-A
  1

  0
LWPOLYLINE
  5
36D
330
36A
100
AcDbEntity
  8
0
100
AcDbPolyline
 90
       13
 70
   128
 43
0.0
 10
177.0586073398569
 20
680.9377080202097
 10
186.2667351961122
 20
685.6792873144144
 10
195.1138824224458
 20
691.0688585042948
 10
203.7510275840745
 20
697.1235877275462
 10
212.0083868503557
 20
703.6881005764002
 10
220.3665077686296
 20
711.1700183153147
 10
228.2878160476671
 20
719.1267168521876
 10
235.7499599456773
 20
727.5044551491732
 10
242.9411560296999
 20
736.5287473797793
 10
249.6349364519105
 20
745.9386965632433
 10
255.8084130287157
 20
755.6881240010256
 10
261.9479596614824
 20
766.7004919052119
 10
267.4555182456956
 20
778.0897390351565
  0
LWPOLYLINE
  5
36E
330
36A
100
AcDbEntity
  8
0
100
AcDbPolyline
 90
        3
 70
   128
 43
0.0
 10
172.8307306766492
 20
679.9999928474421
 10
176.1407852172833
 20
680.5637037754054
 10
177.0586073398572
 20
680.9377080202097
  0
ARC
  5
36F
330
36A
100
AcDbEntity
  8
0
100
AcDbCircle
 10
295.0000119209276
 20
844.9999946355815
 30
0.0
 40
5.0
100
AcDbArc
 50
0.0
 51
90.0
  0
ARC
  5
370
330
36A
100
AcDbEntity
  8
0
100
AcDbCircle
 10
293.4471087811567
 20
814.9999946355338
 30
0.0
 40
5.0
100
AcDbArc
 50
289.4362610148558
 51
356.9999771162484
  0
ARC
  5
371
330
36A
100
AcDbEntity
  8
0
100
AcDbCircle
 10
296.676657803448
 20
805.6431603265624
 30
0.0
 40
4.898740471869625
100
AcDbArc
 50
108.6402364726963
 51
177.7960245421625
  0
ARC
  5
372
330
36A
100
AcDbEntity
  8
0
100
AcDbCircle
 10
276.5809748816623
 20
773.9999979421841
 30
0.0
 40
9.999997051122578
100
AcDbArc
 50
143.1301153707531
 51
155.8595861984102
  0
LINE
  5
373
330
36A
100
AcDbEntity
  8
0
100
AcDbLine
 10
172.8307306766504
 20
679.9999928474424
 30
0.0
 11
-0.000000000001819
 21
679.9999928474417
 31
0.0
  0
LWPOLYLINE
  5
374
330
36A
100
AcDbEntity
  8
0
100
AcDbPolyline
 90
        7
 70
   128
 43
0.0
 10
299.9240458011613
 20
845.868235584348
 10
299.8879849910722
 20
846.0727242194112
 10
299.7798621654497
 20
846.685916781425
 10
299.4402348995195
 20
848.6120409937571
 10
298.9426553249345
 20
851.4340079994868
 10
298.6051142215715
 20
853.3482552878554
 10
298.2473075389848
 20
855.37749774754
  0
LINE
  5
375
330
36A
100
AcDbEntity
  8
0
100
AcDbLine
 10
296.8346178531633
 20
863.389179706573
 30
0.0
 11
298.2473075389848
 21
855.37749774754
 31
0.0
  0
ARC
  5
376
330
36A
100
AcDbEntity
  8
0
100
AcDbCircle
 10
288.9561614922973
 20
861.9999946355815
 30
0.0
 40
8.000000000000113
100
AcDbArc
 50
10.00000000000502
 51
90.0
  0
LINE
  5
377
330
36A
100
AcDbEntity
  8
0
100
AcDbLine
 10
-0.000000000001819
 20
869.999994188547
 30
0.0
 11
288.9561653137193
 21
869.9999941885467
 31
0.0
  0
LINE
  5
378
330
36A
100
AcDbEntity
  8
0
100
AcDbLine
 10
-0.000000000001819
 20
849.9999946355817
 30
0.0
 11
295.0000119209276
 21
849.9999946355815
 31
0.0
  0
LINE
  5
379
330
36A
100
AcDbEntity
  8
0
100
AcDbLine
 10
300.0000119209276
 20
844.4999946653839
 30
0.0
 11
298.440256350415
 21
814.7383128600719
 31
0.0
  0
LINE
  5
37A
330
36A
100
AcDbEntity
  8
0
100
AcDbLine
 10
291.7815411725214
 20
805.8315518878467
 30
0.0
 11
290.6760914460869
 21
784.7383145563431
 31
0.0
  0
ARC
  5
37B
330
36A
100
AcDbEntity
  8
0
100
AcDbCircle
 10
285.6829437723141
 20
784.9999943375578
 30
0.0
 40
5.0
100
AcDbArc
 50
270.0
 51
356.9999999999942
  0
LINE
  5
37C
330
36A
100
AcDbEntity
  8
0
100
AcDbLine
 10
285.6829437723141
 20
779.9999943375578
 30
0.0
 11
-0.000000000001819
 21
779.9999946355812
 31
0.0
  0
LINE
  5
37D
330
36A
100
AcDbEntity
  8
0
100
AcDbLine
 10
295.1108988137257
 20
810.2849333710828
 30
0.0
 11
-0.000000000001819
 21
810.2849333710828
 31
0.0
  0
LWPOLYLINE
  5
37E
330
36A
100
AcDbEntity
  8
0
100
AcDbPolyline
 90
       13
 70
   128
 43
0.0
 10
-177.0586073398606
 20
680.9377080202097
 10
-186.2667351961158
 20
685.6792873144144
 10
-195.1138824224495
 20
691.0688585042948
 10
-203.7510275840782
 20
697.1235877275462
 10
-212.0083868503593
 20
703.6881005764002
 10
-220.3665077686332
 20
711.1700183153147
 10
-228.2878160476707
 20
719.1267168521876
 10
-235.749959945681
 20
727.5044551491732
 10
-242.9411560297035
 20
736.5287473797793
 10
-249.6349364519142
 20
745.9386965632433
 10
-255.8084130287193
 20
755.6881240010256
 10
-261.947959661486
 20
766.7004919052119
 10
-267.4555182456993
 20
778.0897390351565
  0
LWPOLYLINE
  5
37F
330
36A
100
AcDbEntity
  8
0
100
AcDbPolyline
 90
        3
 70
   128
 43
0.0
 10
-172.8307306766528
 20
679.9999928474421
 10
-176.140785217287
 20
680.5637037754054
 10
-177.0586073398608
 20
680.9377080202097
  0
ARC
  5
380
330
36A
100
AcDbEntity
  8
0
100
AcDbCircle
 10
-295.0000119209312
 20
844.9999946355815
 30
0.0
 40
5.0
100
AcDbArc
 50
90.0
 51
180.0
  0
ARC
  5
381
330
36A
100
AcDbEntity
  8
0
100
AcDbCircle
 10
-293.4471087811603
 20
814.9999946355338
 30
0.0
 40
5.0
100
AcDbArc
 50
183.0000228837516
 51
250.5637389851443
  0
ARC
  5
382
330
36A
100
AcDbEntity
  8
0
100
AcDbCircle
 10
-296.6766578034517
 20
805.6431603265624
 30
0.0
 40
4.898740471869625
100
AcDbArc
 50
2.203975457837517
 51
71.35976352730364
  0
ARC
  5
383
330
36A
100
AcDbEntity
  8
0
100
AcDbCircle
 10
-276.580974881666
 20
773.9999979421841
 30
0.0
 40
9.999997051122578
100
AcDbArc
 50
24.14041380158976
 51
36.86988462924691
  0
LINE
  5
384
330
36A
100
AcDbEntity
  8
0
100
AcDbLine
 10
-172.830730676654
 20
679.9999928474424
 30
0.0
 11
-0.000000000001819
 21
679.9999928474417
 31
0.0
  0
LWPOLYLINE
  5
385
330
36A
100
AcDbEntity
  8
0
100
AcDbPolyline
 90
        7
 70
   128
 43
0.0
 10
-299.924045801165
 20
845.868235584348
 10
-299.8879849910759
 20
846.0727242194112
 10
-299.7798621654533
 20
846.685916781425
 10
-299.4402348995231
 20
848.6120409937571
 10
-298.9426553249382
 20
851.4340079994868
 10
-298.6051142215751
 20
853.3482552878554
 10
-298.2473075389885
 20
855.37749774754
  0
LINE
  5
386
330
36A
100
AcDbEntity
  8
0
100
AcDbLine
 10
-296.8346178531669
 20
863.389179706573
 30
0.0
 11
-298.2473075389885
 21
855.37749774754
 31
0.0
  0
ARC
  5
387
330
36A
100
AcDbEntity
  8
0
100
AcDbCircle
 10
-288.9561614923009
 20
861.9999946355815
 30
0.0
 40
8.000000000000113
100
AcDbArc
 50
90.0
 51
169.9999999999949
  0
LINE
  5
388
330
36A
100
AcDbEntity
  8
0
100
AcDbLine
 10
-0.000000000001819
 20
869.999994188547
 30
0.0
 11
-288.956165313723
 21
869.9999941885467
 31
0.0
  0
LINE
  5
389
330
36A
100
AcDbEntity
  8
0
100
AcDbLine
 10
-0.000000000001819
 20
849.9999946355817
 30
0.0
 11
-295.0000119209312
 21
849.9999946355815
 31
0.0
  0
LINE
  5
38A
330
36A
100
AcDbEntity
  8
0
100
AcDbLine
 10
-300.0000119209312
 20
844.4999946653839
 30
0.0
 11
-298.4402563504186
 21
814.7383128600719
 31
0.0
  0
LINE
  5
38B
330
36A
100
AcDbEntity
  8
0
100
AcDbLine
 10
-291.7815411725251
 20
805.8315518878467
 30
0.0
 11
-290.6760914460906
 21
784.7383145563431
 31
0.0
  0
ARC
  5
38C
330
36A
100
AcDbEntity
  8
0
100
AcDbCircle
 10
-285.6829437723177
 20
784.9999943375578
 30
0.0
 40
5.0
100
AcDbArc
 50
183.0000000000057
 51
270.0
  0
LINE
  5
38D
330
36A
100
AcDbEntity
  8
0
100
AcDbLine
 10
-285.6829437723177
 20
779.9999943375578
 30
0.0
 11
-0.000000000001819
 21
779.9999946355812
 31
0.0
  0
LINE
  5
38E
330
36A
100
AcDbEntity
  8
0
100
AcDbLine
 10
-295.1108988137294
 20
810.2849333710828
 30
0.0
 11
-0.000000000001819
 21
810.2849333710828
 31
0.0
  0
LINE
  5
38F
330
36A
100
AcDbEntity
  8
0
100
AcDbLine
 10
0.0
 20
0.0
 30
0.0
 11
125.0
 21
0.0
 31
0.0
  0
LINE
  5
390
330
36A
100
AcDbEntity
  8
0
100
AcDbLine
 10
121.9794154167175
 20
30.4460134357214
 30
0.0
 11
124.6447190642357
 21
0.0
 31
0.0
  0
LINE
  5
391
330
36A
100
AcDbEntity
  8
0
100
AcDbLine
 10
120.3275620937347
 20
0.0
 30
0.0
 11
0.0
 21
0.0
 31
0.0
  0
LINE
  5
392
330
36A
100
AcDbEntity
  8
0
100
AcDbLine
 10
102.5740578770637
 20
50.00250041484742
 30
0.0
 11
0.0
 21
50.00250041484742
 31
0.0
  0
LINE
  5
393
330
36A
100
AcDbEntity
  8
0
100
AcDbLine
 10
124.6386542916298
 20
0.0
 30
0.0
 11
120.3275620937347
 21
0.0
 31
0.0
  0
ELLIPSE
  5
394
330
36A
100
AcDbEntity
  8
0
100
AcDbEllipse
 10
117.4691965625534
 20
39.99999999999909
 30
0.0
 11
-5.015234894291324
 21
0.0000000000000036
 31
0.0
210
0.0
220
0.0
230
-1.0
 40
0.9969622770194341
 41
4.759432404821359
 42
6.152285613280017
  0
ELLIPSE
  5
395
330
36A
100
AcDbEntity
  8
0
100
AcDbEllipse
 10
107.0338395664694
 20
54.99999999999909
 30
0.0
 11
-5.015234894291324
 21
0.0000000000000036
 31
0.0
210
0.0
220
0.0
230
-1.0
 40
0.9969622770194341
 41
4.74429948493836
 42
6.269222673163642
  0
LINE
  5
396
330
36A
100
AcDbEntity
  8
0
100
AcDbLine
 10
124.6386542916298
 20
0.0
 30
0.0
 11
124.6447190642357
 21
0.0
 31
0.0
  0
ARC
  5
397
330
36A
100
AcDbEntity
  8
0
100
AcDbCircle
 10
116.9983520032783
 20
30.01105247758005
 30
0.0
 40
5.000005221739768
100
AcDbArc
 50
5.003553614822072
 51
87.30612172122354
  0
LINE
  5
398
330
36A
100
AcDbEntity
  8
0
100
AcDbLine
 10
112.9211112856865
 20
35.00546514987855
 30
0.0
 11
0.0
 21
35.00546514987855
 31
0.0
  0
LINE
  5
399
330
36A
100
AcDbEntity
  8
0
100
AcDbLine
 10
117.2289550304413
 20
35.00546514987855
 30
0.0
 11
112.9211112856865
 21
35.00546514987855
 31
0.0
  0
LINE
  5
39A
330
36A
100
AcDbEntity
  8
0
100
AcDbLine
 10
111.6655990481376
 20
45.65763100981621
 30
0.0
 11
112.496867775917
 21
39.34736922383218
 31
0.0
  0
LINE
  5
39B
330
36A
100
AcDbEntity
  8
0
100
AcDbLine
 10
106.8694069981575
 20
50.00250041484742
 30
0.0
 11
102.5740578770637
 21
50.00250041484742
 31
0.0
  0
LINE
  5
39C
330
36A
100
AcDbEntity
  8
0
100
AcDbLine
 10
93.28558635223998
 20
679.9999928474417
 30
0.0
 11
102.0190939307213
 21
54.93018776178269
 31
0.0
  0
ARC
  5
39D
330
36A
100
AcDbEntity
  8
0
100
AcDbCircle
 10
106.7143883189183
 20
45.00507915019534
 30
0.0
 40
5.000008621924741
100
AcDbArc
 50
7.504757762097031
 51
88.17268140078915
  0
LINE
  5
39E
330
36A
100
AcDbEntity
  8
0
100
AcDbLine
 10
-0.000000000001819
 20
0.0
 30
0.0
 11
-125.0000000000018
 21
0.0
 31
0.0
  0
LINE
  5
39F
330
36A
100
AcDbEntity
  8
0
100
AcDbLine
 10
-121.9794154167193
 20
30.4460134357214
 30
0.0
 11
-124.6447190642375
 21
0.0
 31
0.0
  0
LINE
  5
3A0
330
36A
100
AcDbEntity
  8
0
100
AcDbLine
 10
-120.3275620937365
 20
0.0
 30
0.0
 11
-0.000000000001819
 21
0.0
 31
0.0
  0
LINE
  5
3A1
330
36A
100
AcDbEntity
  8
0
100
AcDbLine
 10
-102.5740578770655
 20
50.00250041484742
 30
0.0
 11
-0.000000000001819
 21
50.00250041484742
 31
0.0
  0
LINE
  5
3A2
330
36A
100
AcDbEntity
  8
0
100
AcDbLine
 10
-124.6386542916316
 20
0.0
 30
0.0
 11
-120.3275620937365
 21
0.0
 31
0.0
  0
ELLIPSE
  5
3A3
330
36A
100
AcDbEntity
  8
0
100
AcDbEllipse
 10
-117.4691965625552
 20
39.99999999999909
 30
0.0
 11
5.015234894291324
 21
0.0000000000000036
 31
0.0
210
0.0
220
0.0
230
1.0
 40
0.9969622770194341
 41
4.759432404821359
 42
6.152285613280017
  0
ELLIPSE
  5
3A4
330
36A
100
AcDbEntity
  8
0
100
AcDbEllipse
 10
-107.0338395664712
 20
54.99999999999909
 30
0.0
 11
5.015234894291324
 21
0.0000000000000036
 31
0.0
210
0.0
220
0.0
230
1.0
 40
0.9969622770194341
 41
4.74429948493836
 42
6.269222673163642
  0
LINE
  5
3A5
330
36A
100
AcDbEntity
  8
0
100
AcDbLine
 10
-124.6386542916316
 20
0.0
 30
0.0
 11
-124.6447190642375
 21
0.0
 31
0.0
  0
ARC
  5
3A6
330
36A
100
AcDbEntity
  8
0
100
AcDbCircle
 10
-116.9983520032801
 20
30.01105247758005
 30
0.0
 40
5.000005221739768
100
AcDbArc
 50
92.69387827877645
 51
174.9964463851779
  0
LINE
  5
3A7
330
36A
100
AcDbEntity
  8
0
100
AcDbLine
 10
-112.9211112856883
 20
35.00546514987855
 30
0.0
 11
-0.000000000001819
 21
35.00546514987855
 31
0.0
  0
LINE
  5
3A8
330
36A
100
AcDbEntity
  8
0
100
AcDbLine
 10
-117.2289550304431
 20
35.00546514987855
 30
0.0
 11
-112.9211112856883
 21
35.00546514987855
 31
0.0
  0
LINE
  5
3A9
330
36A
100
AcDbEntity
  8
0
100
AcDbLine
 10
-111.6655990481395
 20
45.65763100981621
 30
0.0
 11
-112.4968677759188
 21
39.34736922383218
 31
0.0
  0
LINE
  5
3AA
330
36A
100
AcDbEntity
  8
0
100
AcDbLine
 10
-106.8694069981593
 20
50.00250041484742
 30
0.0
 11
-102.5740578770655
 21
50.00250041484742
 31
0.0
  0
LINE
  5
3AB
330
36A
100
AcDbEntity
  8
0
100
AcDbLine
 10
-93.28558635223998
 20
679.9999928474417
 30
0.0
 11
-102.0190939307231
 21
54.93018776178269
 31
0.0
  0
ARC
  5
3AC
330
36A
100
AcDbEntity
  8
0
100
AcDbCircle
 10
-106.7143883189201
 20
45.00507915019534
 30
0.0
 40
5.000008621924741
100
AcDbArc
 50
91.82731859921084
 51
172.495242237903
  0
ENDBLK
  5
36C
330
36A
100
AcDbEntity
  8
0
100
AcDbBlockEnd
  0
ENDSEC
  0
SECTION
  2
ENTITIES
  0
MTEXT
  5
2BF
330
1F
100
AcDbEntity
  8
0
100
AcDbMText
 10
-416.9613267768137
 20
33.41238768955648
 30
0.0
 40
20.0
 41
505.2631578947369
 71
     1
 72
     5
  1
{\fTimes New Roman|b0|i0|c0|p18;\C0;LAVABO DE 60 CM. CON PEDESTAL. SERIE NOBLE}
 73
     1
 44
1.0
1001
ACAD
1000
MTEXTBEGIN
1070
    73
1070
     1
1070
    44
1040
1.0
1070
    74
1070
     0
1000
MTEXTEND
  0
INSERT
  5
3AD
330
1F
100
AcDbEntity
  8
0
100
AcDbBlockReference
  2
12040-430-A
 10
-178.8132694392871
 20
118.0019855058817
 30
0.0
  0
ENDSEC
  0
SECTION
  2
OBJECTS
  0
DICTIONARY
  5
C
330
0
100
AcDbDictionary
281
     1
  3
ACAD_COLOR
350
6B
  3
ACAD_GROUP
350
D
  3
ACAD_LAYOUT
350
1A
  3
ACAD_MATERIAL
350
6A
  3
ACAD_MLINESTYLE
350
17
  3
ACAD_PLOTSETTINGS
350
19
  3
ACAD_PLOTSTYLENAME
350
E
  3
ACAD_TABLESTYLE
350
7E
  3
ACDBHEADERROUNDTRIPXREC
350
3BF
  3
AcDbVariableDictionary
350
5E
  3
DWGPROPS
350
3BE
  0
DICTIONARY
  5
118
330
2
100
AcDbDictionary
280
     1
281
     1
  3
ACAD_LAYERSTATES
360
119
  0
DICTIONARY
  5
1DD
330
1F
100
AcDbDictionary
280
     1
281
     1
  3
ACAD_SORTENTS
360
1DE
  0
DICTIONARY
  5
6B
102
{ACAD_REACTORS
330
C
102
}
330
C
100
AcDbDictionary
281
     1
  0
DICTIONARY
  5
D
102
{ACAD_REACTORS
330
C
102
}
330
C
100
AcDbDictionary
281
     1
  0
DICTIONARY
  5
1A
102
{ACAD_REACTORS
330
C
102
}
330
C
100
AcDbDictionary
281
     1
  3
Model
350
22
  3
Presentación1
350
D3
  3
Presentación2
350
D7
  0
DICTIONARY
  5
6A
102
{ACAD_REACTORS
330
C
102
}
330
C
100
AcDbDictionary
281
     1
  0
DICTIONARY
  5
17
102
{ACAD_REACTORS
330
C
102
}
330
C
100
AcDbDictionary
281
     1
  3
Standard
350
18
  0
DICTIONARY
  5
19
102
{ACAD_REACTORS
330
C
102
}
330
C
100
AcDbDictionary
281
     1
  0
ACDBDICTIONARYWDFLT
  5
E
102
{ACAD_REACTORS
330
C
102
}
330
C
100
AcDbDictionary
281
     1
  3
Normal
350
F
100
AcDbDictionaryWithDefault
340
F
  0
DICTIONARY
  5
7E
102
{ACAD_REACTORS
330
C
102
}
330
C
100
AcDbDictionary
281
     1
  3
Standard
350
7F
  0
DICTIONARY
  5
3BF
102
{ACAD_REACTORS
330
C
102
}
330
C
100
AcDbDictionary
281
     1
  0
DICTIONARY
  5
5E
102
{ACAD_REACTORS
330
C
102
}
330
C
100
AcDbDictionary
281
     1
  3
CTABLESTYLE
350
84
  3
DIMASSOC
350
5F
  3
HIDETEXT
350
63
  3
PROJECTNAME
350
3B7
  0
XRECORD
  5
3BE
102
{ACAD_REACTORS
330
C
102
}
330
C
100
AcDbXrecord
280
     1
  1
DWGPROPS COOKIE
  2

  3

  4

  6

  7

  8
Autodesk
  9

300
=
301
=
302
=
303
=
304
=
305
=
306
=
307
=
308
=
309
=
 40
0.0375743402777778
 41
2454550.307324757
 42
2454550.40789044
  1

 90
        0
  0
DICTIONARY
  5
119
102
{ACAD_REACTORS
330
118
102
}
330
118
100
AcDbDictionary
281
     1
  0
SORTENTSTABLE
  5
1DE
102
{ACAD_REACTORS
330
1DD
102
}
330
1DD
100
AcDbSortentsTable
330
1F
331
3AD
  5
3AD
331
2BF
  5
2BF
  0
LAYOUT
  5
22
102
{ACAD_XDICTIONARY
360
3C0
102
}
102
{ACAD_REACTORS
330
1A
102
}
330
1A
100
AcDbPlotSettings
  1

  2
none_device
  4
ISO_A4_(210.00_x_297.00_MM)
  6

 40
7.5
 41
20.0
 42
7.5
 43
20.0
 44
210.0
 45
297.0
 46
11.54999923706054
 47
-13.65000009536743
 48
0.0
 49
0.0
140
0.0
141
0.0
142
1.0
143
8.704084754739808
 70
 11952
 72
     1
 73
     0
 74
     0
  7

 75
     0
147
0.1148885871608098
148
0.0
149
0.0
100
AcDbLayout
  1
Model
 70
     1
 71
     0
 10
0.0
 20
0.0
 11
12.0
 21
9.0
 12
0.0
 22
0.0
 32
0.0
 14
0.0
 24
0.0
 34
0.0
 15
0.0
 25
0.0
 35
0.0
146
0.0
 13
0.0
 23
0.0
 33
0.0
 16
1.0
 26
0.0
 36
0.0
 17
0.0
 27
1.0
 37
0.0
 76
     0
330
1F
1001
ACAD_PSEXT
1000
None
1000
None
1000
Not applicable
1000
The layout will not be plotted unless a new plotter configuration name is selected.
1070
     0
  0
LAYOUT
  5
D3
102
{ACAD_XDICTIONARY
360
3C2
102
}
102
{ACAD_REACTORS
330
1A
102
}
330
1A
100
AcDbPlotSettings
  1

  2
C:\Documents and Settings\basas\Application Data\Autodesk\AutoCAD 2005\R16.1\enu\plotters\Default Windows System Printer.pc3
  4

  6

 40
0.0
 41
0.0
 42
0.0
 43
0.0
 44
0.0
 45
0.0
 46
0.0
 47
0.0
 48
0.0
 49
0.0
140
0.0
141
0.0
142
1.0
143
1.0
 70
   688
 72
     0
 73
     0
 74
     5
  7

 75
    16
147
1.0
148
0.0
149
0.0
100
AcDbLayout
  1
Presentación1
 70
     1
 71
     1
 10
0.0
 20
0.0
 11
12.0
 21
9.0
 12
0.0
 22
0.0
 32
0.0
 14
0.0
 24
0.0
 34
0.0
 15
0.0
 25
0.0
 35
0.0
146
0.0
 13
0.0
 23
0.0
 33
0.0
 16
1.0
 26
0.0
 36
0.0
 17
0.0
 27
1.0
 37
0.0
 76
     0
330
D2
  0
LAYOUT
  5
D7
102
{ACAD_XDICTIONARY
360
3C4
102
}
102
{ACAD_REACTORS
330
1A
102
}
330
1A
100
AcDbPlotSettings
  1

  2
C:\Documents and Settings\basas\Application Data\Autodesk\AutoCAD 2005\R16.1\enu\plotters\Default Windows System Printer.pc3
  4

  6

 40
0.0
 41
0.0
 42
0.0
 43
0.0
 44
0.0
 45
0.0
 46
0.0
 47
0.0
 48
0.0
 49
0.0
140
0.0
141
0.0
142
1.0
143
1.0
 70
   688
 72
     0
 73
     0
 74
     5
  7

 75
    16
147
1.0
148
0.0
149
0.0
100
AcDbLayout
  1
Presentación2
 70
     1
 71
     2
 10
0.0
 20
0.0
 11
12.0
 21
9.0
 12
0.0
 22
0.0
 32
0.0
 14
0.0
 24
0.0
 34
0.0
 15
0.0
 25
0.0
 35
0.0
146
0.0
 13
0.0
 23
0.0
 33
0.0
 16
1.0
 26
0.0
 36
0.0
 17
0.0
 27
1.0
 37
0.0
 76
     0
330
D6
  0
MLINESTYLE
  5
18
102
{ACAD_REACTORS
330
17
102
}
330
17
100
AcDbMlineStyle
  2
STANDARD
 70
     0
  3

 62
   256
 51
90.0
 52
90.0
 71
     2
 49
0.5
 62
   256
  6
BYLAYER
 49
-0.5
 62
   256
  6
BYLAYER
  0
ACDBPLACEHOLDER
  5
F
102
{ACAD_REACTORS
330
E
102
}
330
E
  0
TABLESTYLE
  5
7F
102
{ACAD_REACTORS
330
7E
102
}
330
7E
100
AcDbTableStyle
  3
Standard
 70
     0
 71
     0
 40
1.5
 41
1.5
280
     0
281
     0
  7
Standard
140
4.5
170
     2
 62
     0
 63
     7
283
     0
274
    -2
284
     1
 64
     0
275
    -2
285
     1
 65
     0
276
    -2
286
     1
 66
     0
277
    -2
287
     1
 67
     0
278
    -2
288
     1
 68
     0
279
    -2
289
     1
 69
     0
  7
Standard
140
6.0
170
     5
 62
     0
 63
     7
283
     0
274
    -2
284
     1
 64
     0
275
    -2
285
     1
 65
     0
276
    -2
286
     1
 66
     0
277
    -2
287
     1
 67
     0
278
    -2
288
     1
 68
     0
279
    -2
289
     1
 69
     0
  7
Standard
140
4.5
170
     5
 62
     0
 63
     7
283
     0
274
    -2
284
     1
 64
     0
275
    -2
285
     1
 65
     0
276
    -2
286
     1
 66
     0
277
    -2
287
     1
 67
     0
278
    -2
288
     1
 68
     0
279
    -2
289
     1
 69
     0
  0
DICTIONARYVAR
  5
84
102
{ACAD_REACTORS
330
5E
102
}
330
5E
100
DictionaryVariables
280
     0
  1
STANDARD
  0
DICTIONARYVAR
  5
5F
102
{ACAD_REACTORS
330
5E
102
}
330
5E
100
DictionaryVariables
280
     0
  1
2
  0
DICTIONARYVAR
  5
63
102
{ACAD_REACTORS
330
5E
102
}
330
5E
100
DictionaryVariables
280
     0
  1
1
  0
DICTIONARYVAR
  5
3B7
102
{ACAD_REACTORS
330
5E
102
}
330
5E
100
DictionaryVariables
280
     0
  1

  0
DICTIONARY
  5
3C0
330
22
100
AcDbDictionary
280
     1
281
     1
  3
ACAD_XREC_ROUNDTRIP
360
3C1
  0
DICTIONARY
  5
3C2
330
D3
100
AcDbDictionary
280
     1
281
     1
  3
ACAD_XREC_ROUNDTRIP
360
3C3
  0
DICTIONARY
  5
3C4
330
D7
100
AcDbDictionary
280
     1
281
     1
  3
ACAD_XREC_ROUNDTRIP
360
3C5
  0
XRECORD
  5
3C1
102
{ACAD_REACTORS
330
3C0
102
}
330
3C0
100
AcDbXrecord
280
     1
102
SHADEPLOT
 70
     0
102
SHADEPLOTRESLEVEL
 70
     2
102
SHADEPLOTCUSTOMDPI
 70
   300
  0
XRECORD
  5
3C3
102
{ACAD_REACTORS
330
3C2
102
}
330
3C2
100
AcDbXrecord
280
     1
102
SHADEPLOT
 70
     0
102
SHADEPLOTRESLEVEL
 70
     2
102
SHADEPLOTCUSTOMDPI
 70
   300
  0
XRECORD
  5
3C5
102
{ACAD_REACTORS
330
3C4
102
}
330
3C4
100
AcDbXrecord
280
     1
102
SHADEPLOT
 70
     0
102
SHADEPLOTRESLEVEL
 70
     2
102
SHADEPLOTCUSTOMDPI
 70
   300
  0
ENDSEC
  0
EOF
