  0
SECTION
  2
HEADER
  9
$ACADVER
  1
AC1015
  9
$ACADMAINTVER
 70
    20
  9
$DWGCODEPAGE
  3
ANSI_1252
  9
$INSBASE
 10
0.0
 20
0.0
 30
0.0
  9
$EXTMIN
 10
65.60727206051888
 20
20.16825228219318
 30
-0.0015258207003583
  9
$EXTMAX
 10
842.7558894487139
 20
774.3214857991947
 30
0.0000000349246037
  9
$LIMMIN
 10
0.0
 20
0.0
  9
$LIMMAX
 10
12.0
 20
9.0
  9
$ORTHOMODE
 70
     0
  9
$REGENMODE
 70
     1
  9
$FILLMODE
 70
     1
  9
$QTEXTMODE
 70
     0
  9
$MIRRTEXT
 70
     0
  9
$LTSCALE
 40
1.0
  9
$ATTMODE
 70
     1
  9
$TEXTSIZE
 40
0.2
  9
$TRACEWID
 40
0.05
  9
$TEXTSTYLE
  7
Standard
  9
$CLAYER
  8
0
  9
$CELTYPE
  6
ByLayer
  9
$CECOLOR
 62
   256
  9
$CELTSCALE
 40
1.0
  9
$DISPSILH
 70
     0
  9
$DIMSCALE
 40
1.0
  9
$DIMASZ
 40
0.18
  9
$DIMEXO
 40
0.0625
  9
$DIMDLI
 40
0.38
  9
$DIMRND
 40
0.0
  9
$DIMDLE
 40
0.0
  9
$DIMEXE
 40
0.18
  9
$DIMTP
 40
0.0
  9
$DIMTM
 40
0.0
  9
$DIMTXT
 40
0.18
  9
$DIMCEN
 40
0.09
  9
$DIMTSZ
 40
0.0
  9
$DIMTOL
 70
     0
  9
$DIMLIM
 70
     0
  9
$DIMTIH
 70
     1
  9
$DIMTOH
 70
     1
  9
$DIMSE1
 70
     0
  9
$DIMSE2
 70
     0
  9
$DIMTAD
 70
     0
  9
$DIMZIN
 70
     0
  9
$DIMBLK
  1

  9
$DIMASO
 70
     1
  9
$DIMSHO
 70
     1
  9
$DIMPOST
  1

  9
$DIMAPOST
  1

  9
$DIMALT
 70
     0
  9
$DIMALTD
 70
     2
  9
$DIMALTF
 40
25.4
  9
$DIMLFAC
 40
1.0
  9
$DIMTOFL
 70
     0
  9
$DIMTVP
 40
0.0
  9
$DIMTIX
 70
     0
  9
$DIMSOXD
 70
     0
  9
$DIMSAH
 70
     0
  9
$DIMBLK1
  1

  9
$DIMBLK2
  1

  9
$DIMSTYLE
  2
Standard
  9
$DIMCLRD
 70
     0
  9
$DIMCLRE
 70
     0
  9
$DIMCLRT
 70
     0
  9
$DIMTFAC
 40
1.0
  9
$DIMGAP
 40
0.09
  9
$DIMJUST
 70
     0
  9
$DIMSD1
 70
     0
  9
$DIMSD2
 70
     0
  9
$DIMTOLJ
 70
     1
  9
$DIMTZIN
 70
     0
  9
$DIMALTZ
 70
     0
  9
$DIMALTTZ
 70
     0
  9
$DIMUPT
 70
     0
  9
$DIMDEC
 70
     4
  9
$DIMTDEC
 70
     4
  9
$DIMALTU
 70
     2
  9
$DIMALTTD
 70
     2
  9
$DIMTXSTY
  7
Standard
  9
$DIMAUNIT
 70
     0
  9
$DIMADEC
 70
     0
  9
$DIMALTRND
 40
0.0
  9
$DIMAZIN
 70
     0
  9
$DIMDSEP
 70
    46
  9
$DIMATFIT
 70
     3
  9
$DIMFRAC
 70
     0
  9
$DIMLDRBLK
  1

  9
$DIMLUNIT
 70
     2
  9
$DIMLWD
 70
    -2
  9
$DIMLWE
 70
    -2
  9
$DIMTMOVE
 70
     0
  9
$LUNITS
 70
     2
  9
$LUPREC
 70
     4
  9
$SKETCHINC
 40
0.1
  9
$FILLETRAD
 40
0.0
  9
$AUNITS
 70
     0
  9
$AUPREC
 70
     0
  9
$MENU
  1
.
  9
$ELEVATION
 40
0.0
  9
$PELEVATION
 40
0.0
  9
$THICKNESS
 40
0.0
  9
$LIMCHECK
 70
     0
  9
$CHAMFERA
 40
0.0
  9
$CHAMFERB
 40
0.0
  9
$CHAMFERC
 40
0.0
  9
$CHAMFERD
 40
0.0
  9
$SKPOLY
 70
     0
  9
$TDCREATE
 40
2454473.099372060
  9
$TDUCREATE
 40
2454473.016038727
  9
$TDUPDATE
 40
2454572.553262072
  9
$TDUUPDATE
 40
2454572.469928738
  9
$TDINDWG
 40
0.0101815741
  9
$TDUSRTIMER
 40
0.0101815741
  9
$USRTIMER
 70
     1
  9
$ANGBASE
 50
0.0
  9
$ANGDIR
 70
     0
  9
$PDMODE
 70
     0
  9
$PDSIZE
 40
0.0
  9
$PLINEWID
 40
0.0
  9
$SPLFRAME
 70
     0
  9
$SPLINETYPE
 70
     6
  9
$SPLINESEGS
 70
     8
  9
$HANDSEED
  5
2A6
  9
$SURFTAB1
 70
     6
  9
$SURFTAB2
 70
     6
  9
$SURFTYPE
 70
     6
  9
$SURFU
 70
     6
  9
$SURFV
 70
     6
  9
$UCSBASE
  2

  9
$UCSNAME
  2

  9
$UCSORG
 10
0.0
 20
0.0
 30
0.0
  9
$UCSXDIR
 10
1.0
 20
0.0
 30
0.0
  9
$UCSYDIR
 10
0.0
 20
1.0
 30
0.0
  9
$UCSORTHOREF
  2

  9
$UCSORTHOVIEW
 70
     0
  9
$UCSORGTOP
 10
0.0
 20
0.0
 30
0.0
  9
$UCSORGBOTTOM
 10
0.0
 20
0.0
 30
0.0
  9
$UCSORGLEFT
 10
0.0
 20
0.0
 30
0.0
  9
$UCSORGRIGHT
 10
0.0
 20
0.0
 30
0.0
  9
$UCSORGFRONT
 10
0.0
 20
0.0
 30
0.0
  9
$UCSORGBACK
 10
0.0
 20
0.0
 30
0.0
  9
$PUCSBASE
  2

  9
$PUCSNAME
  2

  9
$PUCSORG
 10
0.0
 20
0.0
 30
0.0
  9
$PUCSXDIR
 10
1.0
 20
0.0
 30
0.0
  9
$PUCSYDIR
 10
0.0
 20
1.0
 30
0.0
  9
$PUCSORTHOREF
  2

  9
$PUCSORTHOVIEW
 70
     0
  9
$PUCSORGTOP
 10
0.0
 20
0.0
 30
0.0
  9
$PUCSORGBOTTOM
 10
0.0
 20
0.0
 30
0.0
  9
$PUCSORGLEFT
 10
0.0
 20
0.0
 30
0.0
  9
$PUCSORGRIGHT
 10
0.0
 20
0.0
 30
0.0
  9
$PUCSORGFRONT
 10
0.0
 20
0.0
 30
0.0
  9
$PUCSORGBACK
 10
0.0
 20
0.0
 30
0.0
  9
$USERI1
 70
     0
  9
$USERI2
 70
     0
  9
$USERI3
 70
     0
  9
$USERI4
 70
     0
  9
$USERI5
 70
     0
  9
$USERR1
 40
0.0
  9
$USERR2
 40
0.0
  9
$USERR3
 40
0.0
  9
$USERR4
 40
0.0
  9
$USERR5
 40
0.0
  9
$WORLDVIEW
 70
     1
  9
$SHADEDGE
 70
     3
  9
$SHADEDIF
 70
    70
  9
$TILEMODE
 70
     1
  9
$MAXACTVP
 70
    64
  9
$PINSBASE
 10
0.0
 20
0.0
 30
0.0
  9
$PLIMCHECK
 70
     0
  9
$PEXTMIN
 10
0.0
 20
0.0
 30
0.0
  9
$PEXTMAX
 10
0.0
 20
0.0
 30
0.0
  9
$PLIMMIN
 10
0.0
 20
0.0
  9
$PLIMMAX
 10
12.0
 20
9.0
  9
$UNITMODE
 70
     0
  9
$VISRETAIN
 70
     1
  9
$PLINEGEN
 70
     0
  9
$PSLTSCALE
 70
     1
  9
$TREEDEPTH
 70
  3020
  9
$CMLSTYLE
  2
Standard
  9
$CMLJUST
 70
     0
  9
$CMLSCALE
 40
1.0
  9
$PROXYGRAPHICS
 70
     1
  9
$MEASUREMENT
 70
     0
  9
$CELWEIGHT
370
    -1
  9
$ENDCAPS
280
     0
  9
$JOINSTYLE
280
     0
  9
$LWDISPLAY
290
     0
  9
$INSUNITS
 70
     1
  9
$HYPERLINKBASE
  1

  9
$STYLESHEET
  1

  9
$XEDIT
290
     1
  9
$CEPSNTYPE
380
     0
  9
$PSTYLEMODE
290
     1
  9
$FINGERPRINTGUID
  2
{FDEAD576-A652-11D2-9A35-0060089B3A3F}
  9
$VERSIONGUID
  2
{7F25F93F-E85E-4045-8F27-ABB7B0E92C5E}
  9
$EXTNAMES
290
     1
  9
$PSVPSCALE
 40
0.0
  9
$OLESTARTUP
290
     0
  0
ENDSEC
  0
SECTION
  2
CLASSES
  0
CLASS
  1
ACDBDICTIONARYWDFLT
  2
AcDbDictionaryWithDefault
  3
ObjectDBX Classes
 90
        0
280
     0
281
     0
  0
CLASS
  1
DICTIONARYVAR
  2
AcDbDictionaryVar
  3
ObjectDBX Classes
 90
        0
280
     0
281
     0
  0
CLASS
  1
TABLESTYLE
  2
AcDbTableStyle
  3
ObjectDBX Classes
 90
     2047
280
     0
281
     0
  0
CLASS
  1
SORTENTSTABLE
  2
AcDbSortentsTable
  3
ObjectDBX Classes
 90
        0
280
     0
281
     0
  0
CLASS
  1
ACDBPLACEHOLDER
  2
AcDbPlaceHolder
  3
ObjectDBX Classes
 90
        0
280
     0
281
     0
  0
CLASS
  1
LAYOUT
  2
AcDbLayout
  3
ObjectDBX Classes
 90
        0
280
     0
281
     0
  0
ENDSEC
  0
SECTION
  2
TABLES
  0
TABLE
  2
VPORT
  5
8
330
0
100
AcDbSymbolTable
 70
     4
  0
VPORT
  5
29D
330
8
100
AcDbSymbolTableRecord
100
AcDbViewportTableRecord
  2
*Active
 70
     0
 10
0.0
 20
0.0
 11
1.0
 21
1.0
 12
486.7475192218834
 22
437.3872411988013
 13
0.0
 23
0.0
 14
0.5
 24
0.5
 15
0.5
 25
0.5
 16
0.0
 26
0.0
 36
1.0
 17
0.0
 27
0.0
 37
0.0
 40
1214.784715719754
 41
1.454088050314465
 42
50.0
 43
0.0
 44
0.0
 50
0.0
 51
0.0
 71
     0
 72
  1000
 73
     1
 74
     3
 75
     0
 76
     0
 77
     0
 78
     0
281
     0
 65
     1
110
0.0
120
0.0
130
0.0
111
1.0
121
0.0
131
0.0
112
0.0
122
1.0
132
0.0
 79
     0
146
0.0
  0
ENDTAB
  0
TABLE
  2
LTYPE
  5
5
330
0
100
AcDbSymbolTable
 70
     3
  0
LTYPE
  5
14
330
5
100
AcDbSymbolTableRecord
100
AcDbLinetypeTableRecord
  2
ByBlock
 70
     0
  3

 72
    65
 73
     0
 40
0.0
  0
LTYPE
  5
15
330
5
100
AcDbSymbolTableRecord
100
AcDbLinetypeTableRecord
  2
ByLayer
 70
     0
  3

 72
    65
 73
     0
 40
0.0
  0
LTYPE
  5
16
330
5
100
AcDbSymbolTableRecord
100
AcDbLinetypeTableRecord
  2
Continuous
 70
     0
  3
Solid line
 72
    65
 73
     0
 40
0.0
  0
ENDTAB
  0
TABLE
  2
LAYER
  5
2
102
{ACAD_XDICTIONARY
360
93
102
}
330
0
100
AcDbSymbolTable
 70
     4
  0
LAYER
  5
10
330
2
100
AcDbSymbolTableRecord
100
AcDbLayerTableRecord
  2
0
 70
     0
 62
     7
  6
Continuous
370
    -3
390
F
  0
ENDTAB
  0
TABLE
  2
STYLE
  5
3
330
0
100
AcDbSymbolTable
 70
     3
  0
STYLE
  5
11
330
3
100
AcDbSymbolTableRecord
100
AcDbTextStyleTableRecord
  2
Standard
 70
     0
 40
0.0
 41
1.0
 50
0.0
 71
     0
 42
0.2
  3
txt
  4

  0
ENDTAB
  0
TABLE
  2
VIEW
  5
6
330
0
100
AcDbSymbolTable
 70
     0
  0
ENDTAB
  0
TABLE
  2
UCS
  5
7
330
0
100
AcDbSymbolTable
 70
     0
  0
ENDTAB
  0
TABLE
  2
APPID
  5
9
330
0
100
AcDbSymbolTable
 70
     2
  0
APPID
  5
12
330
9
100
AcDbSymbolTableRecord
100
AcDbRegAppTableRecord
  2
ACAD
 70
     0
  0
APPID
  5
142
330
9
100
AcDbSymbolTableRecord
100
AcDbRegAppTableRecord
  2
ACAD_PSEXT
 70
     0
  0
ENDTAB
  0
TABLE
  2
DIMSTYLE
  5
A
330
0
100
AcDbSymbolTable
 70
     1
100
AcDbDimStyleTable
 71
     0
  0
DIMSTYLE
105
27
330
A
100
AcDbSymbolTableRecord
100
AcDbDimStyleTableRecord
  2
Standard
 70
     0
340
11
  0
ENDTAB
  0
TABLE
  2
BLOCK_RECORD
  5
1
330
0
100
AcDbSymbolTable
 70
     6
  0
BLOCK_RECORD
  5
1F
102
{ACAD_XDICTIONARY
360
209
102
}
330
1
100
AcDbSymbolTableRecord
100
AcDbBlockTableRecord
  2
*Model_Space
340
22
  0
BLOCK_RECORD
  5
58
330
1
100
AcDbSymbolTableRecord
100
AcDbBlockTableRecord
  2
*Paper_Space
340
59
  0
BLOCK_RECORD
  5
5D
330
1
100
AcDbSymbolTableRecord
100
AcDbBlockTableRecord
  2
*Paper_Space0
340
5E
  0
BLOCK_RECORD
  5
25D
330
1
100
AcDbSymbolTableRecord
100
AcDbBlockTableRecord
  2
25150-P
340
0
310
2800000020000000200000000100080000000000000400000000000000000000000000000000000000000000000080000080000000808000800000008000800080800000C0C0C000C0DCC000F0CAA6000020400000206000002080000020A0000020C0000020E00000400000004020000040400000406000004080000040A0
310
000040C0000040E00000600000006020000060400000606000006080000060A0000060C0000060E00000800000008020000080400000806000008080000080A0000080C0000080E00000A0000000A0200000A0400000A0600000A0800000A0A00000A0C00000A0E00000C0000000C0200000C0400000C0600000C0800000C0
310
A00000C0C00000C0E00000E0000000E0200000E0400000E0600000E0800000E0A00000E0C00000E0E00040000000400020004000400040006000400080004000A0004000C0004000E00040200000402020004020400040206000402080004020A0004020C0004020E000404000004040200040404000404060004040800040
310
40A0004040C0004040E00040600000406020004060400040606000406080004060A0004060C0004060E00040800000408020004080400040806000408080004080A0004080C0004080E00040A0000040A0200040A0400040A0600040A0800040A0A00040A0C00040A0E00040C0000040C0200040C0400040C0600040C08000
310
40C0A00040C0C00040C0E00040E0000040E0200040E0400040E0600040E0800040E0A00040E0C00040E0E00080000000800020008000400080006000800080008000A0008000C0008000E00080200000802020008020400080206000802080008020A0008020C0008020E00080400000804020008040400080406000804080
310
008040A0008040C0008040E00080600000806020008060400080606000806080008060A0008060C0008060E00080800000808020008080400080806000808080008080A0008080C0008080E00080A0000080A0200080A0400080A0600080A0800080A0A00080A0C00080A0E00080C0000080C0200080C0400080C0600080C0
310
800080C0A00080C0C00080C0E00080E0000080E0200080E0400080E0600080E0800080E0A00080E0C00080E0E000C0000000C0002000C0004000C0006000C0008000C000A000C000C000C000E000C0200000C0202000C0204000C0206000C0208000C020A000C020C000C020E000C0400000C0402000C0404000C0406000C0
310
408000C040A000C040C000C040E000C0600000C0602000C0604000C0606000C0608000C060A000C060C000C060E000C0800000C0802000C0804000C0806000C0808000C080A000C080C000C080E000C0A00000C0A02000C0A04000C0A06000C0A08000C0A0A000C0A0C000C0A0E000C0C00000C0C02000C0C04000C0C06000
310
C0C08000C0C0A000F0FBFF00A4A0A000808080000000FF0000FF000000FFFF00FF000000FF00FF00FFFF0000FFFFFF000000000000000000000000000000000000000000000000000000000000000000000000000000000000000000000000FFFF00000000000000000000000000000000000000000000000000000000FFFF
310
0000FFFF000000000000000000000000000000000000000000000000FFFF0000FFFF0000FFFF0000000000000000000000000000000000000000FFFF0000FFFFFFFFFFFF0000FFFF000000000000000000000000000000000000FF00FFFFFF00000000FFFFFF0000FF00000000000000000000000000000000FF00FFFF0000
310
000000000000FFFF00FF00000000000000000000000000000000FF00FFFF0000000000000000FFFF00FF00000000000000000000000000000000FF00FFFF0000000000000000FFFF00FF00000000000000000000000000000000FF00FFFF0000FFFFFFFF0000FFFF00FF00000000000000000000000000000000FF00FF0000
310
FF00000000FF0000FF00FF00000000000000000000000000000000FF00FF0000FF00000000FF0000FF00FF00000000000000000000000000000000FF00FF0000FF00000000FF0000FF00FF00000000000000000000000000000000FF00FF0000FF00000000FF0000FF00FF00000000000000000000000000000000FF00FF00
310
00FF00000000FF0000FF00FF00000000000000000000000000000000FF00FFFF00FFFFFFFFFFFF00FFFF00FF00000000000000000000000000000000FF00FFFFFF000000000000FFFFFF00FF00000000000000000000000000000000FF0000FFFFFFFFFFFFFFFFFFFF0000FF00000000000000000000000000000000FF0000
310
00FFFFFFFFFFFFFFFF000000FF00000000000000000000000000000000FF0000000000000000000000000000FF00000000000000000000000000000000FF000000FF000000000000FF000000FF00000000000000000000000000000000FF000000FF000000000000FF000000FF00000000000000000000000000000000FF00
310
00000000000000000000000000FF00000000000000000000000000000000FFFFFFFFFFFFFFFFFFFFFFFFFFFFFFFF000000000000000000000000000000FF00000000000000000000000000000000FF0000000000000000000000000000FF00000000000000FFFF00000000000000FF000000000000000000000000000000FF
310
000000000000FFFF00000000000000FF000000000000000000000000000000FF000000000000FF00000000000000FF00000000000000000000000000000000FF0000000000000000000000000000FF00000000000000000000000000000000FF0000000000000000000000000000FF00000000000000000000000000000000
310
FFFFFFFFFFFFFFFFFFFFFFFFFFFFFFFF00000000000000000000000000000000000000000000000000000000000000000000000000000000
102
{BLKREFS
331
29C
102
}
1001
ACAD
1000
DesignCenter Data
1002
{
1070
     1
1070
     1
1002
}
  0
ENDTAB
  0
ENDSEC
  0
SECTION
  2
BLOCKS
  0
BLOCK
  5
20
330
1F
100
AcDbEntity
  8
0
100
AcDbBlockBegin
  2
*Model_Space
 70
     0
 10
0.0
 20
0.0
 30
0.0
  3
*Model_Space
  1

  0
ENDBLK
  5
21
330
1F
100
AcDbEntity
  8
0
100
AcDbBlockEnd
  0
BLOCK
  5
5A
330
58
100
AcDbEntity
 67
     1
  8
0
100
AcDbBlockBegin
  2
*Paper_Space
 70
     0
 10
0.0
 20
0.0
 30
0.0
  3
*Paper_Space
  1

  0
ENDBLK
  5
5B
330
58
100
AcDbEntity
 67
     1
  8
0
100
AcDbBlockEnd
  0
BLOCK
  5
5F
330
5D
100
AcDbEntity
  8
0
100
AcDbBlockBegin
  2
*Paper_Space0
 70
     0
 10
0.0
 20
0.0
 30
0.0
  3
*Paper_Space0
  1

  0
ENDBLK
  5
60
330
5D
100
AcDbEntity
  8
0
100
AcDbBlockEnd
  0
BLOCK
  5
25E
330
25D
100
AcDbEntity
  8
0
100
AcDbBlockBegin
  2
25150-P
 70
     0
 10
0.0
 20
0.0
 30
0.0
  3
25150-P
  1

  0
LINE
  5
260
330
25D
100
AcDbEntity
  8
0
  6
Continuous
370
    15
100
AcDbLine
 10
59.80000000001746
 20
-379.9917652917084
 30
0.0
 11
59.80000000001746
 21
-347.7473405778023
 31
0.0
  0
LINE
  5
261
330
25D
100
AcDbEntity
  8
0
  6
Continuous
370
    15
100
AcDbLine
 10
59.80000000001746
 20
-379.9917652917084
 30
0.0
 11
59.80000000001746
 21
-419.9917652917078
 31
0.0
  0
ARC
  5
262
330
25D
100
AcDbEntity
  8
0
  6
Continuous
370
    15
100
AcDbCircle
 10
116.5335030047554
 20
-550.3692529045743
 30
0.0
 40
55.0000000000001
100
AcDbArc
 50
311.8396801021254
 51
357.8033064314003
  0
ARC
  5
263
330
25D
100
AcDbEntity
  8
0
  6
Continuous
370
    15
100
AcDbCircle
 10
-4325.199999999984
 20
-379.9917652917074
 30
0.0
 40
4500.0
100
AcDbArc
 50
357.8033064314003
 51
0.0
  0
ARC
  5
264
330
25D
100
AcDbEntity
  8
0
  6
Continuous
370
    15
100
AcDbCircle
 10
-0.1999999999825377
 20
-419.9917652917078
 30
0.0
 40
185.0
100
AcDbArc
 50
270.0
 51
304.0906892247156
  0
ARC
  5
265
330
25D
100
AcDbEntity
  8
0
  6
Continuous
370
    15
100
AcDbCircle
 10
-0.1999999999825377
 20
-419.9917652917078
 30
0.0
 40
177.065285868119
100
AcDbArc
 50
270.0
 51
304.0906892247156
  0
ARC
  5
266
330
25D
100
AcDbEntity
  8
0
  6
Continuous
370
    15
100
AcDbCircle
 10
-4325.199999999984
 20
-379.991765291707
 30
0.0
 40
4450.0
100
AcDbArc
 50
357.9403183568405
 51
0.0
  0
ARC
  5
267
330
25D
100
AcDbEntity
  8
0
  6
Continuous
370
    15
100
AcDbCircle
 10
-4325.199999999984
 20
-379.991765291707
 30
0.0
 40
4442.065285868118
100
AcDbArc
 50
357.9403183568405
 51
0.0
  0
ARC
  5
268
330
25D
100
AcDbEntity
  8
0
  6
Continuous
370
    15
100
AcDbCircle
 10
-775.1999999999825
 20
-379.9917652917074
 30
0.0
 40
900.0000000000008
100
AcDbArc
 50
0.0
 51
3.551732835936907
  0
ARC
  5
269
330
25D
100
AcDbEntity
  8
0
  6
Continuous
370
    15
100
AcDbCircle
 10
-775.1999999999825
 20
-379.9917652917074
 30
0.0
 40
892.0652858681199
100
AcDbArc
 50
0.0
 51
3.827290778170222
  0
ARC
  5
26A
330
25D
100
AcDbEntity
  8
0
  6
Continuous
370
    15
100
AcDbCircle
 10
79.95213267579675
 20
-538.4174197231882
 30
0.0
 40
42.00000000000025
100
AcDbArc
 50
304.0906892247156
 51
357.9403183568405
  0
ARC
  5
26B
330
25D
100
AcDbEntity
  8
0
  6
Continuous
370
    15
100
AcDbCircle
 10
79.95213267579675
 20
-538.4174197231882
 30
0.0
 40
34.06528586811921
100
AcDbArc
 50
304.0906892247156
 51
357.9403183568405
  0
ARC
  5
26C
330
25D
100
AcDbEntity
  8
0
  6
Continuous
370
    15
100
AcDbCircle
 10
73.16737978373931
 20
-327.334487362591
 30
0.0
 40
50.00000000000039
100
AcDbArc
 50
3.551732835936907
 51
86.34217562984352
  0
ARC
  5
26D
330
25D
100
AcDbEntity
  8
0
  6
Continuous
370
    15
100
AcDbCircle
 10
-0.1999999999825377
 20
-1474.991765291708
 30
0.0
 40
1200.0
100
AcDbArc
 50
86.34217562984352
 51
90.0
  0
ARC
  5
26E
330
25D
100
AcDbEntity
  8
0
  6
Continuous
370
    15
100
AcDbCircle
 10
-0.1999999999825377
 20
-1474.991765291708
 30
0.0
 40
1196.063010141334
100
AcDbArc
 50
86.36491683662908
 51
90.0
  0
CIRCLE
  5
26F
330
25D
100
AcDbEntity
  8
0
  6
Continuous
370
    15
100
AcDbCircle
 10
79.80000000001746
 20
-209.9917652917081
 30
0.0
 40
7.499999999999963
  0
ARC
  5
270
330
25D
100
AcDbEntity
  8
0
  6
Continuous
370
    15
100
AcDbCircle
 10
-3125.199999999984
 20
-379.9917652917074
 30
0.0
 40
3300.0
100
AcDbArc
 50
0.0
 51
3.957813514260505
  0
ARC
  5
271
330
25D
100
AcDbEntity
  8
0
  6
Continuous
370
    15
100
AcDbCircle
 10
-0.1999999999825377
 20
-419.9917652917078
 30
0.0
 40
59.99999999999983
100
AcDbArc
 50
270.0
 51
0.0
  0
ARC
  5
272
330
25D
100
AcDbEntity
  8
0
  6
Continuous
370
    15
100
AcDbCircle
 10
-0.1999999999825377
 20
-1474.991765291708
 30
0.0
 40
1143.142275180123
100
AcDbArc
 50
87.71394588302381
 51
90.0
  0
ARC
  5
273
330
25D
100
AcDbEntity
  8
0
  6
Continuous
370
    15
100
AcDbCircle
 10
44.80000000001746
 20
-347.7473405778023
 30
0.0
 40
14.99999999999999
100
AcDbArc
 50
0.0
 51
87.71394588302381
  0
ARC
  5
274
330
25D
100
AcDbEntity
  8
0
  6
Continuous
370
    15
100
AcDbCircle
 10
-4325.199999999986
 20
-379.9917652917074
 30
0.0
 40
4500.0
100
AcDbArc
 50
357.8033064314003
 51
359.999999999974
  0
ARC
  5
275
330
25D
100
AcDbEntity
  8
0
  6
Continuous
370
    15
100
AcDbCircle
 10
116.5335030047536
 20
-550.3692529045602
 30
0.0
 40
55.0000000000001
100
AcDbArc
 50
311.8396801021114
 51
357.8033064313221
  0
ARC
  5
276
330
25D
100
AcDbEntity
  8
0
  6
Continuous
370
    15
100
AcDbCircle
 10
-0.1999999999843567
 20
-419.9917652917078
 30
0.0
 40
229.9999999999904
100
AcDbArc
 50
270.0
 51
311.8396801021254
  0
ARC
  5
277
330
25D
100
AcDbEntity
  8
0
  6
Continuous
370
    15
100
AcDbCircle
 10
72.96946000127173
 20
-323.250621848616
 30
0.0
 40
42.0
100
AcDbArc
 50
3.827290778170222
 51
86.36491683662908
  0
LINE
  5
278
330
25D
100
AcDbEntity
  8
0
  6
Continuous
370
    15
100
AcDbLine
 10
-60.19999999998072
 20
-379.9917652917084
 30
0.0
 11
-60.19999999998072
 21
-347.7473405778023
 31
0.0
  0
LINE
  5
279
330
25D
100
AcDbEntity
  8
0
  6
Continuous
370
    15
100
AcDbLine
 10
-60.19999999998072
 20
-379.9917652917084
 30
0.0
 11
-60.19999999998072
 21
-419.9917652917078
 31
0.0
  0
ARC
  5
27A
330
25D
100
AcDbEntity
  8
0
  6
Continuous
370
    15
100
AcDbCircle
 10
-116.9335030047186
 20
-550.3692529045743
 30
0.0
 40
55.0000000000001
100
AcDbArc
 50
182.1966935685997
 51
228.1603198978746
  0
ARC
  5
27B
330
25D
100
AcDbEntity
  8
0
  6
Continuous
370
    15
100
AcDbCircle
 10
4324.800000000021
 20
-379.9917652917088
 30
0.0
 40
4500.0
100
AcDbArc
 50
180.0
 51
182.1966935685997
  0
ARC
  5
27C
330
25D
100
AcDbEntity
  8
0
  6
Continuous
370
    15
100
AcDbCircle
 10
-0.1999999999807187
 20
-419.9917652917078
 30
0.0
 40
185.0
100
AcDbArc
 50
235.9093107752844
 51
270.0
  0
ARC
  5
27D
330
25D
100
AcDbEntity
  8
0
  6
Continuous
370
    15
100
AcDbCircle
 10
-0.1999999999807187
 20
-419.9917652917078
 30
0.0
 40
177.065285868119
100
AcDbArc
 50
235.9093107752844
 51
270.0
  0
ARC
  5
27E
330
25D
100
AcDbEntity
  8
0
  6
Continuous
370
    15
100
AcDbCircle
 10
4324.800000000021
 20
-379.9917652917084
 30
0.0
 40
4450.0
100
AcDbArc
 50
180.0
 51
182.0596816431595
  0
ARC
  5
27F
330
25D
100
AcDbEntity
  8
0
  6
Continuous
370
    15
100
AcDbCircle
 10
4324.800000000021
 20
-379.9917652917084
 30
0.0
 40
4442.065285868118
100
AcDbArc
 50
180.0
 51
182.0596816431595
  0
ARC
  5
280
330
25D
100
AcDbEntity
  8
0
  6
Continuous
370
    15
100
AcDbCircle
 10
774.8000000000192
 20
-379.9917652917079
 30
0.0
 40
900.0000000000008
100
AcDbArc
 50
176.4482671640631
 51
180.0
  0
ARC
  5
281
330
25D
100
AcDbEntity
  8
0
  6
Continuous
370
    15
100
AcDbCircle
 10
774.8000000000192
 20
-379.9917652917079
 30
0.0
 40
892.0652858681199
100
AcDbArc
 50
176.1727092218298
 51
180.0
  0
ARC
  5
282
330
25D
100
AcDbEntity
  8
0
  6
Continuous
370
    15
100
AcDbCircle
 10
-80.35213267576001
 20
-538.4174197231882
 30
0.0
 40
42.00000000000025
100
AcDbArc
 50
182.0596816431595
 51
235.9093107752844
  0
ARC
  5
283
330
25D
100
AcDbEntity
  8
0
  6
Continuous
370
    15
100
AcDbCircle
 10
-80.35213267576001
 20
-538.4174197231882
 30
0.0
 40
34.06528586811921
100
AcDbArc
 50
182.0596816431595
 51
235.9093107752844
  0
ARC
  5
284
330
25D
100
AcDbEntity
  8
0
  6
Continuous
370
    15
100
AcDbCircle
 10
-73.56737978370256
 20
-327.334487362591
 30
0.0
 40
50.00000000000039
100
AcDbArc
 50
93.65782437015651
 51
176.4482671640631
  0
ARC
  5
285
330
25D
100
AcDbEntity
  8
0
  6
Continuous
370
    15
100
AcDbCircle
 10
-0.1999999999807187
 20
-1474.991765291708
 30
0.0
 40
1200.0
100
AcDbArc
 50
90.0
 51
93.65782437015651
  0
ARC
  5
286
330
25D
100
AcDbEntity
  8
0
  6
Continuous
370
    15
100
AcDbCircle
 10
-0.1999999999807187
 20
-1474.991765291708
 30
0.0
 40
1196.063010141334
100
AcDbArc
 50
90.0
 51
93.63508316337092
  0
CIRCLE
  5
287
330
25D
100
AcDbEntity
  8
0
  6
Continuous
370
    15
100
AcDbCircle
 10
-80.19999999998072
 20
-209.9917652917081
 30
0.0
 40
7.499999999999963
  0
ARC
  5
288
330
25D
100
AcDbEntity
  8
0
  6
Continuous
370
    15
100
AcDbCircle
 10
3124.800000000021
 20
-379.9917652917088
 30
0.0
 40
3300.0
100
AcDbArc
 50
176.0417014276018
 51
180.0
  0
ARC
  5
289
330
25D
100
AcDbEntity
  8
0
  6
Continuous
370
    15
100
AcDbCircle
 10
-0.1999999999807187
 20
-419.9917652917078
 30
0.0
 40
59.99999999999983
100
AcDbArc
 50
180.0
 51
270.0
  0
ARC
  5
28A
330
25D
100
AcDbEntity
  8
0
  6
Continuous
370
    15
100
AcDbCircle
 10
-0.1999999999807187
 20
-1474.991765291708
 30
0.0
 40
1143.142275180123
100
AcDbArc
 50
90.0
 51
92.28605411697619
  0
ARC
  5
28B
330
25D
100
AcDbEntity
  8
0
  6
Continuous
370
    15
100
AcDbCircle
 10
-45.19999999998072
 20
-347.7473405778023
 30
0.0
 40
14.99999999999999
100
AcDbArc
 50
92.28605411697619
 51
180.0
  0
ARC
  5
28C
330
25D
100
AcDbEntity
  8
0
  6
Continuous
370
    15
100
AcDbCircle
 10
4324.800000000023
 20
-379.9917652917088
 30
0.0
 40
4500.0
100
AcDbArc
 50
180.000000000026
 51
182.1966935685997
  0
ARC
  5
28D
330
25D
100
AcDbEntity
  8
0
  6
Continuous
370
    15
100
AcDbCircle
 10
-116.9335030047168
 20
-550.3692529045602
 30
0.0
 40
55.0000000000001
100
AcDbArc
 50
182.1966935686779
 51
228.1603198978887
  0
ARC
  5
28E
330
25D
100
AcDbEntity
  8
0
  6
Continuous
370
    15
100
AcDbCircle
 10
-0.1999999999788997
 20
-419.9917652917078
 30
0.0
 40
229.9999999999904
100
AcDbArc
 50
228.1603198978746
 51
270.0
  0
ARC
  5
28F
330
25D
100
AcDbEntity
  8
0
  6
Continuous
370
    15
100
AcDbCircle
 10
-73.36946000123498
 20
-323.250621848616
 30
0.0
 40
42.0
100
AcDbArc
 50
93.63508316337092
 51
176.1727092218298
  0
LINE
  5
290
330
25D
100
AcDbEntity
  8
0
  6
Continuous
370
    15
100
AcDbLine
 10
63.80786354782322
 20
-329.7116349003495
 30
0.0
 11
94.4262998356371
 21
-301.1451625461587
 31
0.0
  0
LINE
  5
291
330
25D
100
AcDbEntity
  8
0
  6
Continuous
370
    15
100
AcDbLine
 10
-64.20786354778647
 20
-329.7116349003495
 30
0.0
 11
-94.82629983560036
 21
-301.1451625461573
 31
0.0
  0
LWPOLYLINE
  5
292
330
25D
100
AcDbEntity
  8
0
  6
Continuous
370
    15
100
AcDbPolyline
 90
       12
 70
   128
 43
0.0
 10
170.4866094269691
 20
-151.9080099173893
 10
143.4017384187937
 20
-154.2786688300307
 10
107.2212312562878
 20
-156.8035715567998
 10
70.99349185179017
 20
-158.5992859185548
 10
34.74055254936502
 20
-159.6647171094296
 10
0.552110978816927
 20
-159.9997972190117
 10
-33.63962168808212
 20
-159.6855143794832
 10
-67.81606920336162
 20
-158.7220409940505
 10
-93.50465922755393
 20
-157.5697145598365
 10
-132.0175025425833
 20
-155.1521882621596
 10
-151.2627776876979
 20
-153.6330443957663
 10
-170.4866094268018
 20
-151.908009917402
  0
CIRCLE
  5
293
330
25D
100
AcDbEntity
  8
0
  6
Continuous
370
    15
100
AcDbCircle
 10
-0.0428540974153293
 20
-89.99184012455726
 30
0.0
 40
19.99999999999997
  0
LINE
  5
294
330
25D
100
AcDbEntity
  8
0
  6
Continuous
370
    15
100
AcDbLine
 10
-161.8219741953617
 20
0.0000000000004547
 30
0.0
 11
161.8219741953617
 21
-0.0000000000004547
 31
0.0
  0
ARC
  5
295
330
25D
100
AcDbEntity
  8
0
  6
Continuous
370
    15
100
AcDbCircle
 10
168.5923137665049
 20
-131.9979209183236
 30
0.0
 40
19.9999999999984
100
AcDbArc
 50
275.4349040620808
 51
4.306151741391712
  0
LWPOLYLINE
  5
296
330
25D
100
AcDbEntity
  8
0
  6
Continuous
370
    15
100
AcDbPolyline
 90
        5
 70
   128
 43
0.0
 10
177.7247514536593
 20
-14.23884257575764
 10
180.1497622885181
 20
-36.84251867530793
 10
182.4201913025154
 20
-59.46343998011025
 10
185.6683601589775
 20
-94.96137597296865
 10
188.5362112083094
 20
-130.5009315523616
  0
ARC
  5
297
330
25D
100
AcDbEntity
  8
0
  6
Continuous
370
    15
100
AcDbCircle
 10
161.821974195358
 20
-16.00000000000432
 30
0.0
 40
16.00000000000439
100
AcDbArc
 50
6.319485611866355
 51
89.99999999989578
  0
ARC
  5
298
330
25D
100
AcDbEntity
  8
0
  6
Continuous
370
    15
100
AcDbCircle
 10
-168.5923137665104
 20
-131.9979209183236
 30
0.0
 40
19.9999999999984
100
AcDbArc
 50
175.6938482586083
 51
264.5650959379192
  0
LWPOLYLINE
  5
299
330
25D
100
AcDbEntity
  8
0
  6
Continuous
370
    15
100
AcDbPolyline
 90
        5
 70
   128
 43
0.0
 10
-177.7247514536648
 20
-14.23884257575764
 10
-180.1497622885217
 20
-36.84251867530793
 10
-182.4201913025208
 20
-59.46343998011025
 10
-185.6683601589811
 20
-94.96137597296865
 10
-188.536211208313
 20
-130.5009315523616
  0
ARC
  5
29A
330
25D
100
AcDbEntity
  8
0
  6
Continuous
370
    15
100
AcDbCircle
 10
-161.8219741953617
 20
-16.00000000000432
 30
0.0
 40
16.00000000000439
100
AcDbArc
 50
90.00000000010421
 51
173.6805143881336
  0
LINE
  5
29B
330
25D
100
AcDbEntity
  8
0
  6
Continuous
370
    15
100
AcDbLine
 10
161.8208755821633
 20
-0.0000000000004547
 30
0.0
 11
-161.8208755821633
 21
0.0000000000004547
 31
0.0
  0
ENDBLK
  5
25F
330
25D
100
AcDbEntity
  8
0
100
AcDbBlockEnd
  0
ENDSEC
  0
SECTION
  2
ENTITIES
  0
MTEXT
  5
F5
330
1F
100
AcDbEntity
  8
0
100
AcDbMText
 10
67.50719134778241
 20
79.91280465386186
 30
0.0
 40
20.0
 41
1133.185185185185
 71
     1
 72
     5
  1
{\fTimes New Roman|b0|i0|c0|p18;\C0;INODORO DE TANQUE BAJO CON SALIDA VERTICAL\PSERIE SMART}
 73
     1
 44
1.0
1001
ACAD
1000
MTEXTBEGIN
1070
    73
1070
     1
1070
    44
1040
1.0
1070
    74
1070
     0
1000
MTEXTEND
  0
INSERT
  5
29C
330
1F
100
AcDbEntity
  8
0
100
AcDbBlockReference
  2
25150-P
 10
360.2186410542373
 20
771.2353325706081
 30
0.0
  0
ENDSEC
  0
SECTION
  2
OBJECTS
  0
DICTIONARY
  5
C
330
0
100
AcDbDictionary
281
     1
  3
ACAD_COLOR
350
73
  3
ACAD_GROUP
350
D
  3
ACAD_LAYOUT
350
1A
  3
ACAD_MATERIAL
350
72
  3
ACAD_MLINESTYLE
350
17
  3
ACAD_PLOTSETTINGS
350
19
  3
ACAD_PLOTSTYLENAME
350
E
  3
ACAD_TABLESTYLE
350
130
  3
ACDBHEADERROUNDTRIPXREC
350
29F
  3
AcDbVariableDictionary
350
66
  3
DWGPROPS
350
29E
  0
DICTIONARY
  5
93
330
2
100
AcDbDictionary
280
     1
281
     1
  3
ACAD_LAYERSTATES
360
94
  0
DICTIONARY
  5
209
330
1F
100
AcDbDictionary
280
     1
281
     1
  3
ACAD_SORTENTS
360
20A
  0
DICTIONARY
  5
73
102
{ACAD_REACTORS
330
C
102
}
330
C
100
AcDbDictionary
281
     1
  0
DICTIONARY
  5
D
102
{ACAD_REACTORS
330
C
102
}
330
C
100
AcDbDictionary
281
     1
  0
DICTIONARY
  5
1A
102
{ACAD_REACTORS
330
C
102
}
330
C
100
AcDbDictionary
281
     1
  3
Model
350
22
  3
Presentación1
350
59
  3
Presentación2
350
5E
  0
DICTIONARY
  5
72
102
{ACAD_REACTORS
330
C
102
}
330
C
100
AcDbDictionary
281
     1
  0
DICTIONARY
  5
17
102
{ACAD_REACTORS
330
C
102
}
330
C
100
AcDbDictionary
281
     1
  3
Standard
350
18
  0
DICTIONARY
  5
19
102
{ACAD_REACTORS
330
C
102
}
330
C
100
AcDbDictionary
281
     1
  0
ACDBDICTIONARYWDFLT
  5
E
102
{ACAD_REACTORS
330
C
102
}
330
C
100
AcDbDictionary
281
     1
  3
Normal
350
F
100
AcDbDictionaryWithDefault
340
F
  0
DICTIONARY
  5
130
102
{ACAD_REACTORS
330
C
102
}
330
C
100
AcDbDictionary
281
     1
  3
Standard
350
131
  0
DICTIONARY
  5
29F
102
{ACAD_REACTORS
330
C
102
}
330
C
100
AcDbDictionary
281
     1
  0
DICTIONARY
  5
66
102
{ACAD_REACTORS
330
C
102
}
330
C
100
AcDbDictionary
281
     1
  3
CTABLESTYLE
350
216
  3
DIMASSOC
350
67
  3
HIDETEXT
350
6B
  3
PROJECTNAME
350
217
  0
XRECORD
  5
29E
102
{ACAD_REACTORS
330
C
102
}
330
C
100
AcDbXrecord
280
     1
  1
DWGPROPS COOKIE
  2

  3

  4

  6

  7

  8

  9

300
=
301
=
302
=
303
=
304
=
305
=
306
=
307
=
308
=
309
=
 40
0.0101815740740741
 41
2454473.09937206
 42
2454572.553262072
  1

 90
        0
  0
DICTIONARY
  5
94
102
{ACAD_REACTORS
330
93
102
}
330
93
100
AcDbDictionary
281
     1
  0
SORTENTSTABLE
  5
20A
102
{ACAD_REACTORS
330
209
102
}
330
209
100
AcDbSortentsTable
330
1F
331
F5
  5
29C
331
29C
  5
25C
  0
LAYOUT
  5
22
102
{ACAD_XDICTIONARY
360
2A0
102
}
102
{ACAD_REACTORS
330
1A
102
}
330
1A
100
AcDbPlotSettings
  1

  2
none_device
  4
ANSI_A_(8.50_x_11.00_Inches)
  6

 40
6.349999904632567
 41
19.04999923706055
 42
6.350006103515625
 43
19.04998779296875
 44
215.8999938964844
 45
279.3999938964844
 46
0.0
 47
0.0
 48
0.0
 49
0.0
140
0.0
141
0.0
142
1.0
143
2.584895464708373
 70
 11952
 72
     0
 73
     1
 74
     0
  7

 75
     0
147
0.3868628397755418
148
0.0
149
0.0
100
AcDbLayout
  1
Model
 70
     1
 71
     0
 10
0.0
 20
0.0
 11
12.0
 21
9.0
 12
0.0
 22
0.0
 32
0.0
 14
0.0
 24
0.0
 34
0.0
 15
0.0
 25
0.0
 35
0.0
146
0.0
 13
0.0
 23
0.0
 33
0.0
 16
1.0
 26
0.0
 36
0.0
 17
0.0
 27
1.0
 37
0.0
 76
     0
330
1F
  0
LAYOUT
  5
59
102
{ACAD_XDICTIONARY
360
2A2
102
}
102
{ACAD_REACTORS
330
1A
102
}
330
1A
100
AcDbPlotSettings
  1

  2
None
  4

  6

 40
0.0
 41
0.0
 42
0.0
 43
0.0
 44
0.0
 45
0.0
 46
0.0
 47
0.0
 48
0.0
 49
0.0
140
0.0
141
0.0
142
1.0
143
1.0
 70
   688
 72
     0
 73
     0
 74
     5
  7

 75
    16
147
1.0
148
0.0
149
0.0
100
AcDbLayout
  1
Presentación1
 70
     1
 71
     1
 10
0.0
 20
0.0
 11
12.0
 21
9.0
 12
0.0
 22
0.0
 32
0.0
 14
0.0
 24
0.0
 34
0.0
 15
0.0
 25
0.0
 35
0.0
146
0.0
 13
0.0
 23
0.0
 33
0.0
 16
1.0
 26
0.0
 36
0.0
 17
0.0
 27
1.0
 37
0.0
 76
     0
330
58
  0
LAYOUT
  5
5E
102
{ACAD_XDICTIONARY
360
2A4
102
}
102
{ACAD_REACTORS
330
1A
102
}
330
1A
100
AcDbPlotSettings
  1

  2
None
  4

  6

 40
0.0
 41
0.0
 42
0.0
 43
0.0
 44
0.0
 45
0.0
 46
0.0
 47
0.0
 48
0.0
 49
0.0
140
0.0
141
0.0
142
1.0
143
1.0
 70
   688
 72
     0
 73
     0
 74
     5
  7

 75
    16
147
1.0
148
0.0
149
0.0
100
AcDbLayout
  1
Presentación2
 70
     1
 71
     2
 10
0.0
 20
0.0
 11
12.0
 21
9.0
 12
0.0
 22
0.0
 32
0.0
 14
0.0
 24
0.0
 34
0.0
 15
0.0
 25
0.0
 35
0.0
146
0.0
 13
0.0
 23
0.0
 33
0.0
 16
1.0
 26
0.0
 36
0.0
 17
0.0
 27
1.0
 37
0.0
 76
     0
330
5D
  0
MLINESTYLE
  5
18
102
{ACAD_REACTORS
330
17
102
}
330
17
100
AcDbMlineStyle
  2
STANDARD
 70
     0
  3

 62
   256
 51
90.0
 52
90.0
 71
     2
 49
0.5
 62
   256
  6
BYLAYER
 49
-0.5
 62
   256
  6
BYLAYER
  0
ACDBPLACEHOLDER
  5
F
102
{ACAD_REACTORS
330
E
102
}
330
E
  0
TABLESTYLE
  5
131
102
{ACAD_REACTORS
330
130
102
}
330
130
100
AcDbTableStyle
  3
Standard
 70
     0
 71
     0
 40
0.06
 41
0.06
280
     0
281
     0
  7
Standard
140
0.18
170
     2
 62
     0
 63
     7
283
     0
274
    -2
284
     1
 64
     0
275
    -2
285
     1
 65
     0
276
    -2
286
     1
 66
     0
277
    -2
287
     1
 67
     0
278
    -2
288
     1
 68
     0
279
    -2
289
     1
 69
     0
  7
Standard
140
0.25
170
     5
 62
     0
 63
     7
283
     0
274
    -2
284
     1
 64
     0
275
    -2
285
     1
 65
     0
276
    -2
286
     1
 66
     0
277
    -2
287
     1
 67
     0
278
    -2
288
     1
 68
     0
279
    -2
289
     1
 69
     0
  7
Standard
140
0.18
170
     5
 62
     0
 63
     7
283
     0
274
    -2
284
     1
 64
     0
275
    -2
285
     1
 65
     0
276
    -2
286
     1
 66
     0
277
    -2
287
     1
 67
     0
278
    -2
288
     1
 68
     0
279
    -2
289
     1
 69
     0
  0
DICTIONARYVAR
  5
216
102
{ACAD_REACTORS
330
66
102
}
330
66
100
DictionaryVariables
280
     0
  1
STANDARD
  0
DICTIONARYVAR
  5
67
102
{ACAD_REACTORS
330
66
102
}
330
66
100
DictionaryVariables
280
     0
  1
2
  0
DICTIONARYVAR
  5
6B
102
{ACAD_REACTORS
330
66
102
}
330
66
100
DictionaryVariables
280
     0
  1
1
  0
DICTIONARYVAR
  5
217
102
{ACAD_REACTORS
330
66
102
}
330
66
100
DictionaryVariables
280
     0
  1

  0
DICTIONARY
  5
2A0
330
22
100
AcDbDictionary
280
     1
281
     1
  3
ACAD_XREC_ROUNDTRIP
360
2A1
  0
DICTIONARY
  5
2A2
330
59
100
AcDbDictionary
280
     1
281
     1
  3
ACAD_XREC_ROUNDTRIP
360
2A3
  0
DICTIONARY
  5
2A4
330
5E
100
AcDbDictionary
280
     1
281
     1
  3
ACAD_XREC_ROUNDTRIP
360
2A5
  0
XRECORD
  5
2A1
102
{ACAD_REACTORS
330
2A0
102
}
330
2A0
100
AcDbXrecord
280
     1
102
SHADEPLOT
 70
     0
102
SHADEPLOTRESLEVEL
 70
     2
102
SHADEPLOTCUSTOMDPI
 70
   300
  0
XRECORD
  5
2A3
102
{ACAD_REACTORS
330
2A2
102
}
330
2A2
100
AcDbXrecord
280
     1
102
SHADEPLOT
 70
     0
102
SHADEPLOTRESLEVEL
 70
     2
102
SHADEPLOTCUSTOMDPI
 70
   300
  0
XRECORD
  5
2A5
102
{ACAD_REACTORS
330
2A4
102
}
330
2A4
100
AcDbXrecord
280
     1
102
SHADEPLOT
 70
     0
102
SHADEPLOTRESLEVEL
 70
     2
102
SHADEPLOTCUSTOMDPI
 70
   300
  0
ENDSEC
  0
EOF
