  0
SECTION
  2
HEADER
  9
$ACADVER
  1
AC1024
  9
$ACADMAINTVER
 70
   226
  9
$DWGCODEPAGE
  3
ANSI_1252
  9
$INSBASE
 10
0.0
 20
0.0
 30
0.0
  9
$EXTMIN
 10
1.000000000000000E+20
 20
1.000000000000000E+20
 30
1.000000000000000E+20
  9
$EXTMAX
 10
-1.000000000000000E+20
 20
-1.000000000000000E+20
 30
-1.000000000000000E+20
  9
$LIMMIN
 10
0.0
 20
0.0
  9
$LIMMAX
 10
12.0
 20
9.0
  9
$ORTHOMODE
 70
     0
  9
$REGENMODE
 70
     1
  9
$FILLMODE
 70
     1
  9
$QTEXTMODE
 70
     0
  9
$MIRRTEXT
 70
     0
  9
$LTSCALE
 40
1.0
  9
$ATTMODE
 70
     1
  9
$TEXTSIZE
 40
0.2
  9
$TRACEWID
 40
0.05
  9
$TEXTSTYLE
  7
Standard
  9
$CLAYER
  8
0
  9
$CELTYPE
  6
ByLayer
  9
$CECOLOR
 62
   256
  9
$CELTSCALE
 40
1.0
  9
$DISPSILH
 70
     0
  9
$DIMSCALE
 40
1.0
  9
$DIMASZ
 40
0.18
  9
$DIMEXO
 40
0.0625
  9
$DIMDLI
 40
0.38
  9
$DIMRND
 40
0.0
  9
$DIMDLE
 40
0.0
  9
$DIMEXE
 40
0.18
  9
$DIMTP
 40
0.0
  9
$DIMTM
 40
0.0
  9
$DIMTXT
 40
0.18
  9
$DIMCEN
 40
0.09
  9
$DIMTSZ
 40
0.0
  9
$DIMTOL
 70
     0
  9
$DIMLIM
 70
     0
  9
$DIMTIH
 70
     1
  9
$DIMTOH
 70
     1
  9
$DIMSE1
 70
     0
  9
$DIMSE2
 70
     0
  9
$DIMTAD
 70
     0
  9
$DIMZIN
 70
     0
  9
$DIMBLK
  1

  9
$DIMASO
 70
     1
  9
$DIMSHO
 70
     1
  9
$DIMPOST
  1

  9
$DIMAPOST
  1

  9
$DIMALT
 70
     0
  9
$DIMALTD
 70
     2
  9
$DIMALTF
 40
25.4
  9
$DIMLFAC
 40
1.0
  9
$DIMTOFL
 70
     0
  9
$DIMTVP
 40
0.0
  9
$DIMTIX
 70
     0
  9
$DIMSOXD
 70
     0
  9
$DIMSAH
 70
     0
  9
$DIMBLK1
  1

  9
$DIMBLK2
  1

  9
$DIMSTYLE
  2
Standard
  9
$DIMCLRD
 70
     0
  9
$DIMCLRE
 70
     0
  9
$DIMCLRT
 70
     0
  9
$DIMTFAC
 40
1.0
  9
$DIMGAP
 40
0.09
  9
$DIMJUST
 70
     0
  9
$DIMSD1
 70
     0
  9
$DIMSD2
 70
     0
  9
$DIMTOLJ
 70
     1
  9
$DIMTZIN
 70
     0
  9
$DIMALTZ
 70
     0
  9
$DIMALTTZ
 70
     0
  9
$DIMUPT
 70
     0
  9
$DIMDEC
 70
     4
  9
$DIMTDEC
 70
     4
  9
$DIMALTU
 70
     2
  9
$DIMALTTD
 70
     2
  9
$DIMTXSTY
  7
Standard
  9
$DIMAUNIT
 70
     0
  9
$DIMADEC
 70
     0
  9
$DIMALTRND
 40
0.0
  9
$DIMAZIN
 70
     0
  9
$DIMDSEP
 70
    46
  9
$DIMATFIT
 70
     3
  9
$DIMFRAC
 70
     0
  9
$DIMLDRBLK
  1

  9
$DIMLUNIT
 70
     2
  9
$DIMLWD
 70
    -2
  9
$DIMLWE
 70
    -2
  9
$DIMTMOVE
 70
     0
  9
$DIMFXL
 40
1.0
  9
$DIMFXLON
 70
     0
  9
$DIMJOGANG
 40
0.7853981633974483
  9
$DIMTFILL
 70
     0
  9
$DIMTFILLCLR
 70
     0
  9
$DIMARCSYM
 70
     0
  9
$DIMLTYPE
  6

  9
$DIMLTEX1
  6

  9
$DIMLTEX2
  6

  9
$DIMTXTDIRECTION
 70
     0
  9
$LUNITS
 70
     2
  9
$LUPREC
 70
     4
  9
$SKETCHINC
 40
0.1
  9
$FILLETRAD
 40
0.0
  9
$AUNITS
 70
     0
  9
$AUPREC
 70
     0
  9
$MENU
  1
.
  9
$ELEVATION
 40
0.0
  9
$PELEVATION
 40
0.0
  9
$THICKNESS
 40
0.0
  9
$LIMCHECK
 70
     0
  9
$CHAMFERA
 40
0.0
  9
$CHAMFERB
 40
0.0
  9
$CHAMFERC
 40
0.0
  9
$CHAMFERD
 40
0.0
  9
$SKPOLY
 70
     0
  9
$TDCREATE
 40
2460306.713229167
  9
$TDUCREATE
 40
2460306.671562500
  9
$TDUPDATE
 40
2460306.713229167
  9
$TDUUPDATE
 40
2460306.671562500
  9
$TDINDWG
 40
0.0000000000
  9
$TDUSRTIMER
 40
0.0000000000
  9
$USRTIMER
 70
     1
  9
$ANGBASE
 50
0.0
  9
$ANGDIR
 70
     0
  9
$PDMODE
 70
     0
  9
$PDSIZE
 40
0.0
  9
$PLINEWID
 40
0.0
  9
$SPLFRAME
 70
     0
  9
$SPLINETYPE
 70
     6
  9
$SPLINESEGS
 70
     8
  9
$HANDSEED
  5
218
  9
$SURFTAB1
 70
     6
  9
$SURFTAB2
 70
     6
  9
$SURFTYPE
 70
     6
  9
$SURFU
 70
     6
  9
$SURFV
 70
     6
  9
$UCSBASE
  2

  9
$UCSNAME
  2

  9
$UCSORG
 10
0.0
 20
0.0
 30
0.0
  9
$UCSXDIR
 10
1.0
 20
0.0
 30
0.0
  9
$UCSYDIR
 10
0.0
 20
1.0
 30
0.0
  9
$UCSORTHOREF
  2

  9
$UCSORTHOVIEW
 70
     0
  9
$UCSORGTOP
 10
0.0
 20
0.0
 30
0.0
  9
$UCSORGBOTTOM
 10
0.0
 20
0.0
 30
0.0
  9
$UCSORGLEFT
 10
0.0
 20
0.0
 30
0.0
  9
$UCSORGRIGHT
 10
0.0
 20
0.0
 30
0.0
  9
$UCSORGFRONT
 10
0.0
 20
0.0
 30
0.0
  9
$UCSORGBACK
 10
0.0
 20
0.0
 30
0.0
  9
$PUCSBASE
  2

  9
$PUCSNAME
  2

  9
$PUCSORG
 10
0.0
 20
0.0
 30
0.0
  9
$PUCSXDIR
 10
1.0
 20
0.0
 30
0.0
  9
$PUCSYDIR
 10
0.0
 20
1.0
 30
0.0
  9
$PUCSORTHOREF
  2

  9
$PUCSORTHOVIEW
 70
     0
  9
$PUCSORGTOP
 10
0.0
 20
0.0
 30
0.0
  9
$PUCSORGBOTTOM
 10
0.0
 20
0.0
 30
0.0
  9
$PUCSORGLEFT
 10
0.0
 20
0.0
 30
0.0
  9
$PUCSORGRIGHT
 10
0.0
 20
0.0
 30
0.0
  9
$PUCSORGFRONT
 10
0.0
 20
0.0
 30
0.0
  9
$PUCSORGBACK
 10
0.0
 20
0.0
 30
0.0
  9
$USERI1
 70
     0
  9
$USERI2
 70
     0
  9
$USERI3
 70
     0
  9
$USERI4
 70
     0
  9
$USERI5
 70
     0
  9
$USERR1
 40
0.0
  9
$USERR2
 40
0.0
  9
$USERR3
 40
0.0
  9
$USERR4
 40
0.0
  9
$USERR5
 40
0.0
  9
$WORLDVIEW
 70
     1
  9
$SHADEDGE
 70
     3
  9
$SHADEDIF
 70
    70
  9
$TILEMODE
 70
     1
  9
$MAXACTVP
 70
    64
  9
$PINSBASE
 10
0.0
 20
0.0
 30
0.0
  9
$PLIMCHECK
 70
     0
  9
$PEXTMIN
 10
1.000000000000000E+20
 20
1.000000000000000E+20
 30
1.000000000000000E+20
  9
$PEXTMAX
 10
-1.000000000000000E+20
 20
-1.000000000000000E+20
 30
-1.000000000000000E+20
  9
$PLIMMIN
 10
0.0
 20
0.0
  9
$PLIMMAX
 10
12.0
 20
9.0
  9
$UNITMODE
 70
     0
  9
$VISRETAIN
 70
     1
  9
$PLINEGEN
 70
     0
  9
$PSLTSCALE
 70
     1
  9
$TREEDEPTH
 70
  3020
  9
$CMLSTYLE
  2
Standard
  9
$CMLJUST
 70
     0
  9
$CMLSCALE
 40
1.0
  9
$PROXYGRAPHICS
 70
     1
  9
$MEASUREMENT
 70
     0
  9
$CELWEIGHT
370
    -1
  9
$ENDCAPS
280
     0
  9
$JOINSTYLE
280
     0
  9
$LWDISPLAY
290
     1
  9
$INSUNITS
 70
     4
  9
$HYPERLINKBASE
  1

  9
$STYLESHEET
  1

  9
$XEDIT
290
     1
  9
$CEPSNTYPE
380
     0
  9
$PSTYLEMODE
290
     1
  9
$FINGERPRINTGUID
  2
{1B9415B3-C434-624A-A80C-D68270200433}
  9
$VERSIONGUID
  2
{3F613F97-0D94-904F-BDCB-F9718B27A9FB}
  9
$EXTNAMES
290
     1
  9
$PSVPSCALE
 40
0.0
  9
$OLESTARTUP
290
     0
  9
$SORTENTS
280
   127
  9
$INDEXCTL
280
     0
  9
$HIDETEXT
280
     1
  9
$XCLIPFRAME
280
     2
  9
$HALOGAP
280
     0
  9
$OBSCOLOR
 70
   257
  9
$OBSLTYPE
280
     0
  9
$INTERSECTIONDISPLAY
280
     0
  9
$INTERSECTIONCOLOR
 70
   257
  9
$DIMASSOC
280
     2
  9
$PROJECTNAME
  1

  9
$CAMERADISPLAY
290
     0
  9
$LENSLENGTH
 40
50.0
  9
$CAMERAHEIGHT
 40
0.0
  9
$STEPSPERSEC
 40
2.0
  9
$STEPSIZE
 40
6.0
  9
$3DDWFPREC
 40
2.0
  9
$PSOLWIDTH
 40
0.25
  9
$PSOLHEIGHT
 40
4.0
  9
$LOFTANG1
 40
1.570796326794896
  9
$LOFTANG2
 40
1.570796326794896
  9
$LOFTMAG1
 40
0.0
  9
$LOFTMAG2
 40
0.0
  9
$LOFTPARAM
 70
     7
  9
$LOFTNORMALS
280
     1
  9
$LATITUDE
 40
37.795
  9
$LONGITUDE
 40
-122.394
  9
$NORTHDIRECTION
 40
0.0
  9
$TIMEZONE
 70
 -8000
  9
$LIGHTGLYPHDISPLAY
280
     1
  9
$TILEMODELIGHTSYNCH
280
     1
  9
$CMATERIAL
347
11
  9
$SOLIDHIST
280
     0
  9
$SHOWHIST
280
     1
  9
$DWFFRAME
280
     2
  9
$DGNFRAME
280
     0
  9
$REALWORLDSCALE
290
     1
  9
$INTERFERECOLOR
 62
     1
  9
$INTERFEREOBJVS
345
33
  9
$INTERFEREVPVS
346
30
  9
$CSHADOW
280
     0
  9
$SHADOWPLANELOCATION
 40
0.0
  0
ENDSEC
  0
SECTION
  2
CLASSES
  0
CLASS
  1
ACDBDICTIONARYWDFLT
  2
AcDbDictionaryWithDefault
  3
ObjectDBX Classes
 90
        0
 91
        1
280
     0
281
     0
  0
CLASS
  1
MATERIAL
  2
AcDbMaterial
  3
ObjectDBX Classes
 90
     1153
 91
        3
280
     0
281
     0
  0
CLASS
  1
VISUALSTYLE
  2
AcDbVisualStyle
  3
ObjectDBX Classes
 90
     4095
 91
       24
280
     0
281
     0
  0
CLASS
  1
SCALE
  2
AcDbScale
  3
ObjectDBX Classes
 90
     1153
 91
       17
280
     0
281
     0
  0
CLASS
  1
TABLESTYLE
  2
AcDbTableStyle
  3
ObjectDBX Classes
 90
     4095
 91
        1
280
     0
281
     0
  0
CLASS
  1
MLEADERSTYLE
  2
AcDbMLeaderStyle
  3
ACDB_MLEADERSTYLE_CLASS
 90
     4095
 91
        1
280
     0
281
     0
  0
CLASS
  1
ACDBSECTIONVIEWSTYLE
  2
AcDbSectionViewStyle
  3
ObjectDBX Classes
 90
     1025
 91
        1
280
     0
281
     0
  0
CLASS
  1
ACDBDETAILVIEWSTYLE
  2
AcDbDetailViewStyle
  3
ObjectDBX Classes
 90
     1025
 91
        1
280
     0
281
     0
  0
CLASS
  1
DICTIONARYVAR
  2
AcDbDictionaryVar
  3
ObjectDBX Classes
 90
        0
 91
        5
280
     0
281
     0
  0
CLASS
  1
CELLSTYLEMAP
  2
AcDbCellStyleMap
  3
ObjectDBX Classes
 90
     1152
 91
        1
280
     0
281
     0
  0
ENDSEC
  0
SECTION
  2
TABLES
  0
TABLE
  2
VPORT
  5
8
330
0
100
AcDbSymbolTable
 70
     1
  0
VPORT
  5
57
330
8
100
AcDbSymbolTableRecord
100
AcDbViewportTableRecord
  2
*Active
 70
     0
 10
0.0
 20
0.0
 11
1.0
 21
1.0
 12
0.0
 22
0.0
 13
0.0
 23
0.0
 14
1.0
 24
1.0
 15
0.0
 25
0.0
 16
0.0
 26
0.0
 36
1.0
 17
104.9999999737534
 27
148.4999999628701
 37
0.0
 40
302.939999924255
 41
0.7070707070707534
 42
50.0
 43
0.0
 44
0.0
 50
0.0
 51
0.0
 71
     0
 72
   100
 73
     1
 74
     1
 75
     0
 76
     0
 77
     0
 78
     0
281
     0
 65
     1
110
0.0
120
0.0
130
0.0
111
1.0
121
0.0
131
0.0
112
0.0
122
1.0
132
0.0
 79
     0
146
0.0
 60
     3
 61
     5
292
     1
282
     1
141
0.0
142
0.0
 63
   250
421
  3355443
  0
ENDTAB
  0
TABLE
  2
LTYPE
  5
5
330
0
100
AcDbSymbolTable
 70
    25
  0
LTYPE
  5
5B
330
5
100
AcDbSymbolTableRecord
100
AcDbLinetypeTableRecord
  2
ByBlock
 70
     0
  3

 72
    65
 73
     0
 40
0.0
  0
LTYPE
  5
5C
330
5
100
AcDbSymbolTableRecord
100
AcDbLinetypeTableRecord
  2
ByLayer
 70
     0
  3

 72
    65
 73
     0
 40
0.0
  0
LTYPE
  5
5D
330
5
100
AcDbSymbolTableRecord
100
AcDbLinetypeTableRecord
  2
Continuous
 70
     0
  3
Solid line
 72
    65
 73
     0
 40
0.0
  0
LTYPE
  5
1A8
330
5
100
AcDbSymbolTableRecord
100
AcDbLinetypeTableRecord
  2
AI-Linetype-0
 70
     0
  3
Adobe Illustrator Linetype No. 0
 72
    65
 73
     4
 40
2.402214469408455
 49
1.501384051265482
 74
     0
 49
-0.3002768060476577
 74
     0
 49
0.3002768060476577
 74
     0
 49
-0.3002768060476577
 74
     0
  0
LTYPE
  5
1AA
330
5
100
AcDbSymbolTableRecord
100
AcDbLinetypeTableRecord
  2
AI-Linetype-1
 70
     0
  3
Adobe Illustrator Linetype No. 1
 72
    65
 73
     4
 40
2.402214469408455
 49
1.501384051265482
 74
     0
 49
-0.3002768060476577
 74
     0
 49
0.3002768060476577
 74
     0
 49
-0.3002768060476577
 74
     0
  0
LTYPE
  5
1AC
330
5
100
AcDbSymbolTableRecord
100
AcDbLinetypeTableRecord
  2
AI-Linetype-2
 70
     0
  3
Adobe Illustrator Linetype No. 2
 72
    65
 73
     4
 40
2.402214469408455
 49
1.501384051265482
 74
     0
 49
-0.3002768060476577
 74
     0
 49
0.3002768060476577
 74
     0
 49
-0.3002768060476577
 74
     0
  0
LTYPE
  5
1AE
330
5
100
AcDbSymbolTableRecord
100
AcDbLinetypeTableRecord
  2
AI-Linetype-3
 70
     0
  3
Adobe Illustrator Linetype No. 3
 72
    65
 73
     4
 40
2.402214469408455
 49
1.501384051265482
 74
     0
 49
-0.3002768060476577
 74
     0
 49
0.3002768060476577
 74
     0
 49
-0.3002768060476577
 74
     0
  0
LTYPE
  5
1B0
330
5
100
AcDbSymbolTableRecord
100
AcDbLinetypeTableRecord
  2
AI-Linetype-4
 70
     0
  3
Adobe Illustrator Linetype No. 4
 72
    65
 73
     4
 40
2.702491380592083
 49
1.80166096244911
 74
     0
 49
-0.3002768060476577
 74
     0
 49
0.3002768060476577
 74
     0
 49
-0.3002768060476577
 74
     0
  0
LTYPE
  5
1B2
330
5
100
AcDbSymbolTableRecord
100
AcDbLinetypeTableRecord
  2
AI-Linetype-5
 70
     0
  3
Adobe Illustrator Linetype No. 5
 72
    65
 73
     4
 40
2.702491380592083
 49
1.80166096244911
 74
     0
 49
-0.3002768060476577
 74
     0
 49
0.3002768060476577
 74
     0
 49
-0.3002768060476577
 74
     0
  0
LTYPE
  5
1B4
330
5
100
AcDbSymbolTableRecord
100
AcDbLinetypeTableRecord
  2
AI-Linetype-6
 70
     0
  3
Adobe Illustrator Linetype No. 6
 72
    65
 73
     4
 40
2.702491380592083
 49
1.80166096244911
 74
     0
 49
-0.3002768060476577
 74
     0
 49
0.3002768060476577
 74
     0
 49
-0.3002768060476577
 74
     0
  0
LTYPE
  5
1B6
330
5
100
AcDbSymbolTableRecord
100
AcDbLinetypeTableRecord
  2
AI-Linetype-7
 70
     0
  3
Adobe Illustrator Linetype No. 7
 72
    65
 73
     4
 40
2.402214469408455
 49
1.501384051265482
 74
     0
 49
-0.3002768060476577
 74
     0
 49
0.3002768060476577
 74
     0
 49
-0.3002768060476577
 74
     0
  0
LTYPE
  5
1B8
330
5
100
AcDbSymbolTableRecord
100
AcDbLinetypeTableRecord
  2
AI-Linetype-8
 70
     0
  3
Adobe Illustrator Linetype No. 8
 72
    65
 73
     4
 40
2.402214469408455
 49
1.501384051265482
 74
     0
 49
-0.3002768060476577
 74
     0
 49
0.3002768060476577
 74
     0
 49
-0.3002768060476577
 74
     0
  0
LTYPE
  5
1BA
330
5
100
AcDbSymbolTableRecord
100
AcDbLinetypeTableRecord
  2
AI-Linetype-9
 70
     0
  3
Adobe Illustrator Linetype No. 9
 72
    65
 73
     4
 40
2.402214469408455
 49
1.501384051265482
 74
     0
 49
-0.3002768060476577
 74
     0
 49
0.3002768060476577
 74
     0
 49
-0.3002768060476577
 74
     0
  0
LTYPE
  5
1BC
330
5
100
AcDbSymbolTableRecord
100
AcDbLinetypeTableRecord
  2
AI-Linetype-10
 70
     0
  3
Adobe Illustrator Linetype No. 10
 72
    65
 73
     4
 40
2.402214469408455
 49
1.501384051265482
 74
     0
 49
-0.3002768060476577
 74
     0
 49
0.3002768060476577
 74
     0
 49
-0.3002768060476577
 74
     0
  0
LTYPE
  5
1BE
330
5
100
AcDbSymbolTableRecord
100
AcDbLinetypeTableRecord
  2
AI-Linetype-11
 70
     0
  3
Adobe Illustrator Linetype No. 11
 72
    65
 73
     4
 40
2.026868540700861
 49
1.351245679782444
 74
     0
 49
-0.2252076203061389
 74
     0
 49
0.2252076203061389
 74
     0
 49
-0.2252076203061389
 74
     0
  0
LTYPE
  5
1C0
330
5
100
AcDbSymbolTableRecord
100
AcDbLinetypeTableRecord
  2
AI-Linetype-12
 70
     0
  3
Adobe Illustrator Linetype No. 12
 72
    65
 73
     4
 40
2.026868540700861
 49
1.351245679782444
 74
     0
 49
-0.2252076203061389
 74
     0
 49
0.2252076203061389
 74
     0
 49
-0.2252076203061389
 74
     0
  0
LTYPE
  5
1C2
330
5
100
AcDbSymbolTableRecord
100
AcDbLinetypeTableRecord
  2
AI-Linetype-13
 70
     0
  3
Adobe Illustrator Linetype No. 13
 72
    65
 73
     4
 40
2.026868540700861
 49
1.351245679782444
 74
     0
 49
-0.2252076203061389
 74
     0
 49
0.2252076203061389
 74
     0
 49
-0.2252076203061389
 74
     0
  0
LTYPE
  5
1C5
330
5
100
AcDbSymbolTableRecord
100
AcDbLinetypeTableRecord
  2
AI-Linetype-14
 70
     0
  3
Adobe Illustrator Linetype No. 14
 72
    65
 73
     2
 40
1.351245721836833
 49
0.9008304812245555
 74
     0
 49
-0.4504152406122778
 74
     0
  0
LTYPE
  5
1C7
330
5
100
AcDbSymbolTableRecord
100
AcDbLinetypeTableRecord
  2
AI-Linetype-15
 70
     0
  3
Adobe Illustrator Linetype No. 15
 72
    65
 73
     2
 40
0.9008304181429728
 49
0.6005536120953154
 74
     0
 49
-0.3002768060476577
 74
     0
  0
LTYPE
  5
1C9
330
5
100
AcDbSymbolTableRecord
100
AcDbLinetypeTableRecord
  2
AI-Linetype-16
 70
     0
  3
Adobe Illustrator Linetype No. 16
 72
    65
 73
     2
 40
0.9008304181429728
 49
0.6005536120953154
 74
     0
 49
-0.3002768060476577
 74
     0
  0
LTYPE
  5
1CB
330
5
100
AcDbSymbolTableRecord
100
AcDbLinetypeTableRecord
  2
AI-Linetype-17
 70
     0
  3
Adobe Illustrator Linetype No. 17
 72
    65
 73
     2
 40
0.9008304181429728
 49
0.6005536120953154
 74
     0
 49
-0.3002768060476577
 74
     0
  0
LTYPE
  5
1CD
330
5
100
AcDbSymbolTableRecord
100
AcDbLinetypeTableRecord
  2
AI-Linetype-18
 70
     0
  3
Adobe Illustrator Linetype No. 18
 72
    65
 73
     2
 40
1.126038038449111
 49
0.7506920256327413
 74
     0
 49
-0.3753460128163706
 74
     0
  0
LTYPE
  5
1CF
330
5
100
AcDbSymbolTableRecord
100
AcDbLinetypeTableRecord
  2
AI-Linetype-19
 70
     0
  3
Adobe Illustrator Linetype No. 19
 72
    65
 73
     2
 40
0.9008304181429728
 49
0.6005536120953154
 74
     0
 49
-0.3002768060476577
 74
     0
  0
LTYPE
  5
1D1
330
5
100
AcDbSymbolTableRecord
100
AcDbLinetypeTableRecord
  2
AI-Linetype-20
 70
     0
  3
Adobe Illustrator Linetype No. 20
 72
    65
 73
     2
 40
1.576453279061389
 49
1.050968852707593
 74
     0
 49
-0.5254844263537965
 74
     0
  0
LTYPE
  5
1D3
330
5
100
AcDbSymbolTableRecord
100
AcDbLinetypeTableRecord
  2
AI-Linetype-21
 70
     0
  3
Adobe Illustrator Linetype No. 21
 72
    65
 73
     2
 40
0.9008304181429728
 49
0.6005536120953154
 74
     0
 49
-0.3002768060476577
 74
     0
  0
LTYPE
  5
1D5
330
5
100
AcDbSymbolTableRecord
100
AcDbLinetypeTableRecord
  2
AI-Linetype-22
 70
     0
  3
Adobe Illustrator Linetype No. 22
 72
    65
 73
     2
 40
1.351245721836833
 49
0.9008304812245555
 74
     0
 49
-0.4504152406122778
 74
     0
  0
LTYPE
  5
1D7
330
5
100
AcDbSymbolTableRecord
100
AcDbLinetypeTableRecord
  2
AI-Linetype-23
 70
     0
  3
Adobe Illustrator Linetype No. 23
 72
    65
 73
     2
 40
0.9008304181429728
 49
0.6005536120953154
 74
     0
 49
-0.3002768060476577
 74
     0
  0
ENDTAB
  0
TABLE
  2
LAYER
  5
2
330
0
100
AcDbSymbolTable
 70
     9
  0
LAYER
  5
54
330
2
100
AcDbSymbolTableRecord
100
AcDbLayerTableRecord
  2
0
 70
     0
 62
     7
  6
Continuous
370
     0
390
F
347
21
  0
LAYER
  5
78
330
2
100
AcDbSymbolTableRecord
100
AcDbLayerTableRecord
  2
CAJETIN
 70
     0
 62
     7
  6
Continuous
370
     0
390
F
347
21
  0
LAYER
  5
7B
330
2
100
AcDbSymbolTableRecord
100
AcDbLayerTableRecord
  2
TITULOS
 70
     0
 62
     7
  6
Continuous
370
     0
390
F
347
21
  0
LAYER
  5
7C
330
2
100
AcDbSymbolTableRecord
100
AcDbLayerTableRecord
  2
TEXTO
 70
     0
 62
     7
  6
Continuous
370
     0
390
F
347
21
  0
LAYER
  5
7D
330
2
100
AcDbSymbolTableRecord
100
AcDbLayerTableRecord
  2
REVISÕES
 70
     0
 62
     7
  6
Continuous
370
     0
390
F
347
21
  0
LAYER
  5
97
330
2
100
AcDbSymbolTableRecord
100
AcDbLayerTableRecord
  2
PIEZA
 70
     0
 62
     7
  6
Continuous
370
     0
390
F
347
21
  0
LAYER
  5
E3
330
2
100
AcDbSymbolTableRecord
100
AcDbLayerTableRecord
  2
COTAS
 70
     0
 62
     7
  6
Continuous
370
     0
390
F
347
21
  0
LAYER
  5
1A6
330
2
100
AcDbSymbolTableRecord
100
AcDbLayerTableRecord
  2
EJES
 70
     0
 62
     7
  6
Continuous
370
     0
390
F
347
21
  0
LAYER
  5
1C3
330
2
100
AcDbSymbolTableRecord
100
AcDbLayerTableRecord
  2
OCULTO
 70
     0
 62
     7
  6
Continuous
370
     0
390
F
347
21
  0
ENDTAB
  0
TABLE
  2
STYLE
  5
3
330
0
100
AcDbSymbolTable
 70
     2
  0
STYLE
  5
55
330
3
100
AcDbSymbolTableRecord
100
AcDbTextStyleTableRecord
  2
Standard
 70
     0
 40
0.0
 41
1.0
 50
0.0
 71
     0
 42
0.2
  3
txt
  4

  0
STYLE
  5
5A
330
3
100
AcDbSymbolTableRecord
100
AcDbTextStyleTableRecord
  2
Annotative
 70
     0
 40
0.0
 41
1.0
 50
0.0
 71
     0
 42
0.2
  3
txt
  4

1001
AcadAnnotative
1000
AnnotativeData
1002
{
1070
     1
1070
     1
1002
}
  0
ENDTAB
  0
TABLE
  2
VIEW
  5
6
330
0
100
AcDbSymbolTable
 70
     0
  0
ENDTAB
  0
TABLE
  2
UCS
  5
7
330
0
100
AcDbSymbolTable
 70
     0
  0
ENDTAB
  0
TABLE
  2
APPID
  5
9
330
0
100
AcDbSymbolTable
 70
     2
  0
APPID
  5
56
330
9
100
AcDbSymbolTableRecord
100
AcDbRegAppTableRecord
  2
ACAD
 70
     0
  0
APPID
  5
5E
330
9
100
AcDbSymbolTableRecord
100
AcDbRegAppTableRecord
  2
AcadAnnotative
 70
     0
  0
ENDTAB
  0
TABLE
  2
DIMSTYLE
  5
A
330
0
100
AcDbSymbolTable
 70
     2
100
AcDbDimStyleTable
 71
     0
  0
DIMSTYLE
105
58
330
A
100
AcDbSymbolTableRecord
100
AcDbDimStyleTableRecord
  2
Standard
 70
     0
340
55
  0
DIMSTYLE
105
59
330
A
100
AcDbSymbolTableRecord
100
AcDbDimStyleTableRecord
  2
Annotative
 70
     0
340
55
1001
AcadAnnotative
1000
AnnotativeData
1002
{
1070
     1
1070
     1
1002
}
  0
ENDTAB
  0
TABLE
  2
BLOCK_RECORD
  5
1
330
0
100
AcDbSymbolTable
 70
    14
  0
BLOCK_RECORD
  5
70
330
1
100
AcDbSymbolTableRecord
100
AcDbBlockTableRecord
  2
*Model_Space
340
73
 70
     0
280
     1
281
     0
  0
BLOCK_RECORD
  5
6C
330
1
100
AcDbSymbolTableRecord
100
AcDbBlockTableRecord
  2
*Paper_Space
340
6F
 70
     0
280
     1
281
     0
  0
BLOCK_RECORD
  5
74
330
1
100
AcDbSymbolTableRecord
100
AcDbBlockTableRecord
  2
*Paper_Space0
340
77
 70
     0
280
     1
281
     0
  0
BLOCK_RECORD
  5
E4
330
1
100
AcDbSymbolTableRecord
100
AcDbBlockTableRecord
  2
Block_0
340
0
102
{BLKREFS
331
E5
102
}
 70
     0
280
     1
281
     0
  0
BLOCK_RECORD
  5
F0
330
1
100
AcDbSymbolTableRecord
100
AcDbBlockTableRecord
  2
Block_1
340
0
102
{BLKREFS
331
F1
102
}
 70
     0
280
     1
281
     0
  0
BLOCK_RECORD
  5
FC
330
1
100
AcDbSymbolTableRecord
100
AcDbBlockTableRecord
  2
Block_2
340
0
102
{BLKREFS
331
FD
102
}
 70
     0
280
     1
281
     0
  0
BLOCK_RECORD
  5
108
330
1
100
AcDbSymbolTableRecord
100
AcDbBlockTableRecord
  2
Block_3
340
0
102
{BLKREFS
331
109
102
}
 70
     0
280
     1
281
     0
  0
BLOCK_RECORD
  5
12A
330
1
100
AcDbSymbolTableRecord
100
AcDbBlockTableRecord
  2
Block_4
340
0
102
{BLKREFS
331
12B
102
}
 70
     0
280
     1
281
     0
  0
BLOCK_RECORD
  5
136
330
1
100
AcDbSymbolTableRecord
100
AcDbBlockTableRecord
  2
Block_5
340
0
102
{BLKREFS
331
137
102
}
 70
     0
280
     1
281
     0
  0
BLOCK_RECORD
  5
145
330
1
100
AcDbSymbolTableRecord
100
AcDbBlockTableRecord
  2
Block_6
340
0
102
{BLKREFS
331
146
102
}
 70
     0
280
     1
281
     0
  0
BLOCK_RECORD
  5
151
330
1
100
AcDbSymbolTableRecord
100
AcDbBlockTableRecord
  2
Block_7
340
0
102
{BLKREFS
331
152
102
}
 70
     0
280
     1
281
     0
  0
BLOCK_RECORD
  5
163
330
1
100
AcDbSymbolTableRecord
100
AcDbBlockTableRecord
  2
Block_8
340
0
102
{BLKREFS
331
164
102
}
 70
     0
280
     1
281
     0
  0
BLOCK_RECORD
  5
16F
330
1
100
AcDbSymbolTableRecord
100
AcDbBlockTableRecord
  2
Block_9
340
0
102
{BLKREFS
331
170
102
}
 70
     0
280
     1
281
     0
  0
BLOCK_RECORD
  5
182
330
1
100
AcDbSymbolTableRecord
100
AcDbBlockTableRecord
  2
Block_10
340
0
102
{BLKREFS
331
183
102
}
 70
     0
280
     1
281
     0
  0
BLOCK_RECORD
  5
18E
330
1
100
AcDbSymbolTableRecord
100
AcDbBlockTableRecord
  2
Block_11
340
0
102
{BLKREFS
331
18F
102
}
 70
     0
280
     1
281
     0
  0
BLOCK_RECORD
  5
19A
330
1
100
AcDbSymbolTableRecord
100
AcDbBlockTableRecord
  2
Block_12
340
0
102
{BLKREFS
331
19B
102
}
 70
     0
280
     1
281
     0
  0
ENDTAB
  0
ENDSEC
  0
SECTION
  2
BLOCKS
  0
BLOCK
  5
71
330
70
100
AcDbEntity
  8
0
100
AcDbBlockBegin
  2
*Model_Space
 70
     0
 10
0.0
 20
0.0
 30
0.0
  3
*Model_Space
  1

  0
ENDBLK
  5
72
330
70
100
AcDbEntity
  8
0
100
AcDbBlockEnd
  0
BLOCK
  5
6D
330
6C
100
AcDbEntity
 67
     1
  8
0
100
AcDbBlockBegin
  2
*Paper_Space
 70
     0
 10
0.0
 20
0.0
 30
0.0
  3
*Paper_Space
  1

  0
ENDBLK
  5
6E
330
6C
100
AcDbEntity
 67
     1
  8
0
100
AcDbBlockEnd
  0
BLOCK
  5
75
330
74
100
AcDbEntity
 67
     1
  8
0
100
AcDbBlockBegin
  2
*Paper_Space0
 70
     0
 10
0.0
 20
0.0
 30
0.0
  3
*Paper_Space0
  1

  0
ENDBLK
  5
76
330
74
100
AcDbEntity
 67
     1
  8
0
100
AcDbBlockEnd
  0
BLOCK
  5
E6
330
E4
100
AcDbEntity
  8
0
100
AcDbBlockBegin
  2
Block_0
 70
     0
 10
0.0
 20
0.0
 30
0.0
  3
Block_0
  1

  0
LINE
  5
E8
330
E4
100
AcDbEntity
  8
COTAS
 62
    18
420
        0
370
     9
100
AcDbLine
 10
49.83018395919109
 20
142.4612587887988
 30
0.0
 11
34.93678937977007
 21
142.4612587887988
 31
0.0
  0
LINE
  5
E9
330
E4
100
AcDbEntity
  8
COTAS
 62
    18
420
        0
370
     9
100
AcDbLine
 10
49.83018395919142
 20
107.9257818123399
 30
0.0
 11
34.93678937977007
 21
107.9257818123399
 31
0.0
  0
LINE
  5
EA
330
E4
100
AcDbEntity
  8
COTAS
 62
    18
420
        0
370
     9
100
AcDbLine
 10
36.85856100400051
 20
140.0590442585098
 30
0.0
 11
36.85856100400051
 21
110.3279963426276
 31
0.0
  0
LWPOLYLINE
  5
EB
330
E4
100
AcDbEntity
  8
COTAS
100
AcDbPolyline
 90
        4
 70
     1
 43
0.0
 10
36.45819191561922
 20
140.0590442585098
 10
37.25893009238212
 20
140.0590442585098
 10
36.85856100400051
 20
142.4612587887988
 10
36.85856100400051
 20
142.4612587887988
  0
HATCH
  5
EC
330
E4
100
AcDbEntity
  8
COTAS
 62
    18
420
        0
440
 33554687
100
AcDbHatch
 10
0.0
 20
0.0
 30
0.0
210
0.0
220
0.0
230
1.0
  2
SOLID
 70
     1
 71
     1
 91
        1
 92
        1
 93
        3
 72
     1
 10
36.45819191561922
 20
140.0590442585098
 11
37.25893009238212
 21
140.0590442585098
 72
     1
 10
37.25893009238212
 20
140.0590442585098
 11
36.85856100400051
 21
142.4612587887988
 72
     1
 10
36.85856100400051
 20
142.4612587887988
 11
36.45819191561922
 21
140.0590442585098
 97
        1
330
EB
 75
     2
 76
     1
 98
        1
 10
0.0
 20
0.0
450
        0
451
        0
460
0.0
461
0.0
452
        0
462
0.0
453
        0
470

  0
LWPOLYLINE
  5
ED
330
E4
100
AcDbEntity
  8
COTAS
100
AcDbPolyline
 90
        4
 70
     1
 43
0.0
 10
36.45819191561922
 20
110.3279963426276
 10
37.25893009238212
 20
110.3279963426276
 10
36.85856100400051
 20
107.9257818123399
 10
36.85856100400051
 20
107.9257818123399
  0
HATCH
  5
EE
330
E4
100
AcDbEntity
  8
COTAS
 62
    18
420
        0
440
 33554687
100
AcDbHatch
 10
0.0
 20
0.0
 30
0.0
210
0.0
220
0.0
230
1.0
  2
SOLID
 70
     1
 71
     1
 91
        1
 92
        1
 93
        3
 72
     1
 10
36.45819191561922
 20
110.3279963426276
 11
37.25893009238212
 21
110.3279963426276
 72
     1
 10
37.25893009238212
 20
110.3279963426276
 11
36.85856100400051
 21
107.9257818123399
 72
     1
 10
36.85856100400051
 20
107.9257818123399
 11
36.45819191561922
 21
110.3279963426276
 97
        1
330
ED
 75
     2
 76
     1
 98
        1
 10
0.0
 20
0.0
450
        0
451
        0
460
0.0
461
0.0
452
        0
462
0.0
453
        0
470

  0
MTEXT
  5
EF
330
E4
100
AcDbEntity
  8
COTAS
100
AcDbMText
 10
35.89767963783548
 20
124.7307155721159
 30
0.0
 40
0.2
 41
0.0
 46
0.0
 71
     7
 72
     1
  1
\C18;\c0;\FArial Bold|b1|i0|c1;\H2.497667;\W1.000000;359
 11
0.0000000000000001
 21
1.0
 31
0.0
 73
     1
 44
1.0
  0
ENDBLK
  5
E7
330
E4
100
AcDbEntity
  8
0
100
AcDbBlockEnd
  0
BLOCK
  5
F2
330
F0
100
AcDbEntity
  8
0
100
AcDbBlockBegin
  2
Block_1
 70
     0
 10
0.0
 20
0.0
 30
0.0
  3
Block_1
  1

  0
LINE
  5
F4
330
F0
100
AcDbEntity
  8
COTAS
 62
    18
420
        0
370
     9
100
AcDbLine
 10
51.559778420999
 20
106.1961873505314
 30
0.0
 11
51.559778420999
 21
90.67439778344306
 31
0.0
  0
LINE
  5
F5
330
F0
100
AcDbEntity
  8
COTAS
 62
    18
420
        0
370
     9
100
AcDbLine
 10
103.4476122752288
 20
123.2717487311971
 30
0.0
 11
103.4476122752288
 21
90.67439778344306
 31
0.0
  0
LINE
  5
F6
330
F0
100
AcDbEntity
  8
COTAS
 62
    18
420
        0
370
     9
100
AcDbLine
 10
53.96199295128737
 20
92.59616940767349
 30
0.0
 11
101.0453977449401
 21
92.59616940767349
 31
0.0
  0
LWPOLYLINE
  5
F7
330
F0
100
AcDbEntity
  8
COTAS
100
AcDbPolyline
 90
        4
 70
     1
 43
0.0
 10
53.96199295128737
 20
92.99653849605606
 10
53.96199295128737
 20
92.1958003192922
 10
51.559778420999
 20
92.59616940767349
 10
51.559778420999
 20
92.59616940767349
  0
HATCH
  5
F8
330
F0
100
AcDbEntity
  8
COTAS
 62
    18
420
        0
440
 33554687
100
AcDbHatch
 10
0.0
 20
0.0
 30
0.0
210
0.0
220
0.0
230
1.0
  2
SOLID
 70
     1
 71
     1
 91
        1
 92
        1
 93
        3
 72
     1
 10
53.96199295128737
 20
92.99653849605606
 11
53.96199295128737
 21
92.1958003192922
 72
     1
 10
53.96199295128737
 20
92.1958003192922
 11
51.559778420999
 21
92.59616940767349
 72
     1
 10
51.559778420999
 20
92.59616940767349
 11
53.96199295128737
 21
92.99653849605606
 97
        1
330
F7
 75
     2
 76
     1
 98
        1
 10
0.0
 20
0.0
450
        0
451
        0
460
0.0
461
0.0
452
        0
462
0.0
453
        0
470

  0
LWPOLYLINE
  5
F9
330
F0
100
AcDbEntity
  8
COTAS
100
AcDbPolyline
 90
        4
 70
     1
 43
0.0
 10
101.0453977449401
 20
92.99653849605606
 10
101.0453977449401
 20
92.1958003192922
 10
103.4476122752288
 20
92.59616940767349
 10
103.4476122752288
 20
92.59616940767349
  0
HATCH
  5
FA
330
F0
100
AcDbEntity
  8
COTAS
 62
    18
420
        0
440
 33554687
100
AcDbHatch
 10
0.0
 20
0.0
 30
0.0
210
0.0
220
0.0
230
1.0
  2
SOLID
 70
     1
 71
     1
 91
        1
 92
        1
 93
        3
 72
     1
 10
101.0453977449401
 20
92.99653849605606
 11
101.0453977449401
 21
92.1958003192922
 72
     1
 10
101.0453977449401
 20
92.1958003192922
 11
103.4476122752288
 21
92.59616940767349
 72
     1
 10
103.4476122752288
 20
92.59616940767349
 11
101.0453977449401
 21
92.99653849605606
 97
        1
330
F9
 75
     2
 76
     1
 98
        1
 10
0.0
 20
0.0
450
        0
451
        0
460
0.0
461
0.0
452
        0
462
0.0
453
        0
470

  0
MTEXT
  5
FB
330
F0
100
AcDbEntity
  8
COTAS
100
AcDbMText
 10
74.44505219187864
 20
93.55705852288895
 30
0.0
 40
0.2
 41
0.0
 46
0.0
 71
     7
 72
     1
  1
\C18;\c0;\FArial Bold|b1|i0|c1;\H2.497667;\W1.000000;540
 73
     1
 44
1.0
  0
ENDBLK
  5
F3
330
F0
100
AcDbEntity
  8
0
100
AcDbBlockEnd
  0
BLOCK
  5
FE
330
FC
100
AcDbEntity
  8
0
100
AcDbBlockBegin
  2
Block_2
 70
     0
 10
0.0
 20
0.0
 30
0.0
  3
Block_2
  1

  0
LINE
  5
100
330
FC
100
AcDbEntity
  8
COTAS
 62
    18
420
        0
370
     9
100
AcDbLine
 10
56.5448430004662
 20
132.8806067974918
 30
0.0
 11
42.84305666720361
 21
132.8806067974918
 31
0.0
  0
LINE
  5
101
330
FC
100
AcDbEntity
  8
COTAS
 62
    18
420
        0
370
     9
100
AcDbLine
 10
56.5448430004662
 20
117.5284186527138
 30
0.0
 11
42.84305666720361
 21
117.5284186527138
 31
0.0
  0
LINE
  5
102
330
FC
100
AcDbEntity
  8
COTAS
 62
    18
420
        0
370
     9
100
AcDbLine
 10
44.76482829143437
 20
130.4783922672041
 30
0.0
 11
44.76482829143437
 21
119.9306331830028
 31
0.0
  0
LWPOLYLINE
  5
103
330
FC
100
AcDbEntity
  8
COTAS
100
AcDbPolyline
 90
        4
 70
     1
 43
0.0
 10
44.36445920305308
 20
130.4783922672041
 10
45.16519737981566
 20
130.4783922672041
 10
44.76482829143437
 20
132.8806067974918
 10
44.76482829143437
 20
132.8806067974918
  0
HATCH
  5
104
330
FC
100
AcDbEntity
  8
COTAS
 62
    18
420
        0
440
 33554687
100
AcDbHatch
 10
0.0
 20
0.0
 30
0.0
210
0.0
220
0.0
230
1.0
  2
SOLID
 70
     1
 71
     1
 91
        1
 92
        1
 93
        3
 72
     1
 10
44.36445920305308
 20
130.4783922672041
 11
45.16519737981566
 21
130.4783922672041
 72
     1
 10
45.16519737981566
 20
130.4783922672041
 11
44.76482829143437
 21
132.8806067974918
 72
     1
 10
44.76482829143437
 20
132.8806067974918
 11
44.36445920305308
 21
130.4783922672041
 97
        1
330
103
 75
     2
 76
     1
 98
        1
 10
0.0
 20
0.0
450
        0
451
        0
460
0.0
461
0.0
452
        0
462
0.0
453
        0
470

  0
LWPOLYLINE
  5
105
330
FC
100
AcDbEntity
  8
COTAS
100
AcDbPolyline
 90
        4
 70
     1
 43
0.0
 10
44.36445920305308
 20
119.9306331830028
 10
45.16519737981566
 20
119.9306331830028
 10
44.76482829143437
 20
117.5284186527138
 10
44.76482829143437
 20
117.5284186527138
  0
HATCH
  5
106
330
FC
100
AcDbEntity
  8
COTAS
 62
    18
420
        0
440
 33554687
100
AcDbHatch
 10
0.0
 20
0.0
 30
0.0
210
0.0
220
0.0
230
1.0
  2
SOLID
 70
     1
 71
     1
 91
        1
 92
        1
 93
        3
 72
     1
 10
44.36445920305308
 20
119.9306331830028
 11
45.16519737981566
 21
119.9306331830028
 72
     1
 10
45.16519737981566
 20
119.9306331830028
 11
44.76482829143437
 21
117.5284186527138
 72
     1
 10
44.76482829143437
 20
117.5284186527138
 11
44.36445920305308
 21
119.9306331830028
 97
        1
330
105
 75
     2
 76
     1
 98
        1
 10
0.0
 20
0.0
450
        0
451
        0
460
0.0
461
0.0
452
        0
462
0.0
453
        0
470

  0
MTEXT
  5
107
330
FC
100
AcDbEntity
  8
COTAS
100
AcDbMText
 10
43.80393692616924
 20
122.60199107178
 30
0.0
 40
0.2
 41
0.0
 46
0.0
 71
     7
 72
     1
  1
\C18;\c0;\FArial Bold|b1|i0|c1;\H2.497667;\W1.000000;160
 11
0.0000000000000001
 21
1.0
 31
0.0
 73
     1
 44
1.0
  0
ENDBLK
  5
FF
330
FC
100
AcDbEntity
  8
0
100
AcDbBlockEnd
  0
BLOCK
  5
10A
330
108
100
AcDbEntity
  8
0
100
AcDbBlockBegin
  2
Block_3
 70
     0
 10
0.0
 20
0.0
 30
0.0
  3
Block_3
  1

  0
LINE
  5
10C
330
108
100
AcDbEntity
  8
COTAS
 62
    18
420
        0
370
     9
100
AcDbLine
 10
61.34514990189288
 20
115.5846621794165
 30
0.0
 11
61.34514990189288
 21
99.72586073196104
 31
0.0
  0
LINE
  5
10D
330
108
100
AcDbEntity
  8
COTAS
 62
    18
420
        0
370
     9
100
AcDbLine
 10
103.4476122752288
 20
123.2717485458321
 30
0.0
 11
103.4476122752288
 21
99.72586073196104
 31
0.0
  0
LINE
  5
10E
330
108
100
AcDbEntity
  8
COTAS
 62
    18
420
        0
370
     9
100
AcDbLine
 10
63.74736443218124
 20
101.6476323561927
 30
0.0
 11
101.0453977449401
 21
101.6476323561927
 31
0.0
  0
LWPOLYLINE
  5
10F
330
108
100
AcDbEntity
  8
COTAS
100
AcDbPolyline
 90
        4
 70
     1
 43
0.0
 10
63.74736443218124
 20
102.048001444574
 10
63.74736443218124
 20
101.2472632678102
 10
61.34514990189288
 20
101.6476323561927
 10
61.34514990189288
 20
101.6476323561927
  0
HATCH
  5
110
330
108
100
AcDbEntity
  8
COTAS
 62
    18
420
        0
440
 33554687
100
AcDbHatch
 10
0.0
 20
0.0
 30
0.0
210
0.0
220
0.0
230
1.0
  2
SOLID
 70
     1
 71
     1
 91
        1
 92
        1
 93
        3
 72
     1
 10
63.74736443218124
 20
102.048001444574
 11
63.74736443218124
 21
101.2472632678102
 72
     1
 10
63.74736443218124
 20
101.2472632678102
 11
61.34514990189288
 21
101.6476323561927
 72
     1
 10
61.34514990189288
 20
101.6476323561927
 11
63.74736443218124
 21
102.048001444574
 97
        1
330
10F
 75
     2
 76
     1
 98
        1
 10
0.0
 20
0.0
450
        0
451
        0
460
0.0
461
0.0
452
        0
462
0.0
453
        0
470

  0
LWPOLYLINE
  5
111
330
108
100
AcDbEntity
  8
COTAS
100
AcDbPolyline
 90
        4
 70
     1
 43
0.0
 10
101.0453977449401
 20
102.048001444574
 10
101.0453977449401
 20
101.2472632678102
 10
103.4476122752288
 20
101.6476323561927
 10
103.4476122752288
 20
101.6476323561927
  0
HATCH
  5
112
330
108
100
AcDbEntity
  8
COTAS
 62
    18
420
        0
440
 33554687
100
AcDbHatch
 10
0.0
 20
0.0
 30
0.0
210
0.0
220
0.0
230
1.0
  2
SOLID
 70
     1
 71
     1
 91
        1
 92
        1
 93
        3
 72
     1
 10
101.0453977449401
 20
102.048001444574
 11
101.0453977449401
 21
101.2472632678102
 72
     1
 10
101.0453977449401
 20
101.2472632678102
 11
103.4476122752288
 21
101.6476323561927
 72
     1
 10
103.4476122752288
 20
101.6476323561927
 11
101.0453977449401
 21
102.048001444574
 97
        1
330
111
 75
     2
 76
     1
 98
        1
 10
0.0
 20
0.0
450
        0
451
        0
460
0.0
461
0.0
452
        0
462
0.0
453
        0
470

  0
MTEXT
  5
113
330
108
100
AcDbEntity
  8
COTAS
100
AcDbMText
 10
79.1375521567971
 20
102.6085193801367
 30
0.0
 40
0.2
 41
0.0
 46
0.0
 71
     7
 72
     1
  1
\C18;\c0;\FArial Bold|b1|i0|c1;\H2.497667;\W1.000000;438
 73
     1
 44
1.0
  0
ENDBLK
  5
10B
330
108
100
AcDbEntity
  8
0
100
AcDbBlockEnd
  0
BLOCK
  5
12C
330
12A
100
AcDbEntity
  8
0
100
AcDbBlockBegin
  2
Block_4
 70
     0
 10
0.0
 20
0.0
 30
0.0
  3
Block_4
  1

  0
LINE
  5
12E
330
12A
100
AcDbEntity
  8
COTAS
 62
    18
420
        0
370
     9
100
AcDbLine
 10
51.55977842099932
 20
193.9414602355871
 30
0.0
 11
41.20343946381658
 21
193.9414602355871
 31
0.0
  0
LINE
  5
12F
330
12A
100
AcDbEntity
  8
COTAS
 62
    18
420
        0
370
     9
100
AcDbLine
 10
51.559778420999
 20
203.7424955191638
 30
0.0
 11
41.20343946381658
 21
203.7424955191638
 31
0.0
  0
LINE
  5
130
330
12A
100
AcDbEntity
  8
COTAS
 62
    18
420
        0
370
     9
100
AcDbLine
 10
43.12521108804733
 20
196.3436747658755
 30
0.0
 11
43.12521108804733
 21
201.3402809888754
 31
0.0
  0
LWPOLYLINE
  5
131
330
12A
100
AcDbEntity
  8
COTAS
100
AcDbPolyline
 90
        4
 70
     1
 43
0.0
 10
42.72484199966604
 20
196.3436747658755
 10
43.52558017642894
 20
196.3436747658755
 10
43.12521108804733
 20
193.9414602355871
 10
43.12521108804733
 20
193.9414602355871
  0
HATCH
  5
132
330
12A
100
AcDbEntity
  8
COTAS
 62
    18
420
        0
440
 33554687
100
AcDbHatch
 10
0.0
 20
0.0
 30
0.0
210
0.0
220
0.0
230
1.0
  2
SOLID
 70
     1
 71
     1
 91
        1
 92
        1
 93
        3
 72
     1
 10
42.72484199966604
 20
196.3436747658755
 11
43.52558017642894
 21
196.3436747658755
 72
     1
 10
43.52558017642894
 20
196.3436747658755
 11
43.12521108804733
 21
193.9414602355871
 72
     1
 10
43.12521108804733
 20
193.9414602355871
 11
42.72484199966604
 21
196.3436747658755
 97
        1
330
131
 75
     2
 76
     1
 98
        1
 10
0.0
 20
0.0
450
        0
451
        0
460
0.0
461
0.0
452
        0
462
0.0
453
        0
470

  0
LWPOLYLINE
  5
133
330
12A
100
AcDbEntity
  8
COTAS
100
AcDbPolyline
 90
        4
 70
     1
 43
0.0
 10
42.72484199966604
 20
201.3402809888754
 10
43.52558017642894
 20
201.3402809888754
 10
43.12521108804733
 20
203.7424955191638
 10
43.12521108804733
 20
203.7424955191638
  0
HATCH
  5
134
330
12A
100
AcDbEntity
  8
COTAS
 62
    18
420
        0
440
 33554687
100
AcDbHatch
 10
0.0
 20
0.0
 30
0.0
210
0.0
220
0.0
230
1.0
  2
SOLID
 70
     1
 71
     1
 91
        1
 92
        1
 93
        3
 72
     1
 10
42.72484199966604
 20
201.3402809888754
 11
43.52558017642894
 21
201.3402809888754
 72
     1
 10
43.52558017642894
 20
201.3402809888754
 11
43.12521108804733
 21
203.7424955191638
 72
     1
 10
43.12521108804733
 20
203.7424955191638
 11
42.72484199966604
 21
201.3402809888754
 97
        1
330
133
 75
     2
 76
     1
 98
        1
 10
0.0
 20
0.0
450
        0
451
        0
460
0.0
461
0.0
452
        0
462
0.0
453
        0
470

  0
MTEXT
  5
135
330
12A
100
AcDbEntity
  8
COTAS
100
AcDbMText
 10
42.1640930070371
 20
195.6628200465701
 30
0.0
 40
0.2
 41
0.0
 46
0.0
 71
     7
 72
     1
  1
\C18;\c0;\FArial Bold|b1|i0|c1;\H2.497667;\W1.000000;Ø102
 11
0.0000000000000001
 21
1.0
 31
0.0
 73
     1
 44
1.0
  0
ENDBLK
  5
12D
330
12A
100
AcDbEntity
  8
0
100
AcDbBlockEnd
  0
BLOCK
  5
138
330
136
100
AcDbEntity
  8
0
100
AcDbBlockBegin
  2
Block_5
 70
     0
 10
0.0
 20
0.0
 30
0.0
  3
Block_5
  1

  0
LINE
  5
13A
330
136
100
AcDbEntity
  8
COTAS
 62
    18
420
        0
370
     9
100
AcDbLine
 10
52.52066423311422
 20
209.1715003576155
 30
0.0
 11
41.20343946381658
 21
209.1715003576155
 31
0.0
  0
LINE
  5
13B
330
136
100
AcDbEntity
  8
COTAS
 62
    18
420
        0
370
     9
100
AcDbLine
 10
52.52066423311422
 20
214.4563723242502
 30
0.0
 11
41.20343946381658
 21
214.4563723242502
 31
0.0
  0
LINE
  5
13C
330
136
100
AcDbEntity
  8
COTAS
 62
    18
420
        0
370
     9
100
AcDbLine
 10
43.12521108804733
 20
206.7692858273271
 30
0.0
 11
43.12521108804733
 21
204.3670712970388
 31
0.0
  0
LINE
  5
13D
330
136
100
AcDbEntity
  8
COTAS
 62
    18
420
        0
370
     9
100
AcDbLine
 10
43.12521108804733
 20
216.8585868545386
 30
0.0
 11
43.12521108804733
 21
219.2608013848269
 31
0.0
  0
LINE
  5
13E
330
136
100
AcDbEntity
  8
COTAS
 62
    18
420
        0
370
     9
100
AcDbLine
 10
43.12521108804733
 20
209.1715003576155
 30
0.0
 11
43.12521108804733
 21
214.4563723242502
 31
0.0
  0
LWPOLYLINE
  5
13F
330
136
100
AcDbEntity
  8
COTAS
100
AcDbPolyline
 90
        4
 70
     1
 43
0.0
 10
42.72484199966604
 20
206.7692858273271
 10
43.52558017642894
 20
206.7692858273271
 10
43.12521108804733
 20
209.1715003576155
 10
43.12521108804733
 20
209.1715003576155
  0
HATCH
  5
140
330
136
100
AcDbEntity
  8
COTAS
 62
    18
420
        0
440
 33554687
100
AcDbHatch
 10
0.0
 20
0.0
 30
0.0
210
0.0
220
0.0
230
1.0
  2
SOLID
 70
     1
 71
     1
 91
        1
 92
        1
 93
        3
 72
     1
 10
42.72484199966604
 20
206.7692858273271
 11
43.52558017642894
 21
206.7692858273271
 72
     1
 10
43.52558017642894
 20
206.7692858273271
 11
43.12521108804733
 21
209.1715003576155
 72
     1
 10
43.12521108804733
 20
209.1715003576155
 11
42.72484199966604
 21
206.7692858273271
 97
        1
330
13F
 75
     2
 76
     1
 98
        1
 10
0.0
 20
0.0
450
        0
451
        0
460
0.0
461
0.0
452
        0
462
0.0
453
        0
470

  0
LWPOLYLINE
  5
141
330
136
100
AcDbEntity
  8
COTAS
100
AcDbPolyline
 90
        4
 70
     1
 43
0.0
 10
42.72484199966604
 20
216.8585868545386
 10
43.52558017642894
 20
216.8585868545386
 10
43.12521108804733
 20
214.4563723242502
 10
43.12521108804733
 20
214.4563723242502
  0
HATCH
  5
142
330
136
100
AcDbEntity
  8
COTAS
 62
    18
420
        0
440
 33554687
100
AcDbHatch
 10
0.0
 20
0.0
 30
0.0
210
0.0
220
0.0
230
1.0
  2
SOLID
 70
     1
 71
     1
 91
        1
 92
        1
 93
        3
 72
     1
 10
42.72484199966604
 20
216.8585868545386
 11
43.52558017642894
 21
216.8585868545386
 72
     1
 10
43.52558017642894
 20
216.8585868545386
 11
43.12521108804733
 21
214.4563723242502
 72
     1
 10
43.12521108804733
 20
214.4563723242502
 11
42.72484199966604
 21
216.8585868545386
 97
        1
330
141
 75
     2
 76
     1
 98
        1
 10
0.0
 20
0.0
450
        0
451
        0
460
0.0
461
0.0
452
        0
462
0.0
453
        0
470

  0
MTEXT
  5
143
330
136
100
AcDbEntity
  8
COTAS
100
AcDbMText
 10
42.16432985735171
 20
208.6108669183331
 30
0.0
 40
0.2
 41
0.0
 46
0.0
 71
     7
 72
     1
  1
\C18;\c0;\FArial Bold|b1|i0|c1;\H2.497667;\W1.000000;Ø55
 11
0.0000000000000001
 21
1.0
 31
0.0
 73
     1
 44
1.0
  0
ENDBLK
  5
139
330
136
100
AcDbEntity
  8
0
100
AcDbBlockEnd
  0
BLOCK
  5
147
330
145
100
AcDbEntity
  8
0
100
AcDbBlockBegin
  2
Block_6
 70
     0
 10
0.0
 20
0.0
 30
0.0
  3
Block_6
  1

  0
LINE
  5
149
330
145
100
AcDbEntity
  8
COTAS
 62
    18
420
        0
370
     9
100
AcDbLine
 10
104.6811001660274
 20
216.9066311451443
 30
0.0
 11
109.8763625602724
 21
216.9066311451443
 31
0.0
  0
LINE
  5
14A
330
145
100
AcDbEntity
  8
COTAS
 62
    18
420
        0
370
     9
100
AcDbLine
 10
53.48155004522975
 20
177.7024900108374
 30
0.0
 11
109.8763625602724
 21
177.7024900108374
 31
0.0
  0
LINE
  5
14B
330
145
100
AcDbEntity
  8
COTAS
 62
    18
420
        0
370
     9
100
AcDbLine
 10
107.9545909360413
 20
214.504416614856
 30
0.0
 11
107.9545909360413
 21
180.1047045411258
 31
0.0
  0
LWPOLYLINE
  5
14C
330
145
100
AcDbEntity
  8
COTAS
100
AcDbPolyline
 90
        4
 70
     1
 43
0.0
 10
107.55422184766
 20
214.504416614856
 10
108.3549600244225
 20
214.504416614856
 10
107.9545909360413
 20
216.9066311451443
 10
107.9545909360413
 20
216.9066311451443
  0
HATCH
  5
14D
330
145
100
AcDbEntity
  8
COTAS
 62
    18
420
        0
440
 33554687
100
AcDbHatch
 10
0.0
 20
0.0
 30
0.0
210
0.0
220
0.0
230
1.0
  2
SOLID
 70
     1
 71
     1
 91
        1
 92
        1
 93
        3
 72
     1
 10
107.55422184766
 20
214.504416614856
 11
108.3549600244225
 21
214.504416614856
 72
     1
 10
108.3549600244225
 20
214.504416614856
 11
107.9545909360413
 21
216.9066311451443
 72
     1
 10
107.9545909360413
 20
216.9066311451443
 11
107.55422184766
 21
214.504416614856
 97
        1
330
14C
 75
     2
 76
     1
 98
        1
 10
0.0
 20
0.0
450
        0
451
        0
460
0.0
461
0.0
452
        0
462
0.0
453
        0
470

  0
LWPOLYLINE
  5
14E
330
145
100
AcDbEntity
  8
COTAS
100
AcDbPolyline
 90
        4
 70
     1
 43
0.0
 10
107.55422184766
 20
180.1047045411258
 10
108.3549600244225
 20
180.1047045411258
 10
107.9545909360413
 20
177.7024900108374
 10
107.9545909360413
 20
177.7024900108374
  0
HATCH
  5
14F
330
145
100
AcDbEntity
  8
COTAS
 62
    18
420
        0
440
 33554687
100
AcDbHatch
 10
0.0
 20
0.0
 30
0.0
210
0.0
220
0.0
230
1.0
  2
SOLID
 70
     1
 71
     1
 91
        1
 92
        1
 93
        3
 72
     1
 10
107.55422184766
 20
180.1047045411258
 11
108.3549600244225
 21
180.1047045411258
 72
     1
 10
108.3549600244225
 20
180.1047045411258
 11
107.9545909360413
 21
177.7024900108374
 72
     1
 10
107.9545909360413
 20
177.7024900108374
 11
107.55422184766
 21
180.1047045411258
 97
        1
330
14E
 75
     2
 76
     1
 98
        1
 10
0.0
 20
0.0
450
        0
451
        0
460
0.0
461
0.0
452
        0
462
0.0
453
        0
470

  0
MTEXT
  5
150
330
145
100
AcDbEntity
  8
COTAS
100
AcDbMText
 10
106.9936952959241
 20
194.7019829157339
 30
0.0
 40
0.2
 41
0.0
 46
0.0
 71
     7
 72
     1
  1
\C18;\c0;\FArial Bold|b1|i0|c1;\H2.497667;\W1.000000;410
 11
0.0000000000000001
 21
1.0
 31
0.0
 73
     1
 44
1.0
  0
ENDBLK
  5
148
330
145
100
AcDbEntity
  8
0
100
AcDbBlockEnd
  0
BLOCK
  5
153
330
151
100
AcDbEntity
  8
0
100
AcDbBlockBegin
  2
Block_7
 70
     0
 10
0.0
 20
0.0
 30
0.0
  3
Block_7
  1

  0
LINE
  5
155
330
151
100
AcDbEntity
  8
COTAS
 62
    18
420
        0
370
     9
100
AcDbLine
 10
49.83018395919142
 20
188.0800567816833
 30
0.0
 11
41.07973488138326
 21
188.0800567816833
 31
0.0
  0
LINE
  5
156
330
151
100
AcDbEntity
  8
COTAS
 62
    18
420
        0
370
     9
100
AcDbLine
 10
49.63800679676824
 20
177.7024900108374
 30
0.0
 11
41.07973488138326
 21
177.7024900108374
 31
0.0
  0
LINE
  5
157
330
151
100
AcDbEntity
  8
COTAS
 62
    18
420
        0
370
     9
100
AcDbLine
 10
43.00150650561401
 20
185.6778422513949
 30
0.0
 11
43.00150650561401
 21
180.1047045411258
 31
0.0
  0
LWPOLYLINE
  5
158
330
151
100
AcDbEntity
  8
COTAS
100
AcDbPolyline
 90
        4
 70
     1
 43
0.0
 10
42.60113741723273
 20
185.6778422513949
 10
43.4018755939953
 20
185.6778422513949
 10
43.00150650561401
 20
188.0800567816833
 10
43.00150650561401
 20
188.0800567816833
  0
HATCH
  5
159
330
151
100
AcDbEntity
  8
COTAS
 62
    18
420
        0
440
 33554687
100
AcDbHatch
 10
0.0
 20
0.0
 30
0.0
210
0.0
220
0.0
230
1.0
  2
SOLID
 70
     1
 71
     1
 91
        1
 92
        1
 93
        3
 72
     1
 10
42.60113741723273
 20
185.6778422513949
 11
43.4018755939953
 21
185.6778422513949
 72
     1
 10
43.4018755939953
 20
185.6778422513949
 11
43.00150650561401
 21
188.0800567816833
 72
     1
 10
43.00150650561401
 20
188.0800567816833
 11
42.60113741723273
 21
185.6778422513949
 97
        1
330
158
 75
     2
 76
     1
 98
        1
 10
0.0
 20
0.0
450
        0
451
        0
460
0.0
461
0.0
452
        0
462
0.0
453
        0
470

  0
LWPOLYLINE
  5
15A
330
151
100
AcDbEntity
  8
COTAS
100
AcDbPolyline
 90
        4
 70
     1
 43
0.0
 10
42.60113741723273
 20
180.1047045411258
 10
43.4018755939953
 20
180.1047045411258
 10
43.00150650561401
 20
177.7024900108374
 10
43.00150650561401
 20
177.7024900108374
  0
HATCH
  5
15B
330
151
100
AcDbEntity
  8
COTAS
 62
    18
420
        0
440
 33554687
100
AcDbHatch
 10
0.0
 20
0.0
 30
0.0
210
0.0
220
0.0
230
1.0
  2
SOLID
 70
     1
 71
     1
 91
        1
 92
        1
 93
        3
 72
     1
 10
42.60113741723273
 20
180.1047045411258
 11
43.4018755939953
 21
180.1047045411258
 72
     1
 10
43.4018755939953
 20
180.1047045411258
 11
43.00150650561401
 21
177.7024900108374
 72
     1
 10
43.00150650561401
 20
177.7024900108374
 11
42.60113741723273
 21
180.1047045411258
 97
        1
330
15A
 75
     2
 76
     1
 98
        1
 10
0.0
 20
0.0
450
        0
451
        0
460
0.0
461
0.0
452
        0
462
0.0
453
        0
470

  0
MTEXT
  5
15C
330
151
100
AcDbEntity
  8
COTAS
100
AcDbMText
 10
42.04060786573768
 20
180.2887369340941
 30
0.0
 40
0.2
 41
0.0
 46
0.0
 71
     7
 72
     1
  1
\C18;\c0;\FArial Bold|b1|i0|c1;\H2.497667;\W1.000000;108
 11
0.0000000000000001
 21
1.0
 31
0.0
 73
     1
 44
1.0
  0
ENDBLK
  5
154
330
151
100
AcDbEntity
  8
0
100
AcDbBlockEnd
  0
BLOCK
  5
165
330
163
100
AcDbEntity
  8
0
100
AcDbBlockBegin
  2
Block_8
 70
     0
 10
0.0
 20
0.0
 30
0.0
  3
Block_8
  1

  0
LINE
  5
167
330
163
100
AcDbEntity
  8
COTAS
 62
    18
420
        0
370
     9
100
AcDbLine
 10
153.2064717451214
 20
198.8419778773754
 30
0.0
 11
139.0145041799604
 21
198.8419778773754
 31
0.0
  0
LINE
  5
168
330
163
100
AcDbEntity
  8
COTAS
 62
    18
420
        0
370
     9
100
AcDbLine
 10
158.1069893869097
 20
177.7024900108374
 30
0.0
 11
139.0145041799598
 21
177.7024900108374
 31
0.0
  0
LINE
  5
169
330
163
100
AcDbEntity
  8
COTAS
 62
    18
420
        0
370
     9
100
AcDbLine
 10
140.9362758041909
 20
196.4397633470871
 30
0.0
 11
140.9362758041909
 21
180.1047045411258
 31
0.0
  0
LWPOLYLINE
  5
16A
330
163
100
AcDbEntity
  8
COTAS
100
AcDbPolyline
 90
        4
 70
     1
 43
0.0
 10
140.5359067158095
 20
196.4397633470871
 10
141.3366448925721
 20
196.4397633470871
 10
140.9362758041909
 20
198.8419778773754
 10
140.9362758041909
 20
198.8419778773754
  0
HATCH
  5
16B
330
163
100
AcDbEntity
  8
COTAS
 62
    18
420
        0
440
 33554687
100
AcDbHatch
 10
0.0
 20
0.0
 30
0.0
210
0.0
220
0.0
230
1.0
  2
SOLID
 70
     1
 71
     1
 91
        1
 92
        1
 93
        3
 72
     1
 10
140.5359067158095
 20
196.4397633470871
 11
141.3366448925721
 21
196.4397633470871
 72
     1
 10
141.3366448925721
 20
196.4397633470871
 11
140.9362758041909
 21
198.8419778773754
 72
     1
 10
140.9362758041909
 20
198.8419778773754
 11
140.5359067158095
 21
196.4397633470871
 97
        1
330
16A
 75
     2
 76
     1
 98
        1
 10
0.0
 20
0.0
450
        0
451
        0
460
0.0
461
0.0
452
        0
462
0.0
453
        0
470

  0
LWPOLYLINE
  5
16C
330
163
100
AcDbEntity
  8
COTAS
100
AcDbPolyline
 90
        4
 70
     1
 43
0.0
 10
140.5359067158095
 20
180.1047045411258
 10
141.3366448925721
 20
180.1047045411258
 10
140.9362758041909
 20
177.7024900108374
 10
140.9362758041909
 20
177.7024900108374
  0
HATCH
  5
16D
330
163
100
AcDbEntity
  8
COTAS
 62
    18
420
        0
440
 33554687
100
AcDbHatch
 10
0.0
 20
0.0
 30
0.0
210
0.0
220
0.0
230
1.0
  2
SOLID
 70
     1
 71
     1
 91
        1
 92
        1
 93
        3
 72
     1
 10
140.5359067158095
 20
180.1047045411258
 11
141.3366448925721
 21
180.1047045411258
 72
     1
 10
141.3366448925721
 20
180.1047045411258
 11
140.9362758041909
 21
177.7024900108374
 72
     1
 10
140.9362758041909
 20
177.7024900108374
 11
140.5359067158095
 21
180.1047045411258
 97
        1
330
16C
 75
     2
 76
     1
 98
        1
 10
0.0
 20
0.0
450
        0
451
        0
460
0.0
461
0.0
452
        0
462
0.0
453
        0
470

  0
MTEXT
  5
16E
330
163
100
AcDbEntity
  8
COTAS
100
AcDbMText
 10
139.9751446691891
 20
185.2693114771198
 30
0.0
 40
0.2
 41
0.0
 46
0.0
 71
     7
 72
     1
  1
\C18;\c0;\FArial Bold|b1|i0|c1;\H2.497667;\W1.000000;220
 11
0.0000000000000001
 21
1.0
 31
0.0
 73
     1
 44
1.0
  0
ENDBLK
  5
166
330
163
100
AcDbEntity
  8
0
100
AcDbBlockEnd
  0
BLOCK
  5
171
330
16F
100
AcDbEntity
  8
0
100
AcDbBlockBegin
  2
Block_9
 70
     0
 10
0.0
 20
0.0
 30
0.0
  3
Block_9
  1

  0
LWPOLYLINE
  5
173
330
16F
100
AcDbEntity
  8
COTAS
100
AcDbPolyline
 90
        4
 70
     1
 43
0.0
 10
182.8778298887541
 20
177.7024900108374
 10
137.179702735865
 20
177.7024900108374
 10
137.179702735865
 20
172.8980609502607
 10
182.8778298887541
 20
172.8980609502607
  0
SPLINE
  5
174
330
16F
100
AcDbEntity
  8
COTAS
 62
    18
420
        0
370
     9
100
AcDbSpline
210
0.0
220
0.0
230
1.0
 70
    24
 71
     3
 72
     8
 73
     4
 74
     0
 42
0.0000000001
 43
0.0000000001
 40
0.0
 40
0.0
 40
0.0
 40
0.0
 40
1.0
 40
1.0
 40
1.0
 40
1.0
 10
183.0898557775604
 20
172.9074362314551
 30
0.0
 10
183.0898557775604
 20
172.9074362314551
 30
0.0
 10
185.2706691378488
 20
175.0882495917434
 30
0.0
 10
185.2706691378488
 20
175.0882495917434
 30
0.0
  0
SPLINE
  5
175
330
16F
100
AcDbEntity
  8
COTAS
 62
    18
420
        0
370
     9
100
AcDbSpline
210
0.0
220
0.0
230
1.0
 70
    24
 71
     3
 72
     8
 73
     4
 74
     0
 42
0.0000000001
 43
0.0000000001
 40
0.0
 40
0.0
 40
0.0
 40
0.0
 40
1.0
 40
1.0
 40
1.0
 40
1.0
 10
178.8339250357867
 20
172.8980609502607
 30
0.0
 10
178.8339250357867
 20
172.8980609502607
 30
0.0
 10
183.5441062913325
 20
177.6082422058065
 30
0.0
 10
183.5441062913325
 20
177.6082422058065
 30
0.0
  0
SPLINE
  5
176
330
16F
100
AcDbEntity
  8
COTAS
 62
    18
420
        0
370
     9
100
AcDbSpline
210
0.0
220
0.0
230
1.0
 70
    24
 71
     3
 72
     8
 73
     4
 74
     0
 42
0.0000000001
 43
0.0000000001
 40
0.0
 40
0.0
 40
0.0
 40
0.0
 40
1.0
 40
1.0
 40
1.0
 40
1.0
 10
174.5873695752067
 20
172.8980609502607
 30
0.0
 10
174.5873695752067
 20
172.8980609502607
 30
0.0
 10
179.3917986357841
 20
177.7024900108374
 30
0.0
 10
179.3917986357841
 20
177.7024900108374
 30
0.0
  0
SPLINE
  5
177
330
16F
100
AcDbEntity
  8
COTAS
 62
    18
420
        0
370
     9
100
AcDbSpline
210
0.0
220
0.0
230
1.0
 70
    24
 71
     3
 72
     8
 73
     4
 74
     0
 42
0.0000000001
 43
0.0000000001
 40
0.0
 40
0.0
 40
0.0
 40
0.0
 40
1.0
 40
1.0
 40
1.0
 40
1.0
 10
170.3408141146273
 20
172.8980609502607
 30
0.0
 10
170.3408141146273
 20
172.8980609502607
 30
0.0
 10
175.1452431752047
 20
177.7024900108374
 30
0.0
 10
175.1452431752047
 20
177.7024900108374
 30
0.0
  0
SPLINE
  5
178
330
16F
100
AcDbEntity
  8
COTAS
 62
    18
420
        0
370
     9
100
AcDbSpline
210
0.0
220
0.0
230
1.0
 70
    24
 71
     3
 72
     8
 73
     4
 74
     0
 42
0.0000000001
 43
0.0000000001
 40
0.0
 40
0.0
 40
0.0
 40
0.0
 40
1.0
 40
1.0
 40
1.0
 40
1.0
 10
166.094258654048
 20
172.8980609502607
 30
0.0
 10
166.094258654048
 20
172.8980609502607
 30
0.0
 10
170.8986877146247
 20
177.7024900108374
 30
0.0
 10
170.8986877146247
 20
177.7024900108374
 30
0.0
  0
SPLINE
  5
179
330
16F
100
AcDbEntity
  8
COTAS
 62
    18
420
        0
370
     9
100
AcDbSpline
210
0.0
220
0.0
230
1.0
 70
    24
 71
     3
 72
     8
 73
     4
 74
     0
 42
0.0000000001
 43
0.0000000001
 40
0.0
 40
0.0
 40
0.0
 40
0.0
 40
1.0
 40
1.0
 40
1.0
 40
1.0
 10
161.8477031934686
 20
172.8980609502607
 30
0.0
 10
161.8477031934686
 20
172.8980609502607
 30
0.0
 10
166.6521322540454
 20
177.7024900108374
 30
0.0
 10
166.6521322540454
 20
177.7024900108374
 30
0.0
  0
SPLINE
  5
17A
330
16F
100
AcDbEntity
  8
COTAS
 62
    18
420
        0
370
     9
100
AcDbSpline
210
0.0
220
0.0
230
1.0
 70
    24
 71
     3
 72
     8
 73
     4
 74
     0
 42
0.0000000001
 43
0.0000000001
 40
0.0
 40
0.0
 40
0.0
 40
0.0
 40
1.0
 40
1.0
 40
1.0
 40
1.0
 10
157.6011477328892
 20
172.8980609502607
 30
0.0
 10
157.6011477328892
 20
172.8980609502607
 30
0.0
 10
162.405576793466
 20
177.7024900108374
 30
0.0
 10
162.405576793466
 20
177.7024900108374
 30
0.0
  0
SPLINE
  5
17B
330
16F
100
AcDbEntity
  8
COTAS
 62
    18
420
        0
370
     9
100
AcDbSpline
210
0.0
220
0.0
230
1.0
 70
    24
 71
     3
 72
     8
 73
     4
 74
     0
 42
0.0000000001
 43
0.0000000001
 40
0.0
 40
0.0
 40
0.0
 40
0.0
 40
1.0
 40
1.0
 40
1.0
 40
1.0
 10
153.3545922723092
 20
172.8980609502607
 30
0.0
 10
153.3545922723092
 20
172.8980609502607
 30
0.0
 10
158.1590213328866
 20
177.7024900108374
 30
0.0
 10
158.1590213328866
 20
177.7024900108374
 30
0.0
  0
SPLINE
  5
17C
330
16F
100
AcDbEntity
  8
COTAS
 62
    18
420
        0
370
     9
100
AcDbSpline
210
0.0
220
0.0
230
1.0
 70
    24
 71
     3
 72
     8
 73
     4
 74
     0
 42
0.0000000001
 43
0.0000000001
 40
0.0
 40
0.0
 40
0.0
 40
0.0
 40
1.0
 40
1.0
 40
1.0
 40
1.0
 10
149.1080368117299
 20
172.8980609502607
 30
0.0
 10
149.1080368117299
 20
172.8980609502607
 30
0.0
 10
153.9124658723073
 20
177.7024900108374
 30
0.0
 10
153.9124658723073
 20
177.7024900108374
 30
0.0
  0
SPLINE
  5
17D
330
16F
100
AcDbEntity
  8
COTAS
 62
    18
420
        0
370
     9
100
AcDbSpline
210
0.0
220
0.0
230
1.0
 70
    24
 71
     3
 72
     8
 73
     4
 74
     0
 42
0.0000000001
 43
0.0000000001
 40
0.0
 40
0.0
 40
0.0
 40
0.0
 40
1.0
 40
1.0
 40
1.0
 40
1.0
 10
144.8614813511505
 20
172.8980609502607
 30
0.0
 10
144.8614813511505
 20
172.8980609502607
 30
0.0
 10
149.6659104117273
 20
177.7024900108374
 30
0.0
 10
149.6659104117273
 20
177.7024900108374
 30
0.0
  0
SPLINE
  5
17E
330
16F
100
AcDbEntity
  8
COTAS
 62
    18
420
        0
370
     9
100
AcDbSpline
210
0.0
220
0.0
230
1.0
 70
    24
 71
     3
 72
     8
 73
     4
 74
     0
 42
0.0000000001
 43
0.0000000001
 40
0.0
 40
0.0
 40
0.0
 40
0.0
 40
1.0
 40
1.0
 40
1.0
 40
1.0
 10
140.6149258905712
 20
172.8980609502607
 30
0.0
 10
140.6149258905712
 20
172.8980609502607
 30
0.0
 10
145.4193549511479
 20
177.7024900108374
 30
0.0
 10
145.4193549511479
 20
177.7024900108374
 30
0.0
  0
SPLINE
  5
17F
330
16F
100
AcDbEntity
  8
COTAS
 62
    18
420
        0
370
     9
100
AcDbSpline
210
0.0
220
0.0
230
1.0
 70
    24
 71
     3
 72
     8
 73
     4
 74
     0
 42
0.0000000001
 43
0.0000000001
 40
0.0
 40
0.0
 40
0.0
 40
0.0
 40
1.0
 40
1.0
 40
1.0
 40
1.0
 10
136.4742805092657
 20
173.0039710295346
 30
0.0
 10
136.4742805092657
 20
173.0039710295346
 30
0.0
 10
141.1727994905685
 20
177.7024900108374
 30
0.0
 10
141.1727994905685
 20
177.7024900108374
 30
0.0
  0
SPLINE
  5
180
330
16F
100
AcDbEntity
  8
COTAS
 62
    18
420
        0
370
     9
100
AcDbSpline
210
0.0
220
0.0
230
1.0
 70
    24
 71
     3
 72
     8
 73
     4
 74
     0
 42
0.0000000001
 43
0.0000000001
 40
0.0
 40
0.0
 40
0.0
 40
0.0
 40
1.0
 40
1.0
 40
1.0
 40
1.0
 10
134.7925421633461
 20
175.5687881441943
 30
0.0
 10
134.7925421633461
 20
175.5687881441943
 30
0.0
 10
136.9111900722197
 20
177.6874360530683
 30
0.0
 10
136.9111900722197
 20
177.6874360530683
 30
0.0
  0
ENDBLK
  5
172
330
16F
100
AcDbEntity
  8
0
100
AcDbBlockEnd
  0
BLOCK
  5
184
330
182
100
AcDbEntity
  8
0
100
AcDbBlockBegin
  2
Block_10
 70
     0
 10
0.0
 20
0.0
 30
0.0
  3
Block_10
  1

  0
LINE
  5
186
330
182
100
AcDbEntity
  8
COTAS
 62
    18
420
        0
370
     9
100
AcDbLine
 10
151.3807887021025
 20
213.255265059106
 30
0.0
 11
151.3807887021025
 21
225.1869758796513
 31
0.0
  0
LINE
  5
187
330
182
100
AcDbEntity
  8
COTAS
 62
    18
420
        0
370
     9
100
AcDbLine
 10
168.676733320179
 20
213.255265059106
 30
0.0
 11
168.676733320179
 21
225.1869758796513
 31
0.0
  0
LINE
  5
188
330
182
100
AcDbEntity
  8
COTAS
 62
    18
420
        0
370
     9
100
AcDbLine
 10
153.7830032323909
 20
223.2652042554205
 30
0.0
 11
166.2745187898906
 21
223.2652042554205
 31
0.0
  0
LWPOLYLINE
  5
189
330
182
100
AcDbEntity
  8
COTAS
100
AcDbPolyline
 90
        4
 70
     1
 43
0.0
 10
153.7830032323909
 20
223.6655733438018
 10
153.7830032323909
 20
222.8648351670392
 10
151.3807887021025
 20
223.2652042554205
 10
151.3807887021025
 20
223.2652042554205
  0
HATCH
  5
18A
330
182
100
AcDbEntity
  8
COTAS
 62
    18
420
        0
440
 33554687
100
AcDbHatch
 10
0.0
 20
0.0
 30
0.0
210
0.0
220
0.0
230
1.0
  2
SOLID
 70
     1
 71
     1
 91
        1
 92
        1
 93
        3
 72
     1
 10
153.7830032323909
 20
223.6655733438018
 11
153.7830032323909
 21
222.8648351670392
 72
     1
 10
153.7830032323909
 20
222.8648351670392
 11
151.3807887021025
 21
223.2652042554205
 72
     1
 10
151.3807887021025
 20
223.2652042554205
 11
153.7830032323909
 21
223.6655733438018
 97
        1
330
189
 75
     2
 76
     1
 98
        1
 10
0.0
 20
0.0
450
        0
451
        0
460
0.0
461
0.0
452
        0
462
0.0
453
        0
470

  0
LWPOLYLINE
  5
18B
330
182
100
AcDbEntity
  8
COTAS
100
AcDbPolyline
 90
        4
 70
     1
 43
0.0
 10
166.2745187898906
 20
223.6655733438018
 10
166.2745187898906
 20
222.8648351670392
 10
168.676733320179
 20
223.2652042554205
 10
168.676733320179
 20
223.2652042554205
  0
HATCH
  5
18C
330
182
100
AcDbEntity
  8
COTAS
 62
    18
420
        0
440
 33554687
100
AcDbHatch
 10
0.0
 20
0.0
 30
0.0
210
0.0
220
0.0
230
1.0
  2
SOLID
 70
     1
 71
     1
 91
        1
 92
        1
 93
        3
 72
     1
 10
166.2745187898906
 20
223.6655733438018
 11
166.2745187898906
 21
222.8648351670392
 72
     1
 10
166.2745187898906
 20
222.8648351670392
 11
168.676733320179
 21
223.2652042554205
 72
     1
 10
168.676733320179
 20
223.2652042554205
 11
166.2745187898906
 21
223.6655733438018
 97
        1
330
18B
 75
     2
 76
     1
 98
        1
 10
0.0
 20
0.0
450
        0
451
        0
460
0.0
461
0.0
452
        0
462
0.0
453
        0
470

  0
MTEXT
  5
18D
330
182
100
AcDbEntity
  8
COTAS
100
AcDbMText
 10
157.3782382995497
 20
224.2261067147768
 30
0.0
 40
0.2
 41
0.0
 46
0.0
 71
     7
 72
     1
  1
\C18;\c0;\FArial Bold|b1|i0|c1;\H2.497667;\W1.000000;180
 73
     1
 44
1.0
  0
ENDBLK
  5
185
330
182
100
AcDbEntity
  8
0
100
AcDbBlockEnd
  0
BLOCK
  5
190
330
18E
100
AcDbEntity
  8
0
100
AcDbBlockBegin
  2
Block_11
 70
     0
 10
0.0
 20
0.0
 30
0.0
  3
Block_11
  1

  0
LINE
  5
192
330
18E
100
AcDbEntity
  8
COTAS
 62
    18
420
        0
370
     9
100
AcDbLine
 10
170.5985049444095
 20
208.4508359985293
 30
0.0
 11
182.9185988079343
 21
208.4508359985293
 31
0.0
  0
LINE
  5
193
330
18E
100
AcDbEntity
  8
COTAS
 62
    18
420
        0
370
     9
100
AcDbLine
 10
161.9505326353712
 20
177.7024900108374
 30
0.0
 11
182.9185988079343
 21
177.7024900108374
 31
0.0
  0
LINE
  5
194
330
18E
100
AcDbEntity
  8
COTAS
 62
    18
420
        0
370
     9
100
AcDbLine
 10
180.9968271837032
 20
206.0486214682406
 30
0.0
 11
180.9968271837032
 21
180.1047045411258
 31
0.0
  0
LWPOLYLINE
  5
195
330
18E
100
AcDbEntity
  8
COTAS
100
AcDbPolyline
 90
        4
 70
     1
 43
0.0
 10
180.5964580953219
 20
206.0486214682406
 10
181.3971962720845
 20
206.0486214682406
 10
180.9968271837032
 20
208.4508359985293
 10
180.9968271837032
 20
208.4508359985293
  0
HATCH
  5
196
330
18E
100
AcDbEntity
  8
COTAS
 62
    18
420
        0
440
 33554687
100
AcDbHatch
 10
0.0
 20
0.0
 30
0.0
210
0.0
220
0.0
230
1.0
  2
SOLID
 70
     1
 71
     1
 91
        1
 92
        1
 93
        3
 72
     1
 10
180.5964580953219
 20
206.0486214682406
 11
181.3971962720845
 21
206.0486214682406
 72
     1
 10
181.3971962720845
 20
206.0486214682406
 11
180.9968271837032
 21
208.4508359985293
 72
     1
 10
180.9968271837032
 20
208.4508359985293
 11
180.5964580953219
 21
206.0486214682406
 97
        1
330
195
 75
     2
 76
     1
 98
        1
 10
0.0
 20
0.0
450
        0
451
        0
460
0.0
461
0.0
452
        0
462
0.0
453
        0
470

  0
LWPOLYLINE
  5
197
330
18E
100
AcDbEntity
  8
COTAS
100
AcDbPolyline
 90
        4
 70
     1
 43
0.0
 10
180.5964580953219
 20
180.1047045411258
 10
181.3971962720845
 20
180.1047045411258
 10
180.9968271837032
 20
177.7024900108374
 10
180.9968271837032
 20
177.7024900108374
  0
HATCH
  5
198
330
18E
100
AcDbEntity
  8
COTAS
 62
    18
420
        0
440
 33554687
100
AcDbHatch
 10
0.0
 20
0.0
 30
0.0
210
0.0
220
0.0
230
1.0
  2
SOLID
 70
     1
 71
     1
 91
        1
 92
        1
 93
        3
 72
     1
 10
180.5964580953219
 20
180.1047045411258
 11
181.3971962720845
 21
180.1047045411258
 72
     1
 10
181.3971962720845
 20
180.1047045411258
 11
180.9968271837032
 21
177.7024900108374
 72
     1
 10
180.9968271837032
 20
177.7024900108374
 11
180.5964580953219
 21
180.1047045411258
 97
        1
330
197
 75
     2
 76
     1
 98
        1
 10
0.0
 20
0.0
450
        0
451
        0
460
0.0
461
0.0
452
        0
462
0.0
453
        0
470

  0
MTEXT
  5
199
330
18E
100
AcDbEntity
  8
COTAS
100
AcDbMText
 10
180.0357054366262
 20
190.0738416408493
 30
0.0
 40
0.2
 41
0.0
 46
0.0
 71
     7
 72
     1
  1
\C18;\c0;\FArial Bold|b1|i0|c1;\H2.497667;\W1.000000;320
 11
0.0000000000000001
 21
1.0
 31
0.0
 73
     1
 44
1.0
  0
ENDBLK
  5
191
330
18E
100
AcDbEntity
  8
0
100
AcDbBlockEnd
  0
BLOCK
  5
19C
330
19A
100
AcDbEntity
  8
0
100
AcDbBlockBegin
  2
Block_12
 70
     0
 10
0.0
 20
0.0
 30
0.0
  3
Block_12
  1

  0
LINE
  5
19E
330
19A
100
AcDbEntity
  8
COTAS
 62
    18
420
        0
370
     9
100
AcDbLine
 10
161.9505326353712
 20
211.8139363409329
 30
0.0
 11
190.6146812971076
 21
211.8139363409329
 31
0.0
  0
LINE
  5
19F
330
19A
100
AcDbEntity
  8
COTAS
 62
    18
420
        0
370
     9
100
AcDbLine
 10
161.9505326353712
 20
177.7024900108374
 30
0.0
 11
190.6146812971076
 21
177.7024900108374
 31
0.0
  0
LINE
  5
1A0
330
19A
100
AcDbEntity
  8
COTAS
 62
    18
420
        0
370
     9
100
AcDbLine
 10
188.6929096728772
 20
209.4117218106445
 30
0.0
 11
188.6929096728772
 21
180.1047045411258
 31
0.0
  0
LWPOLYLINE
  5
1A1
330
19A
100
AcDbEntity
  8
COTAS
100
AcDbPolyline
 90
        4
 70
     1
 43
0.0
 10
188.2925405844959
 20
209.4117218106445
 10
189.0932787612585
 20
209.4117218106445
 10
188.6929096728772
 20
211.8139363409329
 10
188.6929096728772
 20
211.8139363409329
  0
HATCH
  5
1A2
330
19A
100
AcDbEntity
  8
COTAS
 62
    18
420
        0
440
 33554687
100
AcDbHatch
 10
0.0
 20
0.0
 30
0.0
210
0.0
220
0.0
230
1.0
  2
SOLID
 70
     1
 71
     1
 91
        1
 92
        1
 93
        3
 72
     1
 10
188.2925405844959
 20
209.4117218106445
 11
189.0932787612585
 21
209.4117218106445
 72
     1
 10
189.0932787612585
 20
209.4117218106445
 11
188.6929096728772
 21
211.8139363409329
 72
     1
 10
188.6929096728772
 20
211.8139363409329
 11
188.2925405844959
 21
209.4117218106445
 97
        1
330
1A1
 75
     2
 76
     1
 98
        1
 10
0.0
 20
0.0
450
        0
451
        0
460
0.0
461
0.0
452
        0
462
0.0
453
        0
470

  0
LWPOLYLINE
  5
1A3
330
19A
100
AcDbEntity
  8
COTAS
100
AcDbPolyline
 90
        4
 70
     1
 43
0.0
 10
188.2925405844959
 20
180.1047045411258
 10
189.0932787612585
 20
180.1047045411258
 10
188.6929096728772
 20
177.7024900108374
 10
188.6929096728772
 20
177.7024900108374
  0
HATCH
  5
1A4
330
19A
100
AcDbEntity
  8
COTAS
 62
    18
420
        0
440
 33554687
100
AcDbHatch
 10
0.0
 20
0.0
 30
0.0
210
0.0
220
0.0
230
1.0
  2
SOLID
 70
     1
 71
     1
 91
        1
 92
        1
 93
        3
 72
     1
 10
188.2925405844959
 20
180.1047045411258
 11
189.0932787612585
 21
180.1047045411258
 72
     1
 10
189.0932787612585
 20
180.1047045411258
 11
188.6929096728772
 21
177.7024900108374
 72
     1
 10
188.6929096728772
 20
177.7024900108374
 11
188.2925405844959
 21
180.1047045411258
 97
        1
330
1A3
 75
     2
 76
     1
 98
        1
 10
0.0
 20
0.0
450
        0
451
        0
460
0.0
461
0.0
452
        0
462
0.0
453
        0
470

  0
MTEXT
  5
1A5
330
19A
100
AcDbEntity
  8
COTAS
100
AcDbMText
 10
187.7320218358659
 20
191.5552326995067
 30
0.0
 40
0.2
 41
0.0
 46
0.0
 71
     7
 72
     1
  1
\C18;\c0;\FArial Bold|b1|i0|c1;\H2.497667;\W1.000000;355
 11
0.0000000000000001
 21
1.0
 31
0.0
 73
     1
 44
1.0
  0
ENDBLK
  5
19D
330
19A
100
AcDbEntity
  8
0
100
AcDbBlockEnd
  0
ENDSEC
  0
SECTION
  2
ENTITIES
  0
LINE
  5
79
330
70
100
AcDbEntity
  8
CAJETIN
 62
    18
420
        0
370
     9
100
AcDbLine
 10
160.0287610111408
 20
187.9969854058269
 30
0.0
 11
160.0287610111408
 21
181.142376822532
 31
0.0
  0
LINE
  5
7A
330
70
100
AcDbEntity
  8
CAJETIN
 62
    18
420
        0
370
     9
100
AcDbLine
 10
164.6999402421084
 20
187.9969851309239
 30
0.0
 11
164.6578685385657
 21
186.9811524405503
 31
0.0
  0
SPLINE
  5
7E
330
70
100
AcDbEntity
  8
0
 62
    18
420
        0
370
     9
100
AcDbSpline
210
0.0
220
0.0
230
1.0
 70
     8
 71
     3
 72
    20
 73
    16
 74
     0
 42
0.0000000001
 43
0.0000000001
 40
0.0
 40
0.0
 40
0.0
 40
0.0
 40
1.0
 40
1.0
 40
1.0
 40
2.0
 40
2.0
 40
2.0
 40
3.0
 40
3.0
 40
3.0
 40
4.0
 40
4.0
 40
4.0
 40
5.0
 40
5.0
 40
5.0
 40
5.0
 10
71.58402735918331
 20
113.0392961641667
 30
0.0
 10
71.43244927832405
 20
113.0375590051975
 30
0.0
 10
71.28145969652045
 20
113.043945322719
 30
0.0
 10
71.13106723881365
 20
113.0585730511852
 30
0.0
 10
70.98067478110656
 20
113.0732007796501
 30
0.0
 10
70.83051605007264
 20
113.0961494940528
 30
0.0
 10
70.68245123868459
 20
113.1272187311401
 30
0.0
 10
70.60841883299073
 20
113.1427533496831
 30
0.0
 10
70.53484765617287
 20
113.1603117934137
 30
0.0
 10
70.46174335925861
 20
113.1799191822451
 30
0.0
 10
70.38863906234434
 20
113.1995265710765
 30
0.0
 10
70.31592320276998
 20
113.221188349548
 30
0.0
 10
70.24400536874452
 20
113.2447997341485
 30
0.0
 10
70.1001697006936
 20
113.2920225033495
 30
0.0
 10
69.95926423277444
 20
113.3470466918748
 30
0.0
 10
69.8213108323847
 20
113.409930280373
 30
0.0
  0
SPLINE
  5
7F
330
70
100
AcDbEntity
  8
0
 62
    18
420
        0
370
     9
100
AcDbSpline
210
0.0
220
0.0
230
1.0
 70
     8
 71
     3
 72
     8
 73
     4
 74
     0
 42
0.0000000001
 43
0.0000000001
 40
0.0
 40
0.0
 40
0.0
 40
0.0
 40
1.0
 40
1.0
 40
1.0
 40
1.0
 10
71.59251242498132
 20
113.0399704929003
 30
0.0
 10
71.58968083458758
 20
113.0397702642292
 30
0.0
 10
71.58685209075056
 20
113.0395412957422
 30
0.0
 10
71.5840273507116
 20
113.0392844269433
 30
0.0
  0
SPLINE
  5
80
330
70
100
AcDbEntity
  8
0
 62
    18
420
        0
370
     9
100
AcDbSpline
210
0.0
220
0.0
230
1.0
 70
     8
 71
     3
 72
     8
 73
     4
 74
     0
 42
0.0000000001
 43
0.0000000001
 40
0.0
 40
0.0
 40
0.0
 40
0.0
 40
1.0
 40
1.0
 40
1.0
 40
1.0
 10
71.592512424981
 20
137.3470701082385
 30
0.0
 10
71.58968083458725
 20
137.3472703369095
 30
0.0
 10
71.58685209075056
 20
137.3474993053966
 30
0.0
 10
71.58402735071127
 20
137.3477561741955
 30
0.0
  0
SPLINE
  5
81
330
70
100
AcDbEntity
  8
0
 62
    18
420
        0
370
     9
100
AcDbSpline
210
0.0
220
0.0
230
1.0
 70
     8
 71
     3
 72
    20
 73
    16
 74
     0
 42
0.0000000001
 43
0.0000000001
 40
0.0
 40
0.0
 40
0.0
 40
0.0
 40
1.0
 40
1.0
 40
1.0
 40
2.0
 40
2.0
 40
2.0
 40
3.0
 40
3.0
 40
3.0
 40
4.0
 40
4.0
 40
4.0
 40
5.0
 40
5.0
 40
5.0
 40
5.0
 10
71.58402735918298
 20
137.347744436972
 30
0.0
 10
71.43244927832374
 20
137.3494815959413
 30
0.0
 10
71.28145969652045
 20
137.3430952784197
 30
0.0
 10
71.13106723881334
 20
137.3284675499535
 30
0.0
 10
70.98067478110656
 20
137.3138398214886
 30
0.0
 10
70.830516050072
 20
137.2908911070859
 30
0.0
 10
70.68245123868428
 20
137.2598218699986
 30
0.0
 10
70.60841883299042
 20
137.2442872514556
 30
0.0
 10
70.53484765617287
 20
137.2267288077251
 30
0.0
 10
70.46174335925828
 20
137.2071214188936
 30
0.0
 10
70.38863906234403
 20
137.1875140300622
 30
0.0
 10
70.31592320276967
 20
137.1658522515907
 30
0.0
 10
70.2440053687442
 20
137.1422408669902
 30
0.0
 10
70.1001697006936
 20
137.0950180977892
 30
0.0
 10
69.95926423277413
 20
137.039993909264
 30
0.0
 10
69.8213108323847
 20
136.9771103207658
 30
0.0
  0
LINE
  5
82
330
70
100
AcDbEntity
  8
0
 62
    18
420
        0
370
     9
100
AcDbLine
 10
69.82146234728076
 20
113.4102589471923
 30
0.0
 11
69.81886079232189
 21
113.4115961715295
 31
0.0
  0
LINE
  5
83
330
70
100
AcDbEntity
  8
0
 62
    18
420
        0
370
     9
100
AcDbLine
 10
69.82146234728045
 20
136.9767816539464
 30
0.0
 11
69.81886079232157
 21
136.9754444296093
 31
0.0
  0
LINE
  5
84
330
70
100
AcDbEntity
  8
0
 62
    18
420
        0
370
     9
100
AcDbLine
 10
72.64205871843151
 20
136.2736112296063
 30
0.0
 11
85.31757477260782
 21
136.340471465048
 31
0.0
  0
SPLINE
  5
85
330
70
100
AcDbEntity
  8
0
 62
    18
420
        0
370
     9
100
AcDbSpline
210
0.0
220
0.0
230
1.0
 70
     8
 71
     3
 72
    89
 73
    85
 74
     0
 42
0.0000000001
 43
0.0000000001
 40
0.0
 40
0.0
 40
0.0
 40
0.0
 40
1.0
 40
1.0
 40
1.0
 40
2.0
 40
2.0
 40
2.0
 40
3.0
 40
3.0
 40
3.0
 40
4.0
 40
4.0
 40
4.0
 40
5.0
 40
5.0
 40
5.0
 40
6.0
 40
6.0
 40
6.0
 40
7.0
 40
7.0
 40
7.0
 40
8.0
 40
8.0
 40
8.0
 40
9.0
 40
9.0
 40
9.0
 40
10.0
 40
10.0
 40
10.0
 40
11.0
 40
11.0
 40
11.0
 40
12.0
 40
12.0
 40
12.0
 40
13.0
 40
13.0
 40
13.0
 40
14.0
 40
14.0
 40
14.0
 40
15.0
 40
15.0
 40
15.0
 40
16.0
 40
16.0
 40
16.0
 40
17.0
 40
17.0
 40
17.0
 40
18.0
 40
18.0
 40
18.0
 40
19.0
 40
19.0
 40
19.0
 40
20.0
 40
20.0
 40
20.0
 40
21.0
 40
21.0
 40
21.0
 40
22.0
 40
22.0
 40
22.0
 40
23.0
 40
23.0
 40
23.0
 40
24.0
 40
24.0
 40
24.0
 40
25.0
 40
25.0
 40
25.0
 40
26.0
 40
26.0
 40
26.0
 40
27.0
 40
27.0
 40
27.0
 40
28.0
 40
28.0
 40
28.0
 40
28.0
 10
85.31757477260782
 20
136.340471465048
 30
0.0
 10
85.32898139937556
 20
136.340553574959
 30
0.0
 10
85.3406548620279
 20
136.340619591597
 30
0.0
 10
85.35219097793076
 20
136.3406666280083
 30
0.0
 10
85.36372709383329
 20
136.3407136644183
 30
0.0
 10
85.37526056934352
 20
136.3407426932118
 30
0.0
 10
85.38679140896137
 20
136.3407537453612
 30
0.0
 10
85.40985308819706
 20
136.34077584966
 30
0.0
 10
85.43290422386418
 20
136.340726047386
 30
0.0
 10
85.45594485048807
 20
136.3406045761706
 30
0.0
 10
85.50202610373549
 20
136.3403616337386
 30
0.0
 10
85.54806532080993
 20
136.3398320155411
 30
0.0
 10
85.59406276563997
 20
136.3390175380702
 30
0.0
 10
85.68605765529973
 20
136.3373885831284
 30
0.0
 10
85.77788545598151
 20
136.3346201910931
 30
0.0
 10
85.86954787885735
 20
136.3307241406787
 30
0.0
 10
86.05287272460898
 20
136.3229320398512
 30
0.0
 10
86.23553646447041
 20
136.3106320887012
 30
0.0
 10
86.4175476926405
 20
136.2938835018799
 30
0.0
 10
86.78157014898035
 20
136.2603863282348
 30
0.0
 10
87.14298836789412
 20
136.2091355072023
 30
0.0
 10
87.50179636619888
 20
136.1400887136692
 30
0.0
 10
87.86060436450362
 20
136.0710419201361
 30
0.0
 10
88.21680583006397
 20
135.9842176581601
 30
0.0
 10
88.57033831315289
 20
135.8791963175784
 30
0.0
 10
88.65872143392499
 20
135.852940982434
 30
0.0
 10
88.74698242009095
 20
135.8255266692616
 30
0.0
 10
88.83461100887547
 20
135.7971144198327
 30
0.0
 10
88.92223959765997
 20
135.7687021704038
 30
0.0
 10
89.00934907663952
 20
135.7392599086348
 30
0.0
 10
89.09594430775756
 20
135.7087972909448
 30
0.0
 10
89.26913476999395
 20
135.6478720555637
 30
0.0
 10
89.44026875420036
 20
135.5828665937903
 30
0.0
 10
89.6093721354804
 20
135.513831650435
 30
0.0
 10
89.94757889804084
 20
135.3757617637219
 30
0.0
 10
90.27769381581824
 20
135.2216343403853
 30
0.0
 10
90.59981506711684
 20
135.0516458759478
 30
0.0
 10
90.92193631841544
 20
134.8816574115104
 30
0.0
 10
91.23606149064251
 20
134.6958035147229
 30
0.0
 10
91.54198018112353
 20
134.4936656565802
 30
0.0
 10
91.6949395263637
 20
134.3925967275095
 30
0.0
 10
91.84584646850012
 20
134.2874550359175
 30
0.0
 10
91.9946630699089
 20
134.1781655537634
 30
0.0
 10
92.14347967131766
 20
134.0688760716106
 30
0.0
 10
92.28923539977378
 20
133.9561405341487
 30
0.0
 10
92.43156711666431
 20
133.8403485996371
 30
0.0
 10
92.71623055044603
 20
133.6087647306154
 30
0.0
 10
92.98778678341951
 20
133.3645689356973
 30
0.0
 10
93.24643158346866
 20
133.1079490974352
 30
0.0
 10
93.50507638351748
 20
132.8513292591731
 30
0.0
 10
93.75084020392264
 20
132.5823144573511
 30
0.0
 10
93.98366289415296
 20
132.3008474960634
 30
0.0
 10
94.10007423926796
 20
132.1601140154195
 30
0.0
 10
94.2132422604892
 20
132.0162597451667
 30
0.0
 10
94.32310972165886
 20
131.8692296303136
 30
0.0
 10
94.43297718282854
 20
131.7221995154605
 30
0.0
 10
94.53966312106345
 20
131.5718109910338
 30
0.0
 10
94.64270281241381
 20
131.4185474294932
 30
0.0
 10
94.8487821951145
 20
131.1120203064108
 30
0.0
 10
95.03788974172115
 20
130.7977680812682
 30
0.0
 10
95.21065380238153
 20
130.476077033899
 30
0.0
 10
95.38341786304162
 20
130.154385986531
 30
0.0
 10
95.53982854160214
 20
129.8252516354553
 30
0.0
 10
95.67985084380008
 20
129.4886578928649
 30
0.0
 10
95.81987314599803
 20
129.1520641502744
 30
0.0
 10
95.94354556447884
 20
128.8080285032137
 30
0.0
 10
96.05052861008067
 20
128.4563966533303
 30
0.0
 10
96.0772743714812
 20
128.3684886908597
 30
0.0
 10
96.10297365415725
 20
128.2801044196499
 30
0.0
 10
96.12761416154585
 20
128.1912382428327
 30
0.0
 10
96.15225466893445
 20
128.1023720660154
 30
0.0
 10
96.17585888462279
 20
128.0129267639249
 30
0.0
 10
96.19829071811336
 20
127.9233999056506
 30
0.0
 10
96.24315438509512
 20
127.7443461891009
 30
0.0
 10
96.28341488310553
 20
127.5646971960364
 30
0.0
 10
96.31911734987236
 20
127.3844587542139
 30
0.0
 10
96.39052228340634
 20
127.0239818705702
 30
0.0
 10
96.4437701847426
 20
126.66115691643
 30
0.0
 10
96.47903735708524
 20
126.2960067360521
 30
0.0
 10
96.49667094325643
 20
126.1134316458632
 30
0.0
 10
96.50979769894735
 20
125.9302737411294
 30
0.0
 10
96.51836928292274
 20
125.746526766353
 30
0.0
 10
96.52694086689812
 20
125.5627797915779
 30
0.0
 10
96.53095554378683
 20
125.3782830384168
 30
0.0
 10
96.53032197147719
 20
125.1935230985947
 30
0.0
  0
SPLINE
  5
86
330
70
100
AcDbEntity
  8
0
 62
    18
420
        0
370
     9
100
AcDbSpline
210
0.0
220
0.0
230
1.0
 70
     8
 71
     3
 72
    89
 73
    85
 74
     0
 42
0.0000000001
 43
0.0000000001
 40
0.0
 40
0.0
 40
0.0
 40
0.0
 40
1.0
 40
1.0
 40
1.0
 40
2.0
 40
2.0
 40
2.0
 40
3.0
 40
3.0
 40
3.0
 40
4.0
 40
4.0
 40
4.0
 40
5.0
 40
5.0
 40
5.0
 40
6.0
 40
6.0
 40
6.0
 40
7.0
 40
7.0
 40
7.0
 40
8.0
 40
8.0
 40
8.0
 40
9.0
 40
9.0
 40
9.0
 40
10.0
 40
10.0
 40
10.0
 40
11.0
 40
11.0
 40
11.0
 40
12.0
 40
12.0
 40
12.0
 40
13.0
 40
13.0
 40
13.0
 40
14.0
 40
14.0
 40
14.0
 40
15.0
 40
15.0
 40
15.0
 40
16.0
 40
16.0
 40
16.0
 40
17.0
 40
17.0
 40
17.0
 40
18.0
 40
18.0
 40
18.0
 40
19.0
 40
19.0
 40
19.0
 40
20.0
 40
20.0
 40
20.0
 40
21.0
 40
21.0
 40
21.0
 40
22.0
 40
22.0
 40
22.0
 40
23.0
 40
23.0
 40
23.0
 40
24.0
 40
24.0
 40
24.0
 40
25.0
 40
25.0
 40
25.0
 40
26.0
 40
26.0
 40
26.0
 40
27.0
 40
27.0
 40
27.0
 40
28.0
 40
28.0
 40
28.0
 40
28.0
 10
85.31757477260782
 20
114.0465691360907
 30
0.0
 10
85.32898139937586
 20
114.0464870261798
 30
0.0
 10
85.34065486202823
 20
114.0464210095417
 30
0.0
 10
85.35219097793076
 20
114.0463739731317
 30
0.0
 10
85.36372709383329
 20
114.0463269367205
 30
0.0
 10
85.37526056934352
 20
114.0462979079282
 30
0.0
 10
85.38679140896137
 20
114.0462868557775
 30
0.0
 10
85.4098530881974
 20
114.0462647514787
 30
0.0
 10
85.43290422386451
 20
114.0463145537527
 30
0.0
 10
85.45594485048807
 20
114.0464360249694
 30
0.0
 10
85.50202610373581
 20
114.0466789674001
 30
0.0
 10
85.54806532081025
 20
114.0472085855977
 30
0.0
 10
85.59406276564031
 20
114.0480230630686
 30
0.0
 10
85.68605765530005
 20
114.0496520180104
 30
0.0
 10
85.77788545598151
 20
114.0524204100457
 30
0.0
 10
85.86954787885735
 20
114.0563164604601
 30
0.0
 10
86.0528727246093
 20
114.0641085612876
 30
0.0
 10
86.23553646447073
 20
114.0764085124376
 30
0.0
 10
86.41754769264082
 20
114.0931570992602
 30
0.0
 10
86.78157014898067
 20
114.126654272904
 30
0.0
 10
87.14298836789444
 20
114.1779050939377
 30
0.0
 10
87.50179636619918
 20
114.2469518874695
 30
0.0
 10
87.86060436450396
 20
114.3159986810027
 30
0.0
 10
88.21680583006429
 20
114.4028229429799
 30
0.0
 10
88.57033831315323
 20
114.5078442835603
 30
0.0
 10
88.65872143392529
 20
114.534099618706
 30
0.0
 10
88.74698242009129
 20
114.5615139318771
 30
0.0
 10
88.83461100887579
 20
114.5899261813073
 30
0.0
 10
88.92223959766031
 20
114.6183384307362
 30
0.0
 10
89.00934907663984
 20
114.647780692504
 30
0.0
 10
89.09594430775788
 20
114.6782433101939
 30
0.0
 10
89.26913476999429
 20
114.739168545575
 30
0.0
 10
89.44026875420069
 20
114.8041740073485
 30
0.0
 10
89.60937213548074
 20
114.873208950705
 30
0.0
 10
89.94757889804118
 20
115.0112788374168
 30
0.0
 10
90.27769381581858
 20
115.1654062607535
 30
0.0
 10
90.59981506711684
 20
115.3353947251909
 30
0.0
 10
90.92193631841544
 20
115.5053831896284
 30
0.0
 10
91.23606149064285
 20
115.6912370864171
 30
0.0
 10
91.54198018112385
 20
115.8933749445585
 30
0.0
 10
91.69493952636404
 20
115.9944438736305
 30
0.0
 10
91.84584646850046
 20
116.0995855652213
 30
0.0
 10
91.99466306990922
 20
116.2088750473753
 30
0.0
 10
92.14347967131798
 20
116.3181645295281
 30
0.0
 10
92.28923539977378
 20
116.4309000669901
 30
0.0
 10
92.43156711666463
 20
116.5466920015016
 30
0.0
 10
92.71623055044603
 20
116.7782758705233
 30
0.0
 10
92.98778678341985
 20
117.0224716654414
 30
0.0
 10
93.246431583469
 20
117.2790915037035
 30
0.0
 10
93.50507638351812
 20
117.535711341967
 30
0.0
 10
93.75084020392264
 20
117.8047261437889
 30
0.0
 10
93.98366289415328
 20
118.0861931050767
 30
0.0
 10
94.1000742392686
 20
118.2269265857205
 30
0.0
 10
94.2132422604895
 20
118.3707808559734
 30
0.0
 10
94.32310972165886
 20
118.5178109708252
 30
0.0
 10
94.43297718282854
 20
118.6648410856783
 30
0.0
 10
94.53966312106345
 20
118.8152296101049
 30
0.0
 10
94.64270281241413
 20
118.9684931716468
 30
0.0
 10
94.84878219511482
 20
119.275020294728
 30
0.0
 10
95.03788974172149
 20
119.5892725198718
 30
0.0
 10
95.21065380238153
 20
119.9109635672398
 30
0.0
 10
95.38341786304162
 20
120.2326546146077
 30
0.0
 10
95.53982854160214
 20
120.5617889656835
 30
0.0
 10
95.67985084380008
 20
120.8983827082739
 30
0.0
 10
95.81987314599803
 20
121.2349764508656
 30
0.0
 10
95.94354556447916
 20
121.579012097925
 30
0.0
 10
96.05052861008097
 20
121.9306439478085
 30
0.0
 10
96.0772743714812
 20
122.0185519102803
 30
0.0
 10
96.10297365415725
 20
122.1069361814901
 30
0.0
 10
96.12761416154585
 20
122.1958023583073
 30
0.0
 10
96.15225466893445
 20
122.2846685351233
 30
0.0
 10
96.17585888462279
 20
122.3741138372151
 30
0.0
 10
96.19829071811336
 20
122.4636406954894
 30
0.0
 10
96.24315438509512
 20
122.6426944120379
 30
0.0
 10
96.28341488310553
 20
122.8223434051024
 30
0.0
 10
96.31911734987236
 20
123.0025818469249
 30
0.0
 10
96.39052228340634
 20
123.3630587305699
 30
0.0
 10
96.4437701847426
 20
123.72588368471
 30
0.0
 10
96.47903735708524
 20
124.0910338650866
 30
0.0
 10
96.49667094325643
 20
124.2736089552755
 30
0.0
 10
96.50979769894735
 20
124.4567668600093
 30
0.0
 10
96.51836928292274
 20
124.6405138347857
 30
0.0
 10
96.52694086689812
 20
124.8242608095621
 30
0.0
 10
96.53095554378683
 20
125.0087575627233
 30
0.0
 10
96.53032197147719
 20
125.1935175025453
 30
0.0
  0
LINE
  5
87
330
70
100
AcDbEntity
  8
0
 62
    18
420
        0
370
     9
100
AcDbLine
 10
72.64205871843183
 20
114.1134293715325
 30
0.0
 11
85.31757477260782
 21
114.0465691360907
 31
0.0
  0
SPLINE
  5
88
330
70
100
AcDbEntity
  8
0
 62
    18
420
        0
370
     9
100
AcDbSpline
210
0.0
220
0.0
230
1.0
 70
     8
 71
     3
 72
    35
 73
    31
 74
     0
 42
0.0000000001
 43
0.0000000001
 40
0.0
 40
0.0
 40
0.0
 40
0.0
 40
1.0
 40
1.0
 40
1.0
 40
2.0
 40
2.0
 40
2.0
 40
3.0
 40
3.0
 40
3.0
 40
4.0
 40
4.0
 40
4.0
 40
5.0
 40
5.0
 40
5.0
 40
6.0
 40
6.0
 40
6.0
 40
7.0
 40
7.0
 40
7.0
 40
8.0
 40
8.0
 40
8.0
 40
9.0
 40
9.0
 40
9.0
 40
10.0
 40
10.0
 40
10.0
 40
10.0
 10
71.4878426809189
 20
113.8016377978338
 30
0.0
 10
71.4878426809189
 20
113.8173816434254
 30
0.0
 10
71.49740451705504
 20
113.832842099459
 30
0.0
 10
71.51507956880648
 20
113.8480620995225
 30
0.0
 10
71.53275462055794
 20
113.8632820995859
 30
0.0
 10
71.55858211329643
 20
113.8782604811336
 30
0.0
 10
71.59179814317425
 20
113.8930198844176
 30
0.0
 10
71.62501417305239
 20
113.907779287703
 30
0.0
 10
71.66485099097478
 20
113.9219769776526
 30
0.0
 10
71.70990624106298
 20
113.9356698180224
 30
0.0
 10
71.75496149115116
 20
113.9493626583922
 30
0.0
 10
71.80530129634516
 20
113.9625683583599
 30
0.0
 10
71.85993878530253
 20
113.9753778896154
 30
0.0
 10
71.91457627425958
 20
113.9881874208697
 30
0.0
 10
71.97372803017987
 20
114.0006376127335
 30
0.0
 10
72.03564085360135
 20
114.012665532378
 30
0.0
 10
72.09755367702314
 20
114.0246934520238
 30
0.0
 10
72.16220412252617
 20
114.0363049328116
 30
0.0
 10
72.22867219353033
 20
114.0476399218621
 30
0.0
 10
72.29514026453447
 20
114.0589749109112
 30
0.0
 10
72.36342887280463
 20
114.0700329652954
 30
0.0
 10
72.43263153590362
 20
114.080951976401
 30
0.0
 10
72.46723286745297
 20
114.0864114819538
 30
0.0
 10
72.50206263826278
 20
114.0918362380111
 30
0.0
 10
72.5370068289303
 20
114.0972435888635
 30
0.0
 10
72.55447892426388
 20
114.0999472642892
 30
0.0
 10
72.57197962456197
 20
114.1026465884139
 30
0.0
 10
72.58949462359881
 20
114.1053437374587
 30
0.0
 10
72.60700962263562
 20
114.1080408865021
 30
0.0
 10
72.62463829226276
 20
114.110751135263
 30
0.0
 10
72.64205871843183
 20
114.1134293715325
 30
0.0
  0
LINE
  5
89
330
70
100
AcDbEntity
  8
0
 62
    18
420
        0
370
     9
100
AcDbLine
 10
71.4878426809189
 20
113.4014276020597
 30
0.0
 11
71.4878426809189
 21
113.8016377978338
 31
0.0
  0
SPLINE
  5
8A
330
70
100
AcDbEntity
  8
0
 62
    18
420
        0
370
     9
100
AcDbSpline
210
0.0
220
0.0
230
1.0
 70
     8
 71
     3
 72
    26
 73
    22
 74
     0
 42
0.0000000001
 43
0.0000000001
 40
0.0
 40
0.0
 40
0.0
 40
0.0
 40
1.0
 40
1.0
 40
1.0
 40
2.0
 40
2.0
 40
2.0
 40
3.0
 40
3.0
 40
3.0
 40
4.0
 40
4.0
 40
4.0
 40
5.0
 40
5.0
 40
5.0
 40
6.0
 40
6.0
 40
6.0
 40
7.0
 40
7.0
 40
7.0
 40
7.0
 10
72.64205871843151
 20
136.2736112296063
 30
0.0
 10
72.64178494037874
 20
136.2737414896754
 30
0.0
 10
72.64151116232629
 20
136.2738717497433
 30
0.0
 10
72.64123738008227
 20
136.2740024232733
 30
0.0
 10
72.58688241724955
 20
136.2999455038752
 30
0.0
 10
72.53236224833369
 20
136.3421853710977
 30
0.0
 10
72.47771906263245
 20
136.3981564197495
 30
0.0
 10
72.42140324597539
 20
136.4558407453163
 30
0.0
 10
72.36495676616751
 20
136.5281097425489
 30
0.0
 10
72.30959062069389
 20
136.6090419278837
 30
0.0
 10
72.27413400816345
 20
136.6608710937396
 30
0.0
 10
72.23912045720324
 20
136.7162531650293
 30
0.0
 10
72.20669687309871
 20
136.7730728463315
 30
0.0
 10
72.17419348060423
 20
136.8300323853131
 30
0.0
 10
72.14429282070219
 20
136.8884366201714
 30
0.0
 10
72.11826895610214
 20
136.9466746848815
 30
0.0
 10
72.10225377505565
 20
136.9825146019919
 30
0.0
 10
72.08770682029274
 20
137.0182915868701
 30
0.0
 10
72.08031399874549
 20
137.0525538362093
 30
0.0
 10
72.07670143502564
 20
137.0692963692367
 30
0.0
 10
72.07479718494706
 20
137.0856772031859
 30
0.0
 10
72.07289293486879
 20
137.102058037135
 30
0.0
  0
SPLINE
  5
8B
330
70
100
AcDbEntity
  8
0
 62
    18
420
        0
370
     9
100
AcDbSpline
210
0.0
220
0.0
230
1.0
 70
    24
 71
     3
 72
     8
 73
     4
 74
     0
 42
0.0000000001
 43
0.0000000001
 40
0.0
 40
0.0
 40
0.0
 40
0.0
 40
1.0
 40
1.0
 40
1.0
 40
1.0
 10
56.70051751581628
 20
205.6749367331082
 30
0.0
 10
56.70051751581628
 20
205.4753727892882
 30
0.0
 10
56.70051751581628
 20
205.2699150316748
 30
0.0
 10
56.70051751581628
 20
205.0585634594726
 30
0.0
  0
SPLINE
  5
8C
330
70
100
AcDbEntity
  8
0
 62
    18
420
        0
370
     9
100
AcDbSpline
210
0.0
220
0.0
230
1.0
 70
     8
 71
     3
 72
    53
 73
    49
 74
     0
 42
0.0000000001
 43
0.0000000001
 40
0.0
 40
0.0
 40
0.0
 40
0.0
 40
1.0
 40
1.0
 40
1.0
 40
2.0
 40
2.0
 40
2.0
 40
3.0
 40
3.0
 40
3.0
 40
4.0
 40
4.0
 40
4.0
 40
5.0
 40
5.0
 40
5.0
 40
6.0
 40
6.0
 40
6.0
 40
7.0
 40
7.0
 40
7.0
 40
8.0
 40
8.0
 40
8.0
 40
9.0
 40
9.0
 40
9.0
 40
10.0
 40
10.0
 40
10.0
 40
11.0
 40
11.0
 40
11.0
 40
12.0
 40
12.0
 40
12.0
 40
13.0
 40
13.0
 40
13.0
 40
14.0
 40
14.0
 40
14.0
 40
15.0
 40
15.0
 40
15.0
 40
16.0
 40
16.0
 40
16.0
 40
16.0
 10
82.02384563632213
 20
204.495142688289
 30
0.0
 10
82.40300284275905
 20
204.5155597252623
 30
0.0
 10
82.7773561566342
 20
204.5204087764452
 30
0.0
 10
83.14771575190524
 20
204.5163458496442
 30
0.0
 10
83.51807534717631
 20
204.5122829228432
 30
0.0
 10
83.88447254579839
 20
204.4995722255851
 30
0.0
 10
84.24749903226931
 20
204.483458184811
 30
0.0
 10
84.42901227550477
 20
204.4754011644239
 30
0.0
 10
84.60966735560736
 20
204.4663778343597
 30
0.0
 10
84.78950322033892
 20
204.456758803414
 30
0.0
 10
84.96933908507045
 20
204.4471397724682
 30
0.0
 10
85.14854363184044
 20
204.4369163614889
 30
0.0
 10
85.32656099012172
 20
204.4264532433321
 30
0.0
 10
85.68259570668395
 20
204.4055270070188
 30
0.0
 10
86.02973497563807
 20
204.3839899437666
 30
0.0
 10
86.36899579495453
 20
204.3637062974064
 30
0.0
 10
86.70825661427098
 20
204.3434226510458
 30
0.0
 10
87.0395622457589
 20
204.3242007265877
 30
0.0
 10
87.36338696410761
 20
204.3068455343009
 30
0.0
 10
87.52529932328199
 20
204.2981679381576
 30
0.0
 10
87.68533766314709
 20
204.2899579076611
 30
0.0
 10
87.84352047452097
 20
204.2822768634222
 30
0.0
 10
88.00170328589485
 20
204.2745958191829
 30
0.0
 10
88.15823289487816
 20
204.2674230743509
 30
0.0
 10
88.3124176051435
 20
204.2607912812063
 30
0.0
 10
88.62078702567357
 20
204.2475276949168
 30
0.0
 10
88.91748036448456
 20
204.2363868271675
 30
0.0
 10
89.20279851800582
 20
204.22691055518
 30
0.0
 10
89.48811667152709
 20
204.2174342831925
 30
0.0
 10
89.76205587602404
 20
204.2096231066665
 30
0.0
 10
90.02456962846695
 20
204.203240754676
 30
0.0
 10
90.28708338090984
 20
204.1968584026854
 30
0.0
 10
90.53810863477462
 20
204.1918096764406
 30
0.0
 10
90.77725902392336
 20
204.1877274543437
 30
0.0
 10
90.89683421849775
 20
204.1856863432956
 30
0.0
 10
91.01344035881206
 20
204.183897842188
 30
0.0
 10
91.12698843532067
 20
204.1823275498702
 30
0.0
 10
91.18376247357481
 20
204.181542403711
 30
0.0
 10
91.23983930645085
 20
204.1808095931592
 30
0.0
 10
91.29487215357782
 20
204.1801270276961
 30
0.0
 10
91.34990500070449
 20
204.179444462233
 30
0.0
 10
91.40393384132824
 20
204.17881147712
 30
0.0
 10
91.45696200316431
 20
204.1782224826041
 30
0.0
 10
91.66907465050824
 20
204.1758665045396
 30
0.0
 10
91.86513158057309
 20
204.1741127067516
 30
0.0
 10
92.04514077407164
 20
204.1725219766726
 30
0.0
 10
92.04791849106948
 20
204.17249743016
 30
0.0
 10
92.05069239537461
 20
204.1724729324601
 30
0.0
 10
92.05346248560706
 20
204.1724484831065
 30
0.0
  0
SPLINE
  5
8D
330
70
100
AcDbEntity
  8
0
 62
    18
420
        0
370
     9
100
AcDbSpline
210
0.0
220
0.0
230
1.0
 70
     8
 71
     3
 72
    32
 73
    28
 74
     0
 42
0.0000000001
 43
0.0000000001
 40
0.0
 40
0.0
 40
0.0
 40
0.0
 40
1.0
 40
1.0
 40
1.0
 40
2.0
 40
2.0
 40
2.0
 40
3.0
 40
3.0
 40
3.0
 40
4.0
 40
4.0
 40
4.0
 40
5.0
 40
5.0
 40
5.0
 40
6.0
 40
6.0
 40
6.0
 40
7.0
 40
7.0
 40
7.0
 40
8.0
 40
8.0
 40
8.0
 40
9.0
 40
9.0
 40
9.0
 40
9.0
 10
69.57590452371836
 20
204.1295250962716
 30
0.0
 10
70.22351497211883
 20
204.1403630333174
 30
0.0
 10
70.87109209055086
 20
204.1524859612521
 30
0.0
 10
71.51861289401423
 20
204.1661155435225
 30
0.0
 10
72.68636562958625
 20
204.1906954209508
 30
0.0
 10
73.85390644434504
 20
204.2202935049159
 30
0.0
 10
75.02122232075213
 20
204.2552282735148
 30
0.0
 10
76.18853819715922
 20
204.290163042114
 30
0.0
 10
77.35562851345827
 20
204.3304499555874
 30
0.0
 10
78.5225792686899
 20
204.3740646623794
 30
0.0
 10
79.10605464630603
 20
204.3958720157757
 30
0.0
 10
79.68949676938578
 20
204.4184725212834
 30
0.0
 10
80.27292078819192
 20
204.4415081694306
 30
0.0
 10
80.56463279759515
 20
204.4530259935044
 30
0.0
 10
80.85634027886099
 20
204.4646526413395
 30
0.0
 10
81.14804497421193
 20
204.4763468884111
 30
0.0
 10
81.22097114804983
 20
204.4792704501788
 30
0.0
 10
81.2938971468842
 20
204.4821982576333
 30
0.0
 10
81.36682299603778
 20
204.4851297112667
 30
0.0
 10
81.40328592061457
 20
204.4865954380834
 30
0.0
 10
81.43974880777133
 20
204.4880620764449
 30
0.0
 10
81.47621166057344
 20
204.4895295537511
 30
0.0
 10
81.51267451337556
 20
204.4909970310573
 30
0.0
 10
81.54913358874344
 20
204.4925540886777
 30
0.0
 10
81.58560504819821
 20
204.4938175691108
 30
0.0
 10
81.73149088601787
 20
204.498871490843
 30
0.0
 10
81.87756984438077
 20
204.4993470019093
 30
0.0
 10
82.02384706189281
 20
204.4951221390275
 30
0.0
  0
SPLINE
  5
8E
330
70
100
AcDbEntity
  8
0
 62
    18
420
        0
370
     9
100
AcDbSpline
210
0.0
220
0.0
230
1.0
 70
     8
 71
     3
 72
     8
 73
     4
 74
     0
 42
0.0000000001
 43
0.0000000001
 40
0.0
 40
0.0
 40
0.0
 40
0.0
 40
1.0
 40
1.0
 40
1.0
 40
1.0
 10
67.33575583893399
 20
204.8820233993504
 30
0.0
 10
67.28617259048246
 20
204.9833604722145
 30
0.0
 10
67.23787152900681
 20
205.0834006287127
 30
0.0
 10
66.91613655696677
 20
205.7188573262699
 30
0.0
  0
LINE
  5
8F
330
70
100
AcDbEntity
  8
0
 62
    18
420
        0
370
     9
100
AcDbLine
 10
57.47049095736535
 20
202.8517841790443
 30
0.0
 11
57.47049093777396
 21
202.847326597298
 31
0.0
  0
LINE
  5
90
330
70
100
AcDbEntity
  8
0
 62
    18
420
        0
370
     9
100
AcDbLine
 10
57.47049093777396
 20
202.847326597298
 30
0.0
 11
57.4690879437008
 21
202.8500149299119
 31
0.0
  0
SPLINE
  5
91
330
70
100
AcDbEntity
  8
0
 62
    18
420
        0
370
     9
100
AcDbSpline
210
0.0
220
0.0
230
1.0
 70
     8
 71
     3
 72
    32
 73
    28
 74
     0
 42
0.0000000001
 43
0.0000000001
 40
0.0
 40
0.0
 40
0.0
 40
0.0
 40
1.0
 40
1.0
 40
1.0
 40
2.0
 40
2.0
 40
2.0
 40
3.0
 40
3.0
 40
3.0
 40
4.0
 40
4.0
 40
4.0
 40
5.0
 40
5.0
 40
5.0
 40
6.0
 40
6.0
 40
6.0
 40
7.0
 40
7.0
 40
7.0
 40
8.0
 40
8.0
 40
8.0
 40
9.0
 40
9.0
 40
9.0
 40
9.0
 10
68.0251234879034
 20
202.7789569091295
 30
0.0
 10
68.0180272168948
 20
202.8010565399906
 30
0.0
 10
68.01213164403752
 20
202.8234719791878
 30
0.0
 10
68.00620685444683
 20
202.8458755036402
 30
0.0
 10
68.00028206485613
 20
202.8682790280921
 30
0.0
 10
67.99450326340533
 20
202.890717335223
 30
0.0
 10
67.98873747074407
 20
202.9131551013915
 30
0.0
 10
67.97720588542124
 20
202.9580306337283
 30
0.0
 10
67.96575273863803
 20
203.0029110323069
 30
0.0
 10
67.95422445417914
 20
203.0477564839411
 30
0.0
 10
67.931167885261
 20
203.137447387209
 30
0.0
 10
67.90786560514249
 20
203.2270129494869
 30
0.0
 10
67.88413241840209
 20
203.3164146840668
 30
0.0
 10
67.83666604492132
 20
203.4952181532267
 30
0.0
 10
67.7876406150518
 20
203.6734932792509
 30
0.0
 10
67.73540516284637
 20
203.8505190699436
 30
0.0
 10
67.70928743674367
 20
203.9390319652897
 30
0.0
 10
67.68234066802289
 20
204.0272411053414
 30
0.0
 10
67.65405093568126
 20
204.1150429977146
 30
0.0
 10
67.62576120333966
 20
204.2028448900881
 30
0.0
 10
67.59614248502898
 20
204.2902443573936
 30
0.0
 10
67.56428817147511
 20
204.3770245373856
 30
0.0
 10
67.53243385792124
 20
204.4638047173779
 30
0.0
 10
67.4984071513293
 20
204.5498164193102
 30
0.0
 10
67.4608996225012
 20
204.634244135739
 30
0.0
 10
67.42339209367308
 20
204.7186718521681
 30
0.0
 10
67.3823933465155
 20
204.8015909019682
 30
0.0
 10
67.33575583893399
 20
204.8820233993504
 30
0.0
  0
LWPOLYLINE
  5
92
330
70
100
AcDbEntity
  8
0
 62
    18
420
        0
370
     9
100
AcDbPolyline
 90
        9
 70
     0
 43
0.0
 10
57.46928736920852
 20
202.8517842153039
 10
57.46917475369496
 20
202.8517310688057
 10
57.46906213818847
 20
202.8516779232496
 10
57.46894952269481
 20
202.8516247786377
 10
57.46883690721879
 20
202.8515716349736
 10
57.46872429176619
 20
202.8515184922585
 10
57.46861167634215
 20
202.8514653504958
 10
57.46849906095149
 20
202.8514122096879
 10
57.46838644560028
 20
202.8513590698364
  0
LWPOLYLINE
  5
93
330
70
100
AcDbEntity
  8
0
 62
    18
420
        0
370
     9
100
AcDbPolyline
 90
        9
 70
     0
 43
0.0
 10
57.47049095736535
 20
202.8517841790443
 10
57.4703405089548
 20
202.8517841871766
 10
57.47019006050157
 20
202.8517841942802
 10
57.47003961201144
 20
202.8517842003555
 10
57.46988916348987
 20
202.8517842054021
 10
57.46973871494327
 20
202.8517842094204
 10
57.46958826637711
 20
202.8517842124101
 10
57.46943781779682
 20
202.8517842143712
 10
57.46928736920852
 20
202.8517842153039
  0
SPLINE
  5
94
330
70
100
AcDbEntity
  8
0
 62
    18
420
        0
370
     9
100
AcDbSpline
210
0.0
220
0.0
230
1.0
 70
     8
 71
     3
 72
     8
 73
     4
 74
     0
 42
0.0000000001
 43
0.0000000001
 40
0.0
 40
0.0
 40
0.0
 40
0.0
 40
1.0
 40
1.0
 40
1.0
 40
1.0
 10
57.47049093777396
 20
202.847326597298
 30
0.0
 10
57.47008974877556
 20
202.8488124809705
 30
0.0
 10
57.4696885592516
 20
202.8502983537049
 30
0.0
 10
57.46928736925312
 20
202.8517842153161
 30
0.0
  0
SPLINE
  5
95
330
70
100
AcDbEntity
  8
0
 62
    18
420
        0
370
     9
100
AcDbSpline
210
0.0
220
0.0
230
1.0
 70
     8
 71
     3
 72
    74
 73
    70
 74
     0
 42
0.0000000001
 43
0.0000000001
 40
0.0
 40
0.0
 40
0.0
 40
0.0
 40
1.0
 40
1.0
 40
1.0
 40
2.0
 40
2.0
 40
2.0
 40
3.0
 40
3.0
 40
3.0
 40
4.0
 40
4.0
 40
4.0
 40
5.0
 40
5.0
 40
5.0
 40
6.0
 40
6.0
 40
6.0
 40
7.0
 40
7.0
 40
7.0
 40
8.0
 40
8.0
 40
8.0
 40
9.0
 40
9.0
 40
9.0
 40
10.0
 40
10.0
 40
10.0
 40
11.0
 40
11.0
 40
11.0
 40
12.0
 40
12.0
 40
12.0
 40
13.0
 40
13.0
 40
13.0
 40
14.0
 40
14.0
 40
14.0
 40
15.0
 40
15.0
 40
15.0
 40
16.0
 40
16.0
 40
16.0
 40
17.0
 40
17.0
 40
17.0
 40
18.0
 40
18.0
 40
18.0
 40
19.0
 40
19.0
 40
19.0
 40
20.0
 40
20.0
 40
20.0
 40
21.0
 40
21.0
 40
21.0
 40
22.0
 40
22.0
 40
22.0
 40
23.0
 40
23.0
 40
23.0
 40
23.0
 10
160.0287765466027
 20
203.803552672602
 30
0.0
 10
160.3716583422729
 20
203.8035525409344
 30
0.0
 10
160.7125252926786
 20
203.8056167812306
 30
0.0
 10
161.0513925340073
 20
203.8088352080782
 30
0.0
 10
161.3902597753361
 20
203.8120536349258
 30
0.0
 10
161.7271151585111
 20
203.8163241739063
 30
0.0
 10
162.0619155344872
 20
203.8210027240111
 30
0.0
 10
162.2293157224749
 20
203.8233419990635
 30
0.0
 10
162.3962018643013
 20
203.8257885534023
 30
0.0
 10
162.5625659457581
 20
203.8282668961024
 30
0.0
 10
162.7289300272148
 20
203.8307452388025
 30
0.0
 10
162.8935382855457
 20
203.8332367497085
 30
0.0
 10
163.0563599082835
 20
203.8357044031195
 30
0.0
 10
163.3820031537589
 20
203.8406397099411
 30
0.0
 10
163.7006136973227
 20
203.8454519529135
 30
0.0
 10
164.0125106782754
 20
203.8502895378301
 30
0.0
 10
164.3244076592287
 20
203.8551271227467
 30
0.0
 10
164.6295978279842
 20
203.8599905095609
 30
0.0
 10
164.9282217157904
 20
203.8649816233466
 30
0.0
 10
165.2268456035967
 20
203.8699727371327
 30
0.0
 10
165.5188909390702
 20
203.8750645787022
 30
0.0
 10
165.8043822326142
 20
203.8808109869889
 30
0.0
 10
165.9471278793863
 20
203.8836841911321
 30
0.0
 10
166.0885878564122
 20
203.8867315531536
 30
0.0
 10
166.2272313918092
 20
203.8899818780448
 30
0.0
 10
166.3658749272061
 20
203.893232202936
 30
0.0
 10
166.5018093894304
 20
203.8966944881024
 30
0.0
 10
166.6351099088859
 20
203.9003984323317
 30
0.0
 10
166.9017109477963
 20
203.9078063207898
 30
0.0
 10
167.1577822858571
 20
203.9161609700686
 30
0.0
 10
167.4036919645239
 20
203.9259624895076
 30
0.0
 10
167.64960164319
 20
203.935764008947
 30
0.0
 10
167.8853488951352
 20
203.9470020114317
 30
0.0
 10
168.1110180895732
 20
203.9600309857337
 30
0.0
 10
168.3366872840105
 20
203.9730599600357
 30
0.0
 10
168.5522821778397
 20
203.9878822470808
 30
0.0
 10
168.757612799343
 20
204.005073536211
 30
0.0
 10
168.808945454719
 20
204.0093713584937
 30
0.0
 10
168.8596563207308
 20
204.0138213695269
 30
0.0
 10
168.9095091217374
 20
204.0184051568344
 30
0.0
 10
168.9593619227433
 20
204.0229889441417
 30
0.0
 10
169.0084094133021
 20
204.0277106006588
 30
0.0
 10
169.0566568809252
 20
204.0325713156299
 30
0.0
 10
169.1531518161708
 20
204.0422927455721
 30
0.0
 10
169.246455247736
 20
204.0525832926617
 30
0.0
 10
169.3365588664846
 20
204.0633893011321
 30
0.0
 10
169.5167661039825
 20
204.085001318073
 30
0.0
 10
169.6841918991513
 20
204.1086821184472
 30
0.0
 10
169.8382225945747
 20
204.1337766027526
 30
0.0
 10
169.9922532899981
 20
204.1588710870576
 30
0.0
 10
170.1329264706818
 20
204.1854974423528
 30
0.0
 10
170.2588372835994
 20
204.2118636389715
 30
0.0
 10
170.2903149868288
 20
204.2184551881264
 30
0.0
 10
170.3209011746316
 20
204.225030387965
 30
0.0
 10
170.3504140045118
 20
204.2315123400399
 30
0.0
 10
170.379926834392
 20
204.2379942921151
 30
0.0
 10
170.4083652237919
 20
204.2443822081676
 30
0.0
 10
170.4357101051314
 20
204.2506268460463
 30
0.0
 10
170.4903998678118
 20
204.2631161218032
 30
0.0
 10
170.5407197527252
 20
204.2750396035886
 30
0.0
 10
170.5864695182799
 20
204.2859255155013
 30
0.0
 10
170.6322192838347
 20
204.296811427414
 30
0.0
 10
170.6734003053631
 20
204.3066728956966
 30
0.0
 10
170.709737013279
 20
204.3148395017674
 30
0.0
 10
170.7460737211954
 20
204.3230061078382
 30
0.0
 10
170.777584084678
 20
204.3294773018598
 30
0.0
 10
170.8037155301698
 20
204.3328559153235
 30
0.0
 10
170.8559784211534
 20
204.3396131422507
 30
0.0
 10
170.8867539338791
 20
204.3342931967607
 30
0.0
 10
170.8908146031251
 20
204.3032482540163
 30
0.0
  0
SPLINE
  5
96
330
70
100
AcDbEntity
  8
0
 62
    18
420
        0
370
     9
100
AcDbSpline
210
0.0
220
0.0
230
1.0
 70
     8
 71
     3
 72
    74
 73
    70
 74
     0
 42
0.0000000001
 43
0.0000000001
 40
0.0
 40
0.0
 40
0.0
 40
0.0
 40
1.0
 40
1.0
 40
1.0
 40
2.0
 40
2.0
 40
2.0
 40
3.0
 40
3.0
 40
3.0
 40
4.0
 40
4.0
 40
4.0
 40
5.0
 40
5.0
 40
5.0
 40
6.0
 40
6.0
 40
6.0
 40
7.0
 40
7.0
 40
7.0
 40
8.0
 40
8.0
 40
8.0
 40
9.0
 40
9.0
 40
9.0
 40
10.0
 40
10.0
 40
10.0
 40
11.0
 40
11.0
 40
11.0
 40
12.0
 40
12.0
 40
12.0
 40
13.0
 40
13.0
 40
13.0
 40
14.0
 40
14.0
 40
14.0
 40
15.0
 40
15.0
 40
15.0
 40
16.0
 40
16.0
 40
16.0
 40
17.0
 40
17.0
 40
17.0
 40
18.0
 40
18.0
 40
18.0
 40
19.0
 40
19.0
 40
19.0
 40
20.0
 40
20.0
 40
20.0
 40
21.0
 40
21.0
 40
21.0
 40
22.0
 40
22.0
 40
22.0
 40
23.0
 40
23.0
 40
23.0
 40
23.0
 10
160.0287765466027
 20
203.803552672602
 30
0.0
 10
159.6858947509323
 20
203.8035525409344
 30
0.0
 10
159.3450278005261
 20
203.8056167812306
 30
0.0
 10
159.0061605591973
 20
203.8088352080782
 30
0.0
 10
158.6672933178685
 20
203.8120536349258
 30
0.0
 10
158.3304379346935
 20
203.8163241739063
 30
0.0
 10
157.9956375587181
 20
203.8210027240111
 30
0.0
 10
157.8282373707303
 20
203.8233419990635
 30
0.0
 10
157.661351228904
 20
203.8257885534023
 30
0.0
 10
157.4949871474466
 20
203.8282668961024
 30
0.0
 10
157.3286230659898
 20
203.8307452388025
 30
0.0
 10
157.1640148076595
 20
203.8332367497085
 30
0.0
 10
157.0011931849218
 20
203.8357044031195
 30
0.0
 10
156.6755499394463
 20
203.8406397099411
 30
0.0
 10
156.3569393958826
 20
203.8454519529135
 30
0.0
 10
156.0450424149299
 20
203.8502895378301
 30
0.0
 10
155.7331454339766
 20
203.8551271227467
 30
0.0
 10
155.4279552652204
 20
203.8599905095609
 30
0.0
 10
155.1293313774142
 20
203.8649816233466
 30
0.0
 10
154.8307074896086
 20
203.8699727371327
 30
0.0
 10
154.5386621541351
 20
203.8750645787022
 30
0.0
 10
154.253170860591
 20
203.8808109869889
 30
0.0
 10
154.110425213819
 20
203.8836841911321
 30
0.0
 10
153.9689652367924
 20
203.8867315531536
 30
0.0
 10
153.8303217013954
 20
203.8899818780448
 30
0.0
 10
153.6916781659985
 20
203.893232202936
 30
0.0
 10
153.5557437037743
 20
203.8966944881024
 30
0.0
 10
153.4224431843194
 20
203.9003984323317
 30
0.0
 10
153.1558421454083
 20
203.9078063207898
 30
0.0
 10
152.8997708073482
 20
203.9161609700686
 30
0.0
 10
152.6538611286814
 20
203.9259624895076
 30
0.0
 10
152.4079514500153
 20
203.935764008947
 30
0.0
 10
152.1722041980702
 20
203.9470020114317
 30
0.0
 10
151.9465350036321
 20
203.9600309857337
 30
0.0
 10
151.7208658091947
 20
203.9730599600357
 30
0.0
 10
151.5052709153649
 20
203.9878822470808
 30
0.0
 10
151.2999402938623
 20
204.005073536211
 30
0.0
 10
151.2486076384863
 20
204.0093713584937
 30
0.0
 10
151.1978967724738
 20
204.0138213695269
 30
0.0
 10
151.1480439714679
 20
204.0184051568344
 30
0.0
 10
151.0981911704619
 20
204.0229889441417
 30
0.0
 10
151.0491436799025
 20
204.0277106006588
 30
0.0
 10
151.0008962122801
 20
204.0325713156299
 30
0.0
 10
150.9044012770345
 20
204.0422927455721
 30
0.0
 10
150.8110978454693
 20
204.0525832926617
 30
0.0
 10
150.7209942267206
 20
204.0633893011321
 30
0.0
 10
150.5407869892228
 20
204.085001318073
 30
0.0
 10
150.373361194054
 20
204.1086821184472
 30
0.0
 10
150.2193304986305
 20
204.1337766027526
 30
0.0
 10
150.0652998032065
 20
204.1588710870576
 30
0.0
 10
149.9246266225228
 20
204.1854974423528
 30
0.0
 10
149.7987158096052
 20
204.2118636389715
 30
0.0
 10
149.7672381063758
 20
204.2184551881264
 30
0.0
 10
149.7366519185737
 20
204.225030387965
 30
0.0
 10
149.7071390886935
 20
204.2315123400399
 30
0.0
 10
149.6776262588132
 20
204.2379942921151
 30
0.0
 10
149.6491878694133
 20
204.2443822081676
 30
0.0
 10
149.6218429880732
 20
204.2506268460463
 30
0.0
 10
149.5671532253934
 20
204.2631161218032
 30
0.0
 10
149.5168333404801
 20
204.2750396035886
 30
0.0
 10
149.4710835749253
 20
204.2859255155013
 30
0.0
 10
149.4253338093706
 20
204.296811427414
 30
0.0
 10
149.3841527878421
 20
204.3066728956966
 30
0.0
 10
149.3478160799263
 20
204.3148395017674
 30
0.0
 10
149.3114793720098
 20
204.3230061078382
 30
0.0
 10
149.2799690085273
 20
204.3294773018598
 30
0.0
 10
149.2538375630355
 20
204.3328559153235
 30
0.0
 10
149.2015746720519
 20
204.3396131422507
 30
0.0
 10
149.1707991593262
 20
204.3342931967607
 30
0.0
 10
149.1667384900802
 20
204.3032482540163
 30
0.0
  0
LINE
  5
98
330
70
100
AcDbEntity
  8
PIEZA
 62
    18
420
        0
370
     9
100
AcDbLine
 10
86.03410278193575
 20
142.4612587887988
 30
0.0
 11
51.75195558342185
 21
142.4612587887988
 31
0.0
  0
LINE
  5
99
330
70
100
AcDbEntity
  8
PIEZA
 62
    18
420
        0
370
     9
100
AcDbLine
 10
51.75195558342217
 20
107.9257818123399
 30
0.0
 11
86.03410278193607
 21
107.9257818123399
 31
0.0
  0
SPLINE
  5
9A
330
70
100
AcDbEntity
  8
PIEZA
 62
    18
420
        0
370
     9
100
AcDbSpline
210
0.0
220
0.0
230
1.0
 70
     8
 71
     3
 72
    95
 73
    91
 74
     0
 42
0.0000000001
 43
0.0000000001
 40
0.0
 40
0.0
 40
0.0
 40
0.0
 40
1.0
 40
1.0
 40
1.0
 40
2.0
 40
2.0
 40
2.0
 40
3.0
 40
3.0
 40
3.0
 40
4.0
 40
4.0
 40
4.0
 40
5.0
 40
5.0
 40
5.0
 40
6.0
 40
6.0
 40
6.0
 40
7.0
 40
7.0
 40
7.0
 40
8.0
 40
8.0
 40
8.0
 40
9.0
 40
9.0
 40
9.0
 40
10.0
 40
10.0
 40
10.0
 40
11.0
 40
11.0
 40
11.0
 40
12.0
 40
12.0
 40
12.0
 40
13.0
 40
13.0
 40
13.0
 40
14.0
 40
14.0
 40
14.0
 40
15.0
 40
15.0
 40
15.0
 40
16.0
 40
16.0
 40
16.0
 40
17.0
 40
17.0
 40
17.0
 40
18.0
 40
18.0
 40
18.0
 40
19.0
 40
19.0
 40
19.0
 40
20.0
 40
20.0
 40
20.0
 40
21.0
 40
21.0
 40
21.0
 40
22.0
 40
22.0
 40
22.0
 40
23.0
 40
23.0
 40
23.0
 40
24.0
 40
24.0
 40
24.0
 40
25.0
 40
25.0
 40
25.0
 40
26.0
 40
26.0
 40
26.0
 40
27.0
 40
27.0
 40
27.0
 40
28.0
 40
28.0
 40
28.0
 40
29.0
 40
29.0
 40
29.0
 40
30.0
 40
30.0
 40
30.0
 40
30.0
 10
86.03410278193607
 20
107.9258367198316
 30
0.0
 10
86.4850751106131
 20
107.9333193895115
 30
0.0
 10
86.8920303575023
 20
107.9408020591928
 30
0.0
 10
87.28650591416506
 20
107.9647241419152
 30
0.0
 10
87.66489685599806
 20
107.9876708093557
 30
0.0
 10
88.03180506995481
 20
108.0257435979561
 30
0.0
 10
88.39715359915512
 20
108.0746677726297
 30
0.0
 10
88.74700876813319
 20
108.1215172164595
 30
0.0
 10
89.09543373079861
 20
108.1783172101041
 30
0.0
 10
89.44176489497479
 20
108.2460249044339
 30
0.0
 10
89.77274339118681
 20
108.3107311543159
 30
0.0
 10
90.10180960823296
 20
108.3853994749874
 30
0.0
 10
90.42840129771692
 20
108.4695817287654
 30
0.0
 10
90.7398163490045
 20
108.5498520532157
 30
0.0
 10
91.04898151055467
 20
108.6387726351077
 30
0.0
 10
91.35544611668349
 20
108.7362462592892
 30
0.0
 10
91.71753651789693
 20
108.8514121315705
 30
0.0
 10
92.0758570482863
 20
108.9785177197829
 30
0.0
 10
92.42958961289156
 20
109.1172823915079
 30
0.0
 10
92.76056825733091
 20
109.2471209971066
 30
0.0
 10
93.0875301959033
 20
109.387166982482
 30
0.0
 10
93.40987822189026
 20
109.5371257482408
 30
0.0
 10
93.71002372492943
 20
109.676755730604
 30
0.0
 10
94.00616901591694
 20
109.8249799857959
 30
0.0
 10
94.29784508414584
 20
109.9815180750075
 30
0.0
 10
94.56796349969875
 20
110.1264865014151
 30
0.0
 10
94.83424891546858
 20
110.2785852334076
 30
0.0
 10
95.09633171672266
 20
110.4376206698653
 30
0.0
 10
95.37024564141376
 20
110.6038353942061
 30
0.0
 10
95.63956895256335
 20
110.777627242103
 30
0.0
 10
95.90387480993411
 20
110.9587292359953
 30
0.0
 10
96.14180291078898
 20
111.1217572290049
 30
0.0
 10
96.37566506869088
 20
111.2907090706253
 30
0.0
 10
96.60518981201441
 20
111.4653557406462
 30
0.0
 10
96.80925926051376
 20
111.6206333334569
 30
0.0
 10
97.00990002158043
 20
111.7804126371871
 30
0.0
 10
97.20692288864647
 20
111.9445323799215
 30
0.0
 10
97.38777177807758
 20
112.0951792243674
 30
0.0
 10
97.56557239168571
 20
112.249483128771
 30
0.0
 10
97.74017367731392
 20
112.407325674876
 30
0.0
 10
97.91037498187485
 20
112.5611905629006
 30
0.0
 10
98.07753617390913
 20
112.7184179911296
 30
0.0
 10
98.24152075739466
 20
112.8788926985299
 30
0.0
 10
98.4013299854544
 20
113.0352814185398
 30
0.0
 10
98.55812231038479
 20
113.1947541593029
 30
0.0
 10
98.71177877503626
 20
113.3571865893754
 30
0.0
 10
98.86140697533138
 20
113.5153606840122
 30
0.0
 10
99.00806157982136
 20
113.6763413194163
 30
0.0
 10
99.15165981072197
 20
113.8400239755236
 30
0.0
 10
99.39364036500759
 20
114.1158492388506
 30
0.0
 10
99.62694192918156
 20
114.3993472588834
 30
0.0
 10
99.8510476847306
 20
114.6899198388005
 30
0.0
 10
100.0655266856601
 20
114.9680104950878
 30
0.0
 10
100.2715829453278
 20
115.2525809716787
 30
0.0
 10
100.4688057346883
 20
115.5431469997446
 30
0.0
 10
100.6646601365622
 20
115.8316969985374
 30
0.0
 10
100.8518032211183
 20
116.1261596397647
 30
0.0
 10
101.0299133023918
 20
116.4260034852524
 30
0.0
 10
101.2079514223424
 20
116.7257261856605
 30
0.0
 10
101.3769638366946
 20
117.0308257429002
 30
0.0
 10
101.5366114817957
 20
117.3406893190292
 30
0.0
 10
101.6014941488049
 20
117.4666214943247
 30
0.0
 10
101.6648300326597
 20
117.5933405447636
 30
0.0
 10
101.7266021176247
 20
117.7208206236932
 30
0.0
 10
101.7990228498295
 20
117.8702764930052
 30
0.0
 10
101.8692941574943
 20
118.0207783876846
 30
0.0
 10
101.9373803833958
 20
118.1722628699674
 30
0.0
 10
102.0177999153689
 20
118.3511876231754
 30
0.0
 10
102.0951710452422
 20
118.5314831818889
 30
0.0
 10
102.1694395068532
 20
118.7130495535603
 30
0.0
 10
102.2550932529322
 20
118.922449877174
 30
0.0
 10
102.336620144007
 20
119.1335405074452
 30
0.0
 10
102.4139645973197
 20
119.3461552981562
 30
0.0
 10
102.5015887845226
 20
119.5870283979756
 30
0.0
 10
102.5838448896943
 20
119.8298577297195
 30
0.0
 10
102.6606371163255
 20
120.0744025612624
 30
0.0
 10
102.7464416015088
 20
120.3476469285019
 30
0.0
 10
102.8254244828319
 20
120.6230330820159
 30
0.0
 10
102.8975208079609
 20
120.9002253879418
 30
0.0
 10
102.9771964336839
 20
121.2065582056088
 30
0.0
 10
103.0484614627889
 20
121.5150968891595
 30
0.0
 10
103.110905813817
 20
121.8253793531215
 30
0.0
 10
103.1792867270391
 20
122.1651602603299
 30
0.0
 10
103.2370900813627
 20
122.5070322698148
 30
0.0
 10
103.2852770788654
 20
122.8503597772583
 30
0.0
 10
103.3376456657903
 20
123.2234806884845
 30
0.0
 10
103.3786564963769
 20
123.5983206697782
 30
0.0
 10
103.4037032180958
 20
123.9740674749088
 30
0.0
 10
103.4307530113712
 20
124.3798640305078
 30
0.0
 10
103.4391831852006
 20
124.7867182533321
 30
0.0
 10
103.4476133590309
 20
125.1935724761551
 30
0.0
  0
SPLINE
  5
9B
330
70
100
AcDbEntity
  8
PIEZA
 62
    18
420
        0
370
     9
100
AcDbSpline
210
0.0
220
0.0
230
1.0
 70
     8
 71
     3
 72
     8
 73
     4
 74
     0
 42
0.0000000001
 43
0.0000000001
 40
0.0
 40
0.0
 40
0.0
 40
0.0
 40
1.0
 40
1.0
 40
1.0
 40
1.0
 10
51.75195558342185
 20
142.4612587887988
 30
0.0
 10
51.64581906735006
 20
142.4612587887988
 30
0.0
 10
51.559778420999
 20
142.3752181424484
 30
0.0
 10
51.559778420999
 20
142.2690816263757
 30
0.0
  0
SPLINE
  5
9C
330
70
100
AcDbEntity
  8
PIEZA
 62
    18
420
        0
370
     9
100
AcDbSpline
210
0.0
220
0.0
230
1.0
 70
     8
 71
     3
 72
     8
 73
     4
 74
     0
 42
0.0000000001
 43
0.0000000001
 40
0.0
 40
0.0
 40
0.0
 40
0.0
 40
1.0
 40
1.0
 40
1.0
 40
1.0
 10
51.55977842099932
 20
108.1179589747631
 30
0.0
 10
51.55977842099932
 20
108.0118224586903
 30
0.0
 10
51.64581906735038
 20
107.9257818123399
 30
0.0
 10
51.75195558342217
 20
107.9257818123399
 30
0.0
  0
CIRCLE
  5
9D
330
70
100
AcDbEntity
  8
PIEZA
 62
    18
420
        0
370
     9
100
AcDbCircle
 10
61.34514990184258
 20
132.8806067974918
 30
0.0
 40
0.7206643590864545
  0
CIRCLE
  5
9E
330
70
100
AcDbEntity
  8
PIEZA
 62
    18
420
        0
370
     9
100
AcDbCircle
 10
61.34515003950074
 20
117.506433803646
 30
0.0
 40
0.7206643590864143
  0
SPLINE
  5
9F
330
70
100
AcDbEntity
  8
PIEZA
 62
    18
420
        0
370
     9
100
AcDbSpline
210
0.0
220
0.0
230
1.0
 70
     8
 71
     3
 72
    65
 73
    61
 74
     0
 42
0.0000000001
 43
0.0000000001
 40
0.0
 40
0.0
 40
0.0
 40
0.0
 40
1.0
 40
1.0
 40
1.0
 40
2.0
 40
2.0
 40
2.0
 40
3.0
 40
3.0
 40
3.0
 40
4.0
 40
4.0
 40
4.0
 40
5.0
 40
5.0
 40
5.0
 40
6.0
 40
6.0
 40
6.0
 40
7.0
 40
7.0
 40
7.0
 40
8.0
 40
8.0
 40
8.0
 40
9.0
 40
9.0
 40
9.0
 40
10.0
 40
10.0
 40
10.0
 40
11.0
 40
11.0
 40
11.0
 40
12.0
 40
12.0
 40
12.0
 40
13.0
 40
13.0
 40
13.0
 40
14.0
 40
14.0
 40
14.0
 40
15.0
 40
15.0
 40
15.0
 40
16.0
 40
16.0
 40
16.0
 40
17.0
 40
17.0
 40
17.0
 40
18.0
 40
18.0
 40
18.0
 40
19.0
 40
19.0
 40
19.0
 40
20.0
 40
20.0
 40
20.0
 40
20.0
 10
69.81744895037596
 20
113.4120232046602
 30
0.0
 10
69.69406401440531
 20
113.467492438816
 30
0.0
 10
69.57336546191251
 20
113.5279043187131
 30
0.0
 10
69.45535445734517
 20
113.5932609726003
 30
0.0
 10
69.39634895506133
 20
113.6259392995433
 30
0.0
 10
69.33801502591101
 20
113.6598532532429
 30
0.0
 10
69.28035045152647
 20
113.6949987333103
 30
0.0
 10
69.22268587714194
 20
113.7301442133777
 30
0.0
 10
69.16560311745138
 20
113.766581545561
 30
0.0
 10
69.1094907523632
 20
113.8040742482633
 30
0.0
 10
68.88504129201111
 20
113.9540450590698
 30
0.0
 10
68.67554295914054
 20
114.1208607208633
 30
0.0
 10
68.48057727897852
 20
114.3040496633989
 30
0.0
 10
68.38309443889734
 20
114.3956441346667
 30
0.0
 10
68.28928720189622
 20
114.4913797492607
 30
0.0
 10
68.19917583539885
 20
114.5912793349068
 30
0.0
 10
68.1090644689018
 20
114.6911789205516
 30
0.0
 10
68.02240390405723
 20
114.7956359856793
 30
0.0
 10
67.94092243013321
 20
114.9025747666211
 30
0.0
 10
67.7779594822855
 20
115.1164523285048
 30
0.0
 10
67.63438880527556
 20
115.3415338360376
 30
0.0
 10
67.50958998366626
 20
115.5774608018486
 30
0.0
 10
67.44719057286144
 20
115.6954242847529
 30
0.0
 10
67.38953300631876
 20
115.8161273672636
 30
0.0
 10
67.33673728631528
 20
115.9396393739889
 30
0.0
 10
67.3103394263137
 20
116.0013953773516
 30
0.0
 10
67.28515485596509
 20
116.0638523585377
 30
0.0
 10
67.26120143318579
 20
116.1270206314527
 30
0.0
 10
67.2372480104065
 20
116.1901889043677
 30
0.0
 10
67.21460304481204
 20
116.2538966073601
 30
0.0
 10
67.19337228173941
 20
116.3177525694933
 30
0.0
 10
67.10844922944857
 20
116.573176418022
 30
0.0
 10
67.0455177149129
 20
116.8328135643985
 30
0.0
 10
67.00411590937822
 20
117.0965752474176
 30
0.0
 10
66.98341500661102
 20
117.2284560889266
 30
0.0
 10
66.96810743242817
 20
117.3613701535862
 30
0.0
 10
66.9583362995636
 20
117.4953447177586
 30
0.0
 10
66.95711490795557
 20
117.5120915382802
 30
0.0
 10
66.95598260864509
 20
117.5288554190907
 30
0.0
 10
66.95493205797892
 20
117.5456349737108
 30
0.0
 10
66.95440678264585
 20
117.5540247510215
 30
0.0
 10
66.95391323055888
 20
117.5624205738841
 30
0.0
 10
66.95342709440547
 20
117.5708178628031
 30
0.0
 10
66.95294095825206
 20
117.5792151517234
 30
0.0
 10
66.95260516225681
 20
117.5876408491518
 30
0.0
 10
66.95205099598895
 20
117.5960254559596
 30
0.0
 10
66.94983433091748
 20
117.6295638831859
 30
0.0
 10
66.94769947408365
 20
117.6631177622582
 30
0.0
 10
66.94554799703067
 20
117.6966685605513
 30
0.0
 10
66.94124504292442
 20
117.7637701571375
 30
0.0
 10
66.93699841864987
 20
117.8308826619169
 30
0.0
 10
66.93281021896232
 20
117.8979958748677
 30
0.0
 10
66.9160574202124
 20
118.1664487266696
 30
0.0
 10
66.90023069216005
 20
118.4349530345925
 30
0.0
 10
66.88533628581541
 20
118.7035091460678
 30
0.0
 10
66.82575866043585
 20
119.7777335919664
 30
0.0
 10
66.78116545880808
 20
120.8527381086758
 30
0.0
 10
66.75136345247787
 20
121.9279394714385
 30
0.0
 10
66.72156144614799
 20
123.0031408342025
 30
0.0
 10
66.70665632328788
 20
124.0786962700459
 30
0.0
 10
66.7066655048971
 20
125.1546061937591
 30
0.0
  0
SPLINE
  5
A0
330
70
100
AcDbEntity
  8
PIEZA
 62
    18
420
        0
370
     9
100
AcDbSpline
210
0.0
220
0.0
230
1.0
 70
     8
 71
     3
 72
    65
 73
    61
 74
     0
 42
0.0000000001
 43
0.0000000001
 40
0.0
 40
0.0
 40
0.0
 40
0.0
 40
1.0
 40
1.0
 40
1.0
 40
2.0
 40
2.0
 40
2.0
 40
3.0
 40
3.0
 40
3.0
 40
4.0
 40
4.0
 40
4.0
 40
5.0
 40
5.0
 40
5.0
 40
6.0
 40
6.0
 40
6.0
 40
7.0
 40
7.0
 40
7.0
 40
8.0
 40
8.0
 40
8.0
 40
9.0
 40
9.0
 40
9.0
 40
10.0
 40
10.0
 40
10.0
 40
11.0
 40
11.0
 40
11.0
 40
12.0
 40
12.0
 40
12.0
 40
13.0
 40
13.0
 40
13.0
 40
14.0
 40
14.0
 40
14.0
 40
15.0
 40
15.0
 40
15.0
 40
16.0
 40
16.0
 40
16.0
 40
17.0
 40
17.0
 40
17.0
 40
18.0
 40
18.0
 40
18.0
 40
19.0
 40
19.0
 40
19.0
 40
20.0
 40
20.0
 40
20.0
 40
20.0
 10
69.81744895037564
 20
136.9750173964785
 30
0.0
 10
69.694064014405
 20
136.9195481623215
 30
0.0
 10
69.57336546191219
 20
136.8591362824257
 30
0.0
 10
69.45535445734484
 20
136.7937796285384
 30
0.0
 10
69.39634895506133
 20
136.7611013015955
 30
0.0
 10
69.33801502591068
 20
136.7271873478959
 30
0.0
 10
69.28035045152615
 20
136.6920418678285
 30
0.0
 10
69.22268587714194
 20
136.656896387761
 30
0.0
 10
69.16560311745105
 20
136.6204590555778
 30
0.0
 10
69.1094907523632
 20
136.5829663528755
 30
0.0
 10
68.88504129201078
 20
136.4329955420689
 30
0.0
 10
68.67554295914023
 20
136.2661798802754
 30
0.0
 10
68.4805772789782
 20
136.0829909377399
 30
0.0
 10
68.38309443889703
 20
135.9913964664721
 30
0.0
 10
68.28928720189622
 20
135.8956608518781
 30
0.0
 10
68.19917583539885
 20
135.795761266232
 30
0.0
 10
68.10906446890149
 20
135.6958616805859
 30
0.0
 10
68.02240390405692
 20
135.5914046154595
 30
0.0
 10
67.94092243013321
 20
135.4844658345176
 30
0.0
 10
67.7779594822855
 20
135.2705882726339
 30
0.0
 10
67.63438880527556
 20
135.0455067651012
 30
0.0
 10
67.50958998366593
 20
134.8095797992901
 30
0.0
 10
67.44719057286144
 20
134.6916163163846
 30
0.0
 10
67.38953300631845
 20
134.5709132338752
 30
0.0
 10
67.33673728631528
 20
134.4474012271498
 30
0.0
 10
67.3103394263137
 20
134.3856452237872
 30
0.0
 10
67.28515485596476
 20
134.3231882426011
 30
0.0
 10
67.26120143318548
 20
134.2600199696861
 30
0.0
 10
67.23724801040617
 20
134.1968516967711
 30
0.0
 10
67.21460304481171
 20
134.1331439937786
 30
0.0
 10
67.19337228173909
 20
134.0692880316455
 30
0.0
 10
67.10844922944857
 20
133.8138641831167
 30
0.0
 10
67.0455177149129
 20
133.5542270367403
 30
0.0
 10
67.00411590937822
 20
133.2904653537211
 30
0.0
 10
66.98341500661102
 20
133.1585845122122
 30
0.0
 10
66.96810743242817
 20
133.0256704475526
 30
0.0
 10
66.95833629956327
 20
132.8916958833801
 30
0.0
 10
66.95711490795524
 20
132.8749490628585
 30
0.0
 10
66.95598260864476
 20
132.8581851820481
 30
0.0
 10
66.95493205797859
 20
132.8414056274279
 30
0.0
 10
66.95440678264552
 20
132.8330158501172
 30
0.0
 10
66.95391323055888
 20
132.8246200272547
 30
0.0
 10
66.95342709440547
 20
132.8162227383343
 30
0.0
 10
66.95294095825173
 20
132.8078254494153
 30
0.0
 10
66.9526051622565
 20
132.799399751987
 30
0.0
 10
66.95205099598863
 20
132.7910151451791
 30
0.0
 10
66.94983433091715
 20
132.7574767179528
 30
0.0
 10
66.94769947408365
 20
132.7239228388793
 30
0.0
 10
66.94554799703067
 20
132.6903720405875
 30
0.0
 10
66.94124504292442
 20
132.6232704440012
 30
0.0
 10
66.93699841864987
 20
132.5561579392218
 30
0.0
 10
66.93281021896232
 20
132.489044726271
 30
0.0
 10
66.9160574202124
 20
132.2205918744692
 30
0.0
 10
66.90023069216005
 20
131.9520875665462
 30
0.0
 10
66.88533628581509
 20
131.6835314550709
 30
0.0
 10
66.82575866043585
 20
130.6093070091723
 30
0.0
 10
66.78116545880776
 20
129.534302492463
 30
0.0
 10
66.75136345247787
 20
128.459101129699
 30
0.0
 10
66.72156144614799
 20
127.3838997669362
 30
0.0
 10
66.70665632328788
 20
126.3083443310928
 30
0.0
 10
66.7066655048971
 20
125.2324344073797
 30
0.0
  0
SPLINE
  5
A1
330
70
100
AcDbEntity
  8
PIEZA
 62
    18
420
        0
370
     9
100
AcDbSpline
210
0.0
220
0.0
230
1.0
 70
     8
 71
     3
 72
   101
 73
    97
 74
     0
 42
0.0000000001
 43
0.0000000001
 40
0.0
 40
0.0
 40
0.0
 40
0.0
 40
1.0
 40
1.0
 40
1.0
 40
2.0
 40
2.0
 40
2.0
 40
3.0
 40
3.0
 40
3.0
 40
4.0
 40
4.0
 40
4.0
 40
5.0
 40
5.0
 40
5.0
 40
6.0
 40
6.0
 40
6.0
 40
7.0
 40
7.0
 40
7.0
 40
8.0
 40
8.0
 40
8.0
 40
9.0
 40
9.0
 40
9.0
 40
10.0
 40
10.0
 40
10.0
 40
11.0
 40
11.0
 40
11.0
 40
12.0
 40
12.0
 40
12.0
 40
13.0
 40
13.0
 40
13.0
 40
14.0
 40
14.0
 40
14.0
 40
15.0
 40
15.0
 40
15.0
 40
16.0
 40
16.0
 40
16.0
 40
17.0
 40
17.0
 40
17.0
 40
18.0
 40
18.0
 40
18.0
 40
19.0
 40
19.0
 40
19.0
 40
20.0
 40
20.0
 40
20.0
 40
21.0
 40
21.0
 40
21.0
 40
22.0
 40
22.0
 40
22.0
 40
23.0
 40
23.0
 40
23.0
 40
24.0
 40
24.0
 40
24.0
 40
25.0
 40
25.0
 40
25.0
 40
26.0
 40
26.0
 40
26.0
 40
27.0
 40
27.0
 40
27.0
 40
28.0
 40
28.0
 40
28.0
 40
29.0
 40
29.0
 40
29.0
 40
30.0
 40
30.0
 40
30.0
 40
31.0
 40
31.0
 40
31.0
 40
32.0
 40
32.0
 40
32.0
 40
32.0
 10
97.74029416441226
 20
125.1934955784446
 30
0.0
 10
97.74142267603673
 20
124.8480937049415
 30
0.0
 10
97.72766775002969
 20
124.5024938835518
 30
0.0
 10
97.69933270852817
 20
124.1586994005043
 30
0.0
 10
97.67099766702635
 20
123.8149049174582
 30
0.0
 10
97.62800999595308
 20
123.47244296426
 30
0.0
 10
97.57040323078767
 20
123.131839314669
 30
0.0
 10
97.51279646562258
 20
122.7912356650781
 30
0.0
 10
97.44076127486261
 20
122.45392244954
 30
0.0
 10
97.3543587247124
 20
122.11988574143
 30
0.0
 10
97.31115744963744
 20
121.9528673873738
 30
0.0
 10
97.26431792388645
 20
121.7865092687449
 30
0.0
 10
97.21399817921096
 20
121.6213842311127
 30
0.0
 10
97.16367843453543
 20
121.4562591934804
 30
0.0
 10
97.109917216665
 20
121.292462259355
 30
0.0
 10
97.05274236663939
 20
121.1299826846051
 30
0.0
 10
96.93839266658853
 20
120.8050235351052
 30
0.0
 10
96.81035577419295
 20
120.4853464289268
 30
0.0
 10
96.66857178139192
 20
120.170974487843
 30
0.0
 10
96.59767978499173
 20
120.0137885173017
 30
0.0
 10
96.52323057589416
 20
119.8577574134367
 30
0.0
 10
96.44560959224468
 20
119.7036274213596
 30
0.0
 10
96.36798860859487
 20
119.5494974292824
 30
0.0
 10
96.28719762773295
 20
119.3972446387645
 30
0.0
 10
96.20325377410878
 20
119.2468589090887
 30
0.0
 10
96.03536606686015
 20
118.9460874497343
 30
0.0
 10
95.85489439551659
 20
118.6527679332293
 30
0.0
 10
95.66172623895822
 20
118.3669669964908
 30
0.0
 10
95.56514216067887
 20
118.2240665281209
 30
0.0
 10
95.46526400418459
 20
118.0829092143454
 30
0.0
 10
95.3626192133707
 20
117.9442428299503
 30
0.0
 10
95.25997442255651
 20
117.8055764455564
 30
0.0
 10
95.15450401237513
 20
117.6692949095395
 30
0.0
 10
95.04623809906901
 20
117.5353728047255
 30
0.0
 10
94.8297062724564
 20
117.2675285950989
 30
0.0
 10
94.60197118759532
 20
117.0091400410929
 30
0.0
 10
94.36299947721215
 20
116.7602353192028
 30
0.0
 10
94.24351362202058
 20
116.6357829582578
 30
0.0
 10
94.12110791074681
 20
116.5136465968784
 30
0.0
 10
93.99643390759305
 20
116.3944652418518
 30
0.0
 10
93.87175990443926
 20
116.2752838868264
 30
0.0
 10
93.74469363309877
 20
116.1589228318355
 30
0.0
 10
93.61525138672854
 20
116.0453628681882
 30
0.0
 10
93.3563668939881
 20
115.8182429408947
 30
0.0
 10
93.08799789053367
 20
115.6023045192607
 30
0.0
 10
92.81010152396168
 20
115.3975981388052
 30
0.0
 10
92.67115334067552
 20
115.2952449485782
 30
0.0
 10
92.52980421233756
 20
115.1957130188627
 30
0.0
 10
92.38672980099424
 20
115.0994760495924
 30
0.0
 10
92.24365538965095
 20
115.0032390803209
 30
0.0
 10
92.09869087663536
 20
114.9101752335931
 30
0.0
 10
91.95184117901257
 20
114.8202762535453
 30
0.0
 10
91.65814178376733
 20
114.6404782934499
 30
0.0
 10
91.35692384123997
 20
114.4733025281949
 30
0.0
 10
91.04815823595528
 20
114.3187978774988
 30
0.0
 10
90.89377543331323
 20
114.2415455521507
 30
0.0
 10
90.73762899611724
 20
114.1675411409506
 30
0.0
 10
90.58031287085837
 20
114.0970524017717
 30
0.0
 10
90.4229967455995
 20
114.0265636625929
 30
0.0
 10
90.26434395820436
 20
113.9595109061467
 30
0.0
 10
90.10435601445982
 20
113.8958902596522
 30
0.0
 10
89.78438012697045
 20
113.7686489666647
 30
0.0
 10
89.4590692669721
 20
113.6551215735275
 30
0.0
 10
89.12840051869745
 20
113.5553670034902
 30
0.0
 10
88.96306614456014
 20
113.5054897184708
 30
0.0
 10
88.79672017602642
 20
113.4591683229603
 30
0.0
 10
88.62974182536346
 20
113.4164843751098
 30
0.0
 10
88.46276347470016
 20
113.3738004272605
 30
0.0
 10
88.29503695781287
 20
113.3347188636757
 30
0.0
 10
88.12656247348293
 20
113.2992387618142
 30
0.0
 10
87.78961350482243
 20
113.2282785580886
 30
0.0
 10
87.44967040777913
 20
113.1717349885878
 30
0.0
 10
87.10671289801032
 20
113.1297057926538
 30
0.0
 10
86.76375538824181
 20
113.0876765967199
 30
0.0
 10
86.42010255537302
 20
113.0604373943676
 30
0.0
 10
86.07581583189263
 20
113.0478683509182
 30
0.0
 10
85.98974415102237
 20
113.0447260900556
 30
0.0
 10
85.90363158686749
 20
113.0425029422824
 30
0.0
 10
85.81747801550148
 20
113.0412017068364
 30
0.0
 10
85.77440122981847
 20
113.0405510891146
 30
0.0
 10
85.73131422249927
 20
113.0401302503098
 30
0.0
 10
85.68821689186091
 20
113.0399415366071
 30
0.0
 10
85.64511956122252
 20
113.0397528229058
 30
0.0
 10
85.60200229842795
 20
113.0400194495907
 30
0.0
 10
85.55889737400077
 20
113.0399913964249
 30
0.0
 10
85.38647767629212
 20
113.03987918376
 30
0.0
 10
85.21404824874833
 20
113.039994278661
 30
0.0
 10
85.04162374454189
 20
113.0399942643909
 30
0.0
 10
84.69677473612966
 20
113.0399942358507
 30
0.0
 10
84.35192572771713
 20
113.0399942383071
 30
0.0
 10
84.00707671930426
 20
113.0399942403811
 30
0.0
 10
82.62768068565314
 20
113.0399942486796
 30
0.0
 10
81.24828465199689
 20
113.0399942508819
 30
0.0
 10
79.86888861834962
 20
113.0399942523616
 30
0.0
 10
77.11009655105508
 20
113.0399942553198
 30
0.0
 10
74.35130448379517
 20
113.0399942553892
 30
0.0
 10
71.59251241649518
 20
113.039994255393
 30
0.0
  0
SPLINE
  5
A2
330
70
100
AcDbEntity
  8
PIEZA
 62
    18
420
        0
370
     9
100
AcDbSpline
210
0.0
220
0.0
230
1.0
 70
     8
 71
     3
 72
   101
 73
    97
 74
     0
 42
0.0000000001
 43
0.0000000001
 40
0.0
 40
0.0
 40
0.0
 40
0.0
 40
1.0
 40
1.0
 40
1.0
 40
2.0
 40
2.0
 40
2.0
 40
3.0
 40
3.0
 40
3.0
 40
4.0
 40
4.0
 40
4.0
 40
5.0
 40
5.0
 40
5.0
 40
6.0
 40
6.0
 40
6.0
 40
7.0
 40
7.0
 40
7.0
 40
8.0
 40
8.0
 40
8.0
 40
9.0
 40
9.0
 40
9.0
 40
10.0
 40
10.0
 40
10.0
 40
11.0
 40
11.0
 40
11.0
 40
12.0
 40
12.0
 40
12.0
 40
13.0
 40
13.0
 40
13.0
 40
14.0
 40
14.0
 40
14.0
 40
15.0
 40
15.0
 40
15.0
 40
16.0
 40
16.0
 40
16.0
 40
17.0
 40
17.0
 40
17.0
 40
18.0
 40
18.0
 40
18.0
 40
19.0
 40
19.0
 40
19.0
 40
20.0
 40
20.0
 40
20.0
 40
21.0
 40
21.0
 40
21.0
 40
22.0
 40
22.0
 40
22.0
 40
23.0
 40
23.0
 40
23.0
 40
24.0
 40
24.0
 40
24.0
 40
25.0
 40
25.0
 40
25.0
 40
26.0
 40
26.0
 40
26.0
 40
27.0
 40
27.0
 40
27.0
 40
28.0
 40
28.0
 40
28.0
 40
29.0
 40
29.0
 40
29.0
 40
30.0
 40
30.0
 40
30.0
 40
31.0
 40
31.0
 40
31.0
 40
32.0
 40
32.0
 40
32.0
 40
32.0
 10
97.74029416441226
 20
125.1935450226954
 30
0.0
 10
97.74142267603673
 20
125.5389468961972
 30
0.0
 10
97.72766775002969
 20
125.8845467175882
 30
0.0
 10
97.69933270852817
 20
126.2283412006344
 30
0.0
 10
97.67099766702635
 20
126.5721356836818
 30
0.0
 10
97.62800999595308
 20
126.9145976368788
 30
0.0
 10
97.57040323078767
 20
127.2552012864697
 30
0.0
 10
97.51279646562258
 20
127.5958049360607
 30
0.0
 10
97.44076127486261
 20
127.9331181515987
 30
0.0
 10
97.3543587247124
 20
128.26715485971
 30
0.0
 10
97.31115744963744
 20
128.434173213765
 30
0.0
 10
97.26431792388645
 20
128.6005313323939
 30
0.0
 10
97.21399817921096
 20
128.7656563700261
 30
0.0
 10
97.16367843453543
 20
128.9307814076583
 30
0.0
 10
97.109917216665
 20
129.094578341785
 30
0.0
 10
97.05274236663939
 20
129.2570579165337
 30
0.0
 10
96.93839266658853
 20
129.5820170660336
 30
0.0
 10
96.81035577419295
 20
129.9016941722132
 30
0.0
 10
96.66857178139192
 20
130.2160661132958
 30
0.0
 10
96.59767978499173
 20
130.3732520838371
 30
0.0
 10
96.52323057589384
 20
130.529283187702
 30
0.0
 10
96.44560959224435
 20
130.6834131797792
 30
0.0
 10
96.36798860859487
 20
130.8375431718563
 30
0.0
 10
96.28719762773295
 20
130.9897959623742
 30
0.0
 10
96.20325377410878
 20
131.1401816920514
 30
0.0
 10
96.03536606685983
 20
131.4409531514057
 30
0.0
 10
95.85489439551627
 20
131.7342726679107
 30
0.0
 10
95.66172623895788
 20
132.0200736046492
 30
0.0
 10
95.56514216067887
 20
132.1629740730178
 30
0.0
 10
95.46526400418427
 20
132.3041313867946
 30
0.0
 10
95.3626192133704
 20
132.4427977711885
 30
0.0
 10
95.25997442255651
 20
132.5814641555824
 30
0.0
 10
95.15450401237513
 20
132.7177456916006
 30
0.0
 10
95.04623809906867
 20
132.8516677964132
 30
0.0
 10
94.8297062724564
 20
133.1195120060399
 30
0.0
 10
94.60197118759532
 20
133.3779005600472
 30
0.0
 10
94.36299947721185
 20
133.6268052819359
 30
0.0
 10
94.24351362202026
 20
133.7512576428809
 30
0.0
 10
94.12110791074681
 20
133.8733940042603
 30
0.0
 10
93.99643390759305
 20
133.992575359287
 30
0.0
 10
93.87175990443926
 20
134.1117567143136
 30
0.0
 10
93.74469363309877
 20
134.2281177693032
 30
0.0
 10
93.61525138672854
 20
134.3416777329506
 30
0.0
 10
93.35636689398778
 20
134.5687976602441
 30
0.0
 10
93.08799789053367
 20
134.7847360818781
 30
0.0
 10
92.81010152396136
 20
134.9894424623335
 30
0.0
 10
92.67115334067522
 20
135.0917956525606
 30
0.0
 10
92.52980421233722
 20
135.191327582276
 30
0.0
 10
92.38672980099392
 20
135.2875645515463
 30
0.0
 10
92.24365538965063
 20
135.3838015208179
 30
0.0
 10
92.09869087663504
 20
135.4768653675457
 30
0.0
 10
91.95184117901257
 20
135.5667643475947
 30
0.0
 10
91.65814178376701
 20
135.7465623076902
 30
0.0
 10
91.35692384123933
 20
135.9137380729439
 30
0.0
 10
91.04815823595494
 20
136.06824272364
 30
0.0
 10
90.89377543331291
 20
136.145495048988
 30
0.0
 10
90.7376289961166
 20
136.2194994601894
 30
0.0
 10
90.58031287085805
 20
136.289988199367
 30
0.0
 10
90.42299674559918
 20
136.3604769385458
 30
0.0
 10
90.26434395820404
 20
136.4275296949934
 30
0.0
 10
90.10435601445951
 20
136.4911503414865
 30
0.0
 10
89.78438012697013
 20
136.6183916344753
 30
0.0
 10
89.45906926697146
 20
136.7319190276112
 30
0.0
 10
89.12840051869713
 20
136.8316735976486
 30
0.0
 10
88.96306614456014
 20
136.8815508826679
 30
0.0
 10
88.7967201760261
 20
136.9278722781784
 30
0.0
 10
88.62974182536312
 20
136.970556226029
 30
0.0
 10
88.46276347469984
 20
137.0132401738795
 30
0.0
 10
88.29503695781287
 20
137.052321737463
 30
0.0
 10
88.12656247348263
 20
137.0878018393258
 30
0.0
 10
87.78961350482211
 20
137.1587620430502
 30
0.0
 10
87.44967040777883
 20
137.2153056125509
 30
0.0
 10
87.10671289801032
 20
137.2573348084849
 30
0.0
 10
86.76375538824149
 20
137.2993640044189
 30
0.0
 10
86.4201025553727
 20
137.3266032067724
 30
0.0
 10
86.07581583189229
 20
137.3391722502218
 30
0.0
 10
85.98974415102203
 20
137.3423145110832
 30
0.0
 10
85.90363158686717
 20
137.3445376588563
 30
0.0
 10
85.81747801550115
 20
137.3458388943024
 30
0.0
 10
85.77440122981847
 20
137.3464895120241
 30
0.0
 10
85.73131422249895
 20
137.3469103508289
 30
0.0
 10
85.68821689186091
 20
137.3470990645316
 30
0.0
 10
85.64511956122252
 20
137.3472877782343
 30
0.0
 10
85.60200229842761
 20
137.347021151548
 30
0.0
 10
85.55889737400045
 20
137.3470492047139
 30
0.0
 10
85.3864776762918
 20
137.3471614173787
 30
0.0
 10
85.21404824874799
 20
137.3470463224777
 30
0.0
 10
85.04162374454189
 20
137.3470463367478
 30
0.0
 10
84.69677473612936
 20
137.347046365288
 30
0.0
 10
84.35192572771681
 20
137.3470463628329
 30
0.0
 10
84.00707671930426
 20
137.3470463607576
 30
0.0
 10
82.62768068565282
 20
137.3470463524592
 30
0.0
 10
81.24828465199657
 20
137.3470463502569
 30
0.0
 10
79.8688886183493
 20
137.3470463487771
 30
0.0
 10
77.11009655105475
 20
137.3470463458189
 30
0.0
 10
74.35130448379517
 20
137.3470463457496
 30
0.0
 10
71.59251241649485
 20
137.3470463457457
 30
0.0
  0
LINE
  5
A3
330
70
100
AcDbEntity
  8
PIEZA
 62
    18
420
        0
370
     9
100
AcDbLine
 10
51.559778420999
 20
141.8847273015293
 30
0.0
 11
51.559778420999
 21
142.2690816263757
 31
0.0
  0
LINE
  5
A4
330
70
100
AcDbEntity
  8
PIEZA
 62
    18
420
        0
370
     9
100
AcDbLine
 10
51.559778420999
 20
108.1179589747631
 30
0.0
 11
51.559778420999
 21
108.5023132996082
 31
0.0
  0
LINE
  5
A5
330
70
100
AcDbEntity
  8
PIEZA
 62
    18
420
        0
370
     9
100
AcDbLine
 10
51.559778420999
 20
108.5023132996082
 30
0.0
 11
51.559778420999
 21
141.8847273015293
 31
0.0
  0
LINE
  5
A6
330
70
100
AcDbEntity
  8
PIEZA
 62
    18
420
        0
370
     9
100
AcDbLine
 10
72.33501706444437
 20
129.2802507817929
 30
0.0
 11
70.77928668363573
 21
129.2802083083791
 31
0.0
  0
SPLINE
  5
A7
330
70
100
AcDbEntity
  8
PIEZA
 62
    18
420
        0
370
     9
100
AcDbSpline
210
0.0
220
0.0
230
1.0
 70
     8
 71
     3
 72
    59
 73
    55
 74
     0
 42
0.0000000001
 43
0.0000000001
 40
0.0
 40
0.0
 40
0.0
 40
0.0
 40
1.0
 40
1.0
 40
1.0
 40
2.0
 40
2.0
 40
2.0
 40
3.0
 40
3.0
 40
3.0
 40
4.0
 40
4.0
 40
4.0
 40
5.0
 40
5.0
 40
5.0
 40
6.0
 40
6.0
 40
6.0
 40
7.0
 40
7.0
 40
7.0
 40
8.0
 40
8.0
 40
8.0
 40
9.0
 40
9.0
 40
9.0
 40
10.0
 40
10.0
 40
10.0
 40
11.0
 40
11.0
 40
11.0
 40
12.0
 40
12.0
 40
12.0
 40
13.0
 40
13.0
 40
13.0
 40
14.0
 40
14.0
 40
14.0
 40
15.0
 40
15.0
 40
15.0
 40
16.0
 40
16.0
 40
16.0
 40
17.0
 40
17.0
 40
17.0
 40
18.0
 40
18.0
 40
18.0
 40
18.0
 10
70.77928623545067
 20
129.2802086026533
 30
0.0
 10
70.76968122584935
 20
129.2801330199997
 30
0.0
 10
70.76007621624772
 20
129.2800574373474
 30
0.0
 10
70.75047461931646
 20
129.2798205353773
 30
0.0
 10
70.73939715935399
 20
129.2795472191659
 30
0.0
 10
70.72832424181633
 20
129.2790591793405
 30
0.0
 10
70.71726129351924
 20
129.2784098609913
 30
0.0
 10
70.70468116826532
 20
129.2776714948762
 30
0.0
 10
70.69211393411944
 20
129.2767245813975
 30
0.0
 10
70.67956722823224
 20
129.275551845554
 30
0.0
 10
70.66546176052475
 20
129.2742334128329
 30
0.0
 10
70.65138223865279
 20
129.2726295613615
 30
0.0
 10
70.63734099376758
 20
129.2707474001284
 30
0.0
 10
70.62170169706513
 20
129.268651027747
 30
0.0
 10
70.60610988585548
 20
129.2662093910842
 30
0.0
 10
70.59057608607102
 20
129.2634198012873
 30
0.0
 10
70.55374093333442
 20
129.256804873343
 30
0.0
 10
70.51723197993611
 20
129.2482333983409
 30
0.0
 10
70.48130221550678
 20
129.2377597313149
 30
0.0
 10
70.45677488785653
 20
129.2306099192598
 30
0.0
 10
70.43251746587613
 20
129.2225736738644
 30
0.0
 10
70.40857156742524
 20
129.2136439289249
 30
0.0
 10
70.34503644801235
 20
129.1899508354177
 30
0.0
 10
70.28369441773358
 20
129.1599676098424
 30
0.0
 10
70.22599035341764
 20
129.12421552099
 30
0.0
 10
70.17671420882814
 20
129.0936851741149
 30
0.0
 10
70.13009095438528
 20
129.0589480367684
 30
0.0
 10
70.08688529789195
 20
129.0203354590921
 30
0.0
 10
70.03841685107637
 20
128.9770195643822
 30
0.0
 10
69.99424929053875
 20
128.9288266102919
 30
0.0
 10
69.95545835290482
 20
128.8766054209237
 30
0.0
 10
69.91913118711593
 20
128.8277010138724
 30
0.0
 10
69.88751935092658
 20
128.7752638210227
 30
0.0
 10
69.86143871926131
 20
128.7203160808261
 30
0.0
 10
69.85369702284227
 20
128.7040055585594
 30
0.0
 10
69.84644269304256
 20
128.6874738264347
 30
0.0
 10
69.83968252519128
 20
128.6707397558828
 30
0.0
 10
69.83292946884512
 20
128.6540232890977
 30
0.0
 10
69.82666953530562
 20
128.6371049093715
 30
0.0
 10
69.82091783031001
 20
128.6200163323264
 30
0.0
 10
69.81518032748448
 20
128.602969950575
 30
0.0
 10
69.80994854645526
 20
128.5857542109715
 30
0.0
 10
69.80522901718386
 20
128.5683983658875
 30
0.0
 10
69.80052781445362
 20
128.5511099157907
 30
0.0
 10
69.79633489292602
 20
128.5336824461953
 30
0.0
 10
69.79267199538814
 20
128.5161459482536
 30
0.0
 10
69.78902843037403
 20
128.4987020067521
 30
0.0
 10
69.78590930925348
 20
128.481150184755
 30
0.0
 10
69.78327361320705
 20
128.4635221949108
 30
0.0
 10
69.78065541313916
 20
128.4460112211876
 30
0.0
 10
69.77851424141213
 20
128.4284250874787
 30
0.0
 10
69.77703181134526
 20
128.4107887468045
 30
0.0
 10
69.7755611642726
 20
128.3932925873799
 30
0.0
 10
69.7747388285514
 20
128.3757470159511
 30
0.0
 10
69.77391649282989
 20
128.3582014445211
 30
0.0
  0
SPLINE
  5
A8
330
70
100
AcDbEntity
  8
PIEZA
 62
    18
420
        0
370
     9
100
AcDbSpline
210
0.0
220
0.0
230
1.0
 70
     8
 71
     3
 72
    50
 73
    46
 74
     0
 42
0.0000000001
 43
0.0000000001
 40
0.0
 40
0.0
 40
0.0
 40
0.0
 40
1.0
 40
1.0
 40
1.0
 40
2.0
 40
2.0
 40
2.0
 40
3.0
 40
3.0
 40
3.0
 40
4.0
 40
4.0
 40
4.0
 40
5.0
 40
5.0
 40
5.0
 40
6.0
 40
6.0
 40
6.0
 40
7.0
 40
7.0
 40
7.0
 40
8.0
 40
8.0
 40
8.0
 40
9.0
 40
9.0
 40
9.0
 40
10.0
 40
10.0
 40
10.0
 40
11.0
 40
11.0
 40
11.0
 40
12.0
 40
12.0
 40
12.0
 40
13.0
 40
13.0
 40
13.0
 40
14.0
 40
14.0
 40
14.0
 40
15.0
 40
15.0
 40
15.0
 40
15.0
 10
69.77398504468642
 20
122.0288438091166
 30
0.0
 10
69.77622172871257
 20
121.9958875525171
 30
0.0
 10
69.77836049538336
 20
121.9631139140197
 30
0.0
 10
69.7824978395381
 20
121.9307919037887
 30
0.0
 10
69.78670891183393
 20
121.8978939101136
 30
0.0
 10
69.79299042622547
 20
121.8654637843019
 30
0.0
 10
69.80108180849684
 20
121.8337000226336
 30
0.0
 10
69.80917319076822
 20
121.8019362609654
 30
0.0
 10
69.81907444091941
 20
121.7708388634407
 30
0.0
 10
69.830399895105
 20
121.7404574901137
 30
0.0
 10
69.84172534929061
 20
121.7100761167866
 30
0.0
 10
69.8544750075106
 20
121.680410767656
 30
0.0
 10
69.8687337334109
 20
121.6516525866363
 30
0.0
 10
69.88299245931121
 20
121.6228944056154
 30
0.0
 10
69.89876025289148
 20
121.595043392704
 30
0.0
 10
69.91580138859212
 20
121.5681665691304
 30
0.0
 10
69.93284252429245
 20
121.5412897455568
 30
0.0
 10
69.95115700211281
 20
121.5153871113209
 30
0.0
 10
69.97064459659082
 20
121.4905484256829
 30
0.0
 10
69.99013219106882
 20
121.4657097400435
 30
0.0
 10
70.01079290220413
 20
121.4419350030019
 30
0.0
 10
70.03247924768665
 20
121.4192837338071
 30
0.0
 10
70.05416559316917
 20
121.3966324646137
 30
0.0
 10
70.0768775729989
 20
121.3751046632672
 30
0.0
 10
70.1004955186509
 20
121.3547661164259
 30
0.0
 10
70.14773140995493
 20
121.3140890227432
 30
0.0
 10
70.19859116454873
 20
121.2781689470812
 30
0.0
 10
70.25203506651886
 20
121.2472225726054
 30
0.0
 10
70.30547896848929
 20
121.2162761981295
 30
0.0
 10
70.36150701783636
 20
121.1903035248396
 30
0.0
 10
70.41924245955566
 20
121.1694850588189
 30
0.0
 10
70.44811018041548
 20
121.1590758258086
 30
0.0
 10
70.47740474936796
 20
121.1499551446162
 30
0.0
 10
70.50701556637547
 20
121.1421308862118
 30
0.0
 10
70.53662638338299
 20
121.1343066278074
 30
0.0
 10
70.56655344844556
 20
121.1277787921936
 30
0.0
 10
70.59669374127107
 20
121.1225466103351
 30
0.0
 10
70.62683403409656
 20
121.1173144284779
 30
0.0
 10
70.65718755468566
 20
121.113377900376
 30
0.0
 10
70.68765237001478
 20
121.1107378265503
 30
0.0
 10
70.70288477767951
 20
121.1094177896368
 30
0.0
 10
70.71814500902893
 20
121.1084218662926
 30
0.0
 10
70.73342225841911
 20
121.1078283533183
 30
0.0
 10
70.74869935499188
 20
121.1072348462823
 30
0.0
 10
70.76399346926435
 20
121.1070437415654
 30
0.0
 10
70.77928714258082
 20
121.1070038589062
 30
0.0
  0
SPLINE
  5
A9
330
70
100
AcDbEntity
  8
PIEZA
 62
    18
420
        0
370
     9
100
AcDbSpline
210
0.0
220
0.0
230
1.0
 70
     8
 71
     3
 72
    32
 73
    28
 74
     0
 42
0.0000000001
 43
0.0000000001
 40
0.0
 40
0.0
 40
0.0
 40
0.0
 40
1.0
 40
1.0
 40
1.0
 40
2.0
 40
2.0
 40
2.0
 40
3.0
 40
3.0
 40
3.0
 40
4.0
 40
4.0
 40
4.0
 40
5.0
 40
5.0
 40
5.0
 40
6.0
 40
6.0
 40
6.0
 40
7.0
 40
7.0
 40
7.0
 40
8.0
 40
8.0
 40
8.0
 40
9.0
 40
9.0
 40
9.0
 40
9.0
 10
70.77928714258082
 20
121.1070038589062
 30
0.0
 10
70.84588226926611
 20
121.1068301929266
 30
0.0
 10
70.91180883983013
 20
121.1068284055189
 30
0.0
 10
70.97724728276498
 20
121.1068266313442
 30
0.0
 10
71.0426855753754
 20
121.1068248571747
 30
0.0
 10
71.10763574259909
 20
121.1068230962383
 30
0.0
 10
71.17227919578009
 20
121.1068213436184
 30
0.0
 10
71.23692264896141
 20
121.1068195909984
 30
0.0
 10
71.30125938810038
 20
121.1068178466936
 30
0.0
 10
71.36543796285216
 20
121.1068161066779
 30
0.0
 10
71.42961653760361
 20
121.1068143666609
 30
0.0
 10
71.49363694796756
 20
121.106812630933
 30
0.0
 10
71.55764776846631
 20
121.1068108954644
 30
0.0
 10
71.62165858896475
 20
121.106809159997
 30
0.0
 10
71.68565981959798
 20
121.1068074247876
 30
0.0
 10
71.7497992256436
 20
121.1068056858333
 30
0.0
 10
71.8139386316892
 20
121.1068039468789
 30
0.0
 10
71.8782162131475
 20
121.1068022041783
 30
0.0
 10
71.94277973529638
 20
121.106800453726
 30
0.0
 10
72.00734325744527
 20
121.1067987032725
 30
0.0
 10
72.07219272028506
 20
121.1067969450671
 30
0.0
 10
72.13750623731122
 20
121.1067951742794
 30
0.0
 10
72.17016299582448
 20
121.1067942888861
 30
0.0
 10
72.20293576788415
 20
121.1067934003473
 30
0.0
 10
72.23584681767737
 20
121.1067925080597
 30
0.0
 10
72.26875786747058
 20
121.106791615772
 30
0.0
 10
72.30180719499701
 20
121.1067907197343
 30
0.0
 10
72.33501706444437
 20
121.1067898193458
 30
0.0
  0
SPLINE
  5
AA
330
70
100
AcDbEntity
  8
PIEZA
 62
    18
420
        0
370
     9
100
AcDbSpline
210
0.0
220
0.0
230
1.0
 70
     8
 71
     3
 72
    35
 73
    31
 74
     0
 42
0.0000000001
 43
0.0000000001
 40
0.0
 40
0.0
 40
0.0
 40
0.0
 40
1.0
 40
1.0
 40
1.0
 40
2.0
 40
2.0
 40
2.0
 40
3.0
 40
3.0
 40
3.0
 40
4.0
 40
4.0
 40
4.0
 40
5.0
 40
5.0
 40
5.0
 40
6.0
 40
6.0
 40
6.0
 40
7.0
 40
7.0
 40
7.0
 40
8.0
 40
8.0
 40
8.0
 40
9.0
 40
9.0
 40
9.0
 40
10.0
 40
10.0
 40
10.0
 40
10.0
 10
69.77381577763434
 20
128.3546604312888
 30
0.0
 10
69.77095856101704
 20
128.2493168753939
 30
0.0
 10
69.76810134439975
 20
128.1439733194978
 30
0.0
 10
69.76543294517437
 20
128.0386249094153
 30
0.0
 10
69.76276451808288
 20
127.9332753991719
 30
0.0
 10
69.76028491232721
 20
127.8279210346383
 30
0.0
 10
69.75794361934986
 20
127.7225636486955
 30
0.0
 10
69.75560230713629
 20
127.617205397129
 30
0.0
 10
69.75339930997328
 20
127.511844124102
 30
0.0
 10
69.75134827086981
 20
127.4064798713083
 30
0.0
 10
69.7492972194608
 20
127.3011149863589
 30
0.0
 10
69.7473981279347
 20
127.1957471216069
 30
0.0
 10
69.74564737189928
 20
127.0903767993888
 30
0.0
 10
69.74389660889021
 20
126.9850060574303
 30
0.0
 10
69.74229418255385
 20
126.8796328579865
 30
0.0
 10
69.74084127197688
 20
126.7742575970947
 30
0.0
 10
69.73938835735367
 20
126.6688820427271
 30
0.0
 10
69.73808495932279
 20
126.5635044269
 30
0.0
 10
69.73692978789654
 20
126.4581251790987
 30
0.0
 10
69.73577461439409
 20
126.3527457419039
 30
0.0
 10
69.73476766802919
 20
126.2473646727272
 30
0.0
 10
69.73391259419816
 20
126.141982392925
 30
0.0
 10
69.73305751968308
 20
126.0366000288227
 30
0.0
 10
69.73235431794478
 20
125.931216454091
 30
0.0
 10
69.73178936689944
 20
125.8258320860589
 30
0.0
 10
69.73122441597088
 20
125.7204477397997
 30
0.0
 10
69.73079771567819
 20
125.61506260024
 30
0.0
 10
69.73055978349782
 20
125.5096771059543
 30
0.0
 10
69.73032185160848
 20
125.40429174046
 30
0.0
 10
69.73027268737038
 20
125.2989060202397
 30
0.0
 10
69.73022352313195
 20
125.1935203000194
 30
0.0
  0
SPLINE
  5
AB
330
70
100
AcDbEntity
  8
PIEZA
 62
    18
420
        0
370
     9
100
AcDbSpline
210
0.0
220
0.0
230
1.0
 70
     8
 71
     3
 72
    26
 73
    22
 74
     0
 42
0.0000000001
 43
0.0000000001
 40
0.0
 40
0.0
 40
0.0
 40
0.0
 40
1.0
 40
1.0
 40
1.0
 40
2.0
 40
2.0
 40
2.0
 40
3.0
 40
3.0
 40
3.0
 40
4.0
 40
4.0
 40
4.0
 40
5.0
 40
5.0
 40
5.0
 40
6.0
 40
6.0
 40
6.0
 40
7.0
 40
7.0
 40
7.0
 40
7.0
 10
69.73022509621255
 20
125.19352030057
 30
0.0
 10
69.73022509606528
 20
125.1935198781395
 30
0.0
 10
69.73022509591801
 20
125.1935194557103
 30
0.0
 10
69.73022509577074
 20
125.1935190332799
 30
0.0
 10
69.73013315784886
 20
124.929895449591
 30
0.0
 10
69.73097567541937
 20
124.6640346049892
 30
0.0
 10
69.73277854120055
 20
124.3976135463685
 30
0.0
 10
69.73458140698207
 20
124.1311924877491
 30
0.0
 10
69.73734462097425
 20
123.8642112151108
 30
0.0
 10
69.74104339945402
 20
123.598427023709
 30
0.0
 10
69.74289278869406
 20
123.4655349280088
 30
0.0
 10
69.74497606905616
 20
123.3329421026177
 30
0.0
 10
69.74728441900191
 20
123.2008493429797
 30
0.0
 10
69.74959276894799
 20
123.0687565833431
 30
0.0
 10
69.75212618847803
 20
122.9371638894596
 30
0.0
 10
69.75487585605397
 20
122.8062720567746
 30
0.0
 10
69.75762552362991
 20
122.6753802240896
 30
0.0
 10
69.76059143925207
 20
122.5451892526044
 30
0.0
 10
69.76376066882817
 20
122.4158584478132
 30
0.0
 10
69.76691519197906
 20
122.2871277869202
 30
0.0
 10
69.77027114655486
 20
122.159249328248
 30
0.0
 10
69.77381577768631
 20
122.0323801698512
 30
0.0
  0
SPLINE
  5
AC
330
70
100
AcDbEntity
  8
PIEZA
 62
    18
420
        0
370
     9
100
AcDbSpline
210
0.0
220
0.0
230
1.0
 70
     8
 71
     3
 72
   101
 73
    97
 74
     0
 42
0.0000000001
 43
0.0000000001
 40
0.0
 40
0.0
 40
0.0
 40
0.0
 40
1.0
 40
1.0
 40
1.0
 40
2.0
 40
2.0
 40
2.0
 40
3.0
 40
3.0
 40
3.0
 40
4.0
 40
4.0
 40
4.0
 40
5.0
 40
5.0
 40
5.0
 40
6.0
 40
6.0
 40
6.0
 40
7.0
 40
7.0
 40
7.0
 40
8.0
 40
8.0
 40
8.0
 40
9.0
 40
9.0
 40
9.0
 40
10.0
 40
10.0
 40
10.0
 40
11.0
 40
11.0
 40
11.0
 40
12.0
 40
12.0
 40
12.0
 40
13.0
 40
13.0
 40
13.0
 40
14.0
 40
14.0
 40
14.0
 40
15.0
 40
15.0
 40
15.0
 40
16.0
 40
16.0
 40
16.0
 40
17.0
 40
17.0
 40
17.0
 40
18.0
 40
18.0
 40
18.0
 40
19.0
 40
19.0
 40
19.0
 40
20.0
 40
20.0
 40
20.0
 40
21.0
 40
21.0
 40
21.0
 40
22.0
 40
22.0
 40
22.0
 40
23.0
 40
23.0
 40
23.0
 40
24.0
 40
24.0
 40
24.0
 40
25.0
 40
25.0
 40
25.0
 40
26.0
 40
26.0
 40
26.0
 40
27.0
 40
27.0
 40
27.0
 40
28.0
 40
28.0
 40
28.0
 40
29.0
 40
29.0
 40
29.0
 40
30.0
 40
30.0
 40
30.0
 40
31.0
 40
31.0
 40
31.0
 40
32.0
 40
32.0
 40
32.0
 40
32.0
 10
83.20418240753561
 20
125.1935215678614
 30
0.0
 10
83.20408902014843
 20
125.2143914641684
 30
0.0
 10
83.20399563276124
 20
125.2352613604753
 30
0.0
 10
83.20369721084146
 20
125.2561287502776
 30
0.0
 10
83.20339881741729
 20
125.2769941475042
 30
0.0
 10
83.20289542861505
 20
125.2978570387048
 30
0.0
 10
83.20224209215853
 20
125.3187149209529
 30
0.0
 10
83.20158893098081
 20
125.3395672073904
 30
0.0
 10
83.20078590259475
 20
125.3604144875626
 30
0.0
 10
83.19981842354843
 20
125.3812542634074
 30
0.0
 10
83.19885137192084
 20
125.4020848325354
 30
0.0
 10
83.19772001490497
 20
125.4229079039633
 30
0.0
 10
83.19642846384763
 20
125.4437209862972
 30
0.0
 10
83.19513770828695
 20
125.4645212493682
 30
0.0
 10
83.19368695595882
 20
125.4853115356466
 30
0.0
 10
83.19207535721039
 20
125.5060893621663
 30
0.0
 10
83.19046503262695
 20
125.5268507612831
 30
0.0
 10
83.18869411585957
 20
125.5475997203375
 30
0.0
 10
83.18676312967125
 20
125.5683337661176
 30
0.0
 10
83.18483400844547
 20
125.5890477867873
 30
0.0
 10
83.18274512684229
 20
125.6097469229743
 30
0.0
 10
83.18049668373804
 20
125.6304287142725
 30
0.0
 10
83.17825080702858
 20
125.6510868991738
 30
0.0
 10
83.17584573286064
 20
125.6717277787585
 30
0.0
 10
83.17328179102423
 20
125.6923489018915
 30
0.0
 10
83.17072122680599
 20
125.7129428597109
 30
0.0
 10
83.1680022132137
 20
125.7335171130961
 30
0.0
 10
83.16512508295707
 20
125.7540692410436
 30
0.0
 10
83.1622522498913
 20
125.7745906729839
 30
0.0
 10
83.15922177212476
 20
125.7950900455263
 30
0.0
 10
83.15603403958581
 20
125.8155648977115
 30
0.0
 10
83.15285163050255
 20
125.8360055572649
 30
0.0
 10
83.14951249143351
 20
125.8564217782905
 30
0.0
 10
83.14601697653497
 20
125.8768113282057
 30
0.0
 10
83.14252791618612
 20
125.8971632283408
 30
0.0
 10
83.13888305697796
 20
125.9174885557725
 30
0.0
 10
83.13508303015019
 20
125.9377843147828
 30
0.0
 10
83.131290691243
 20
125.958039012986
 30
0.0
 10
83.12734381192791
 20
125.9782642622881
 30
0.0
 10
83.12324214089473
 20
125.9984600003661
 30
0.0
 10
83.09657809905576
 20
126.1297479561051
 30
0.0
 10
83.063372546862
 20
126.2597887651176
 30
0.0
 10
83.02382162304606
 20
126.3878477582207
 30
0.0
 10
82.98409087176388
 20
126.5164890012941
 30
0.0
 10
82.93795691626973
 20
126.6431303659161
 30
0.0
 10
82.88565482202958
 20
126.7671750561223
 30
0.0
 10
82.83377162055396
 20
126.8902262598544
 30
0.0
 10
82.77581868716735
 20
127.0107222166627
 30
0.0
 10
82.71209353730656
 20
127.1280844011072
 30
0.0
 10
82.64744366575744
 20
127.247149639331
 30
0.0
 10
82.57685283990694
 20
127.3629894963708
 30
0.0
 10
82.50068759826055
 20
127.4750352992387
 30
0.0
 10
82.42636439069368
 20
127.5843713071541
 30
0.0
 10
82.34673313808416
 20
127.6900945579351
 30
0.0
 10
82.26217964123268
 20
127.7917270645684
 30
0.0
 10
82.17545971280259
 20
127.895963601551
 30
0.0
 10
82.083562073033
 20
127.9958970825848
 30
0.0
 10
81.98695615647215
 20
128.0910420562967
 30
0.0
 10
81.89299496577495
 20
128.1835822995555
 30
0.0
 10
81.79457976127075
 20
128.271592631197
 30
0.0
 10
81.69216992889095
 20
128.354689001084
 30
0.0
 10
81.58543837373921
 20
128.4412920603737
 30
0.0
 10
81.47436792806219
 20
128.5225576657735
 30
0.0
 10
81.35953315984147
 20
128.5980836012085
 30
0.0
 10
81.2516806125315
 20
128.6690173841633
 30
0.0
 10
81.14050758539438
 20
128.734888248596
 30
0.0
 10
81.02649918872717
 20
128.7954294403749
 30
0.0
 10
80.90403569696059
 20
128.8604604903467
 30
0.0
 10
80.77830068754037
 20
128.919342035648
 30
0.0
 10
80.64992571335691
 20
128.9717843504226
 30
0.0
 10
80.52488492554067
 20
129.0228646205136
 30
0.0
 10
80.39733952377998
 20
129.0678357990025
 30
0.0
 10
80.2679569363485
 20
129.1064820193385
 30
0.0
 10
80.20757868304841
 20
129.1245168362875
 30
0.0
 10
80.1468003353457
 20
129.1411742310221
 30
0.0
 10
80.0856698701774
 20
129.1564433675673
 30
0.0
 10
80.01673774579399
 20
129.1736611985886
 30
0.0
 10
79.94735789213504
 20
129.1891138123348
 30
0.0
 10
79.87763545748825
 20
129.202777628779
 30
0.0
 10
79.82985155233231
 20
129.2121420537636
 30
0.0
 10
79.78190673776371
 20
129.2206662852383
 30
0.0
 10
79.73382195086081
 20
129.2283464098761
 30
0.0
 10
79.64984837097303
 20
129.2417587093016
 30
0.0
 10
79.56544790485191
 20
129.2525966600849
 30
0.0
 10
79.48081103109965
 20
129.2608437207533
 30
0.0
 10
79.44101174020136
 20
129.2647217842024
 30
0.0
 10
79.40116017443656
 20
129.2680269455229
 30
0.0
 10
79.36126847097696
 20
129.2707482778725
 30
0.0
 10
79.32565042446381
 20
129.27317806988
 30
0.0
 10
79.29000037961042
 20
129.275142425138
 30
0.0
 10
79.25433113262812
 20
129.2766762793735
 30
0.0
 10
79.22283225602429
 20
129.2780307987242
 30
0.0
 10
79.19131840494502
 20
129.2790495986776
 30
0.0
 10
79.15979753523055
 20
129.2796206826585
 30
0.0
 10
79.13234913520025
 20
129.2801179830738
 30
0.0
 10
79.10489541298005
 20
129.2802757831024
 30
0.0
 10
79.07744169075984
 20
129.2804335831309
 30
0.0
  0
LINE
  5
AD
330
70
100
AcDbEntity
  8
PIEZA
 62
    18
420
        0
370
     9
100
AcDbLine
 10
79.07744145988904
 20
129.2804334180949
 30
0.0
 11
72.33501706444437
 21
129.2802507817929
 31
0.0
  0
LINE
  5
AE
330
70
100
AcDbEntity
  8
PIEZA
 62
    18
420
        0
370
     9
100
AcDbLine
 10
79.07744145988904
 20
121.1066071830439
 30
0.0
 11
72.33501706444468
 21
121.1067898193458
 31
0.0
  0
SPLINE
  5
AF
330
70
100
AcDbEntity
  8
PIEZA
 62
    18
420
        0
370
     9
100
AcDbSpline
210
0.0
220
0.0
230
1.0
 70
     8
 71
     3
 72
    83
 73
    79
 74
     0
 42
0.0000000001
 43
0.0000000001
 40
0.0
 40
0.0
 40
0.0
 40
0.0
 40
1.0
 40
1.0
 40
1.0
 40
2.0
 40
2.0
 40
2.0
 40
3.0
 40
3.0
 40
3.0
 40
4.0
 40
4.0
 40
4.0
 40
5.0
 40
5.0
 40
5.0
 40
6.0
 40
6.0
 40
6.0
 40
7.0
 40
7.0
 40
7.0
 40
8.0
 40
8.0
 40
8.0
 40
9.0
 40
9.0
 40
9.0
 40
10.0
 40
10.0
 40
10.0
 40
11.0
 40
11.0
 40
11.0
 40
12.0
 40
12.0
 40
12.0
 40
13.0
 40
13.0
 40
13.0
 40
14.0
 40
14.0
 40
14.0
 40
15.0
 40
15.0
 40
15.0
 40
16.0
 40
16.0
 40
16.0
 40
17.0
 40
17.0
 40
17.0
 40
18.0
 40
18.0
 40
18.0
 40
19.0
 40
19.0
 40
19.0
 40
20.0
 40
20.0
 40
20.0
 40
21.0
 40
21.0
 40
21.0
 40
22.0
 40
22.0
 40
22.0
 40
23.0
 40
23.0
 40
23.0
 40
24.0
 40
24.0
 40
24.0
 40
25.0
 40
25.0
 40
25.0
 40
26.0
 40
26.0
 40
26.0
 40
26.0
 10
79.07744156887682
 20
121.1067033949431
 30
0.0
 10
79.10615813647133
 20
121.1067720759836
 30
0.0
 10
79.13498482780044
 20
121.1069452323091
 30
0.0
 10
79.16391388808332
 20
121.107499266131
 30
0.0
 10
79.19284291176849
 20
121.108053299252
 30
0.0
 10
79.22187430414851
 20
121.1089882089056
 30
0.0
 10
79.25100224700718
 20
121.1102197616627
 30
0.0
 10
79.3092581327242
 20
121.1126828671755
 30
0.0
 10
79.36790022035511
 20
121.1163325451006
 30
0.0
 10
79.42687387311416
 20
121.1212955915248
 30
0.0
 10
79.48584752587321
 20
121.1262586379502
 30
0.0
 10
79.54515274376039
 20
121.1325350528773
 30
0.0
 10
79.60472514658599
 20
121.1401471200751
 30
0.0
 10
79.66429754941161
 20
121.1477591872728
 30
0.0
 10
79.72413713717632
 20
121.1567069067427
 30
0.0
 10
79.78417974685517
 20
121.167052839187
 30
0.0
 10
79.90426496621257
 20
121.187744704073
 30
0.0
 10
80.02516227322754
 20
121.2140294208531
 30
0.0
 10
80.1462429584336
 20
121.2462165873779
 30
0.0
 10
80.26732364363963
 20
121.2784037539014
 30
0.0
 10
80.38858770703678
 20
121.3164933701696
 30
0.0
 10
80.50931988919392
 20
121.3607715083762
 30
0.0
 10
80.63005207135137
 20
121.4050496465828
 30
0.0
 10
80.75025237226821
 20
121.4555163067291
 30
0.0
 10
80.86908974403256
 20
121.5122743869269
 30
0.0
 10
80.9879271157966
 20
121.5690324671248
 30
0.0
 10
81.10540155840785
 20
121.6320819673742
 30
0.0
 10
81.22064133845915
 20
121.7014909799992
 30
0.0
 10
81.45112089856176
 20
121.8403090052492
 30
0.0
 10
81.67266180842492
 20
122.004565079999
 30
0.0
 10
81.87769259389144
 20
122.192219733481
 30
0.0
 10
81.9802079866247
 20
122.2860470602219
 30
0.0
 10
82.07859584825904
 20
122.3857240316466
 30
0.0
 10
82.17200724887367
 20
122.4906041323241
 30
0.0
 10
82.26541864948863
 20
122.5954842330003
 30
0.0
 10
82.35385358908422
 20
122.7055674629305
 30
0.0
 10
82.43646313774057
 20
122.8202073066813
 30
0.0
 10
82.5190726863966
 20
122.9348471504321
 30
0.0
 10
82.59585684411344
 20
123.0540436080048
 30
0.0
 10
82.66625658175954
 20
123.1768477744629
 30
0.0
 10
82.73665631940565
 20
123.299651940921
 30
0.0
 10
82.80067163698067
 20
123.4260638162645
 30
0.0
 10
82.85774350535374
 20
123.5551344955572
 30
0.0
 10
82.91481537372652
 20
123.6842051748498
 30
0.0
 10
82.96494379289732
 20
123.8159346580927
 30
0.0
 10
83.00800362556806
 20
123.9492588298992
 30
0.0
 10
83.02953354190327
 20
124.0159209158017
 30
0.0
 10
83.04929631161369
 20
124.0829816738448
 30
0.0
 10
83.06727629253671
 20
124.1503080896074
 30
0.0
 10
83.08525627345941
 20
124.2176345053687
 30
0.0
 10
83.10145346559535
 20
124.2852265788481
 30
0.0
 10
83.11585222678157
 20
124.3529512956207
 30
0.0
 10
83.13025098796778
 20
124.4206760123946
 30
0.0
 10
83.14285131820428
 20
124.4885333724629
 30
0.0
 10
83.1536800781363
 20
124.5564050535405
 30
0.0
 10
83.16450883806799
 20
124.6242767346181
 30
0.0
 10
83.17356602769487
 20
124.6921627367049
 30
0.0
 10
83.18087850766188
 20
124.759944737517
 30
0.0
 10
83.18819098762855
 20
124.8277267383303
 30
0.0
 10
83.19375875793499
 20
124.8954047378677
 30
0.0
 10
83.1976086792258
 20
124.962860413845
 30
0.0
 10
83.19953363987137
 20
124.9965882518337
 30
0.0
 10
83.20102913826273
 20
125.0302605089329
 30
0.0
 10
83.20209853198097
 20
125.0638623948566
 30
0.0
 10
83.20316792569952
 20
125.097464280779
 30
0.0
 10
83.20381121474436
 20
125.130995795527
 30
0.0
 10
83.20403175656087
 20
125.1644421282286
 30
0.0
 10
83.20404754087205
 20
125.1668359024981
 30
0.0
 10
83.20406216370857
 20
125.1692440062947
 30
0.0
 10
83.20407587587856
 20
125.1716613949835
 30
0.0
 10
83.20408958804888
 20
125.1740787836724
 30
0.0
 10
83.20410238955295
 20
125.1765054572535
 30
0.0
 10
83.204114560855
 20
125.1789359240807
 30
0.0
 10
83.20412673215704
 20
125.1813663909065
 30
0.0
 10
83.20413827325703
 20
125.1838006509784
 30
0.0
 10
83.20415219210159
 20
125.1862330348943
 30
0.0
 10
83.20416611094648
 20
125.1886654188089
 30
0.0
 10
83.20418240753561
 20
125.1910959265662
 30
0.0
 10
83.20418240753561
 20
125.1935190332786
 30
0.0
  0
LINE
  5
B0
330
70
100
AcDbEntity
  8
PIEZA
 62
    18
420
        0
370
     9
100
AcDbLine
 10
69.77392461542715
 20
128.3582018395562
 30
0.0
 11
69.77388460028112
 21
128.3570235849468
 31
0.0
  0
LWPOLYLINE
  5
B1
330
70
100
AcDbEntity
  8
PIEZA
 62
    18
420
        0
370
     9
100
AcDbPolyline
 90
        3
 70
     0
 43
0.0
 10
69.77386536561614
 20
128.3564347621457
 10
69.7738405677051
 20
128.3555475968398
 10
69.77381577724867
 20
128.3546604312991
  0
LINE
  5
B2
330
70
100
AcDbEntity
  8
PIEZA
 62
    18
420
        0
370
     9
100
AcDbLine
 10
69.77388047360314
 20
122.0306065630208
 30
0.0
 11
69.77383230574109
 21
122.0317887910255
 31
0.0
  0
LINE
  5
B3
330
70
100
AcDbEntity
  8
PIEZA
 62
    18
420
        0
370
     9
100
AcDbLine
 10
69.77398526409776
 20
122.0288405762074
 30
0.0
 11
69.77391039791595
 21
122.0300176271805
 31
0.0
  0
SPLINE
  5
B4
330
70
100
AcDbEntity
  8
PIEZA
 62
    18
420
        0
370
     9
100
AcDbSpline
210
0.0
220
0.0
230
1.0
 70
     8
 71
     3
 72
   101
 73
    97
 74
     0
 42
0.0000000001
 43
0.0000000001
 40
0.0
 40
0.0
 40
0.0
 40
0.0
 40
1.0
 40
1.0
 40
1.0
 40
2.0
 40
2.0
 40
2.0
 40
3.0
 40
3.0
 40
3.0
 40
4.0
 40
4.0
 40
4.0
 40
5.0
 40
5.0
 40
5.0
 40
6.0
 40
6.0
 40
6.0
 40
7.0
 40
7.0
 40
7.0
 40
8.0
 40
8.0
 40
8.0
 40
9.0
 40
9.0
 40
9.0
 40
10.0
 40
10.0
 40
10.0
 40
11.0
 40
11.0
 40
11.0
 40
12.0
 40
12.0
 40
12.0
 40
13.0
 40
13.0
 40
13.0
 40
14.0
 40
14.0
 40
14.0
 40
15.0
 40
15.0
 40
15.0
 40
16.0
 40
16.0
 40
16.0
 40
17.0
 40
17.0
 40
17.0
 40
18.0
 40
18.0
 40
18.0
 40
19.0
 40
19.0
 40
19.0
 40
20.0
 40
20.0
 40
20.0
 40
21.0
 40
21.0
 40
21.0
 40
22.0
 40
22.0
 40
22.0
 40
23.0
 40
23.0
 40
23.0
 40
24.0
 40
24.0
 40
24.0
 40
25.0
 40
25.0
 40
25.0
 40
26.0
 40
26.0
 40
26.0
 40
27.0
 40
27.0
 40
27.0
 40
28.0
 40
28.0
 40
28.0
 40
29.0
 40
29.0
 40
29.0
 40
30.0
 40
30.0
 40
30.0
 40
31.0
 40
31.0
 40
31.0
 40
32.0
 40
32.0
 40
32.0
 40
32.0
 10
73.61947785670601
 20
128.8006131046024
 30
0.0
 10
73.6239713509444
 20
128.7997408351166
 30
0.0
 10
73.62846484518311
 20
128.7988685656322
 30
0.0
 10
73.63289183762431
 20
128.7977981107542
 30
0.0
 10
73.6373933658612
 20
128.7967096329861
 30
0.0
 10
73.64182613411161
 20
128.7954162400827
 30
0.0
 10
73.64620929086034
 20
128.793972423371
 30
0.0
 10
73.65066571607094
 20
128.7925044719464
 30
0.0
 10
73.65507085731422
 20
128.7908810257393
 30
0.0
 10
73.65942025853737
 20
128.7890872545381
 30
0.0
 10
73.66384181332678
 20
128.7872637259096
 30
0.0
 10
73.6682057633793
 20
128.7852641742653
 30
0.0
 10
73.67251406188211
 20
128.7830929136489
 30
0.0
 10
73.67689326095586
 20
128.7808859211496
 30
0.0
 10
73.68121496172171
 20
128.7785015216346
 30
0.0
 10
73.68547928133239
 20
128.7759388820157
 30
0.0
 10
73.68981318651965
 20
128.773334424997
 30
0.0
 10
73.69408782256986
 20
128.7705458633355
 30
0.0
 10
73.69830373805003
 20
128.7675738976022
 30
0.0
 10
73.70258783853318
 20
128.7645538655589
 30
0.0
 10
73.70681130368244
 20
128.7613444489949
 30
0.0
 10
73.71097447710233
 20
128.7579460503658
 30
0.0
 10
73.71520435306853
 20
128.7544932024439
 30
0.0
 10
73.71937198983443
 20
128.750845268187
 30
0.0
 10
73.72347775258614
 20
128.7470028887025
 30
0.0
 10
73.72764865073894
 20
128.7430995522306
 30
0.0
 10
73.73175569611902
 20
128.7389955520876
 30
0.0
 10
73.73579901498063
 20
128.7346915374341
 30
0.0
 10
73.73990581448343
 20
128.730319949183
 30
0.0
 10
73.74394687073028
 20
128.7257420166111
 30
0.0
 10
73.7479229010396
 20
128.720958827728
 30
0.0
 10
73.75196067574535
 20
128.7161013599569
 30
0.0
 10
73.75593138923706
 20
128.7110322114598
 30
0.0
 10
73.75983322653606
 20
128.7057514392889
 30
0.0
 10
73.77852280949816
 20
128.680456835231
 30
0.0
 10
73.79563212702888
 20
128.6503068295702
 30
0.0
 10
73.81128770601184
 20
128.6154460199139
 30
0.0
 10
73.82870724575197
 20
128.5766573389067
 30
0.0
 10
73.84432699732967
 20
128.5320364886417
 30
0.0
 10
73.85830790687371
 20
128.4818390870783
 30
0.0
 10
73.87094499863194
 20
128.4364665619512
 30
0.0
 10
73.88224315222633
 20
128.3865379800472
 30
0.0
 10
73.89236911880437
 20
128.332256932105
 30
0.0
 10
73.90363409077512
 20
128.2718701553075
 30
0.0
 10
73.91344834087501
 20
128.2060966803278
 30
0.0
 10
73.92174479126198
 20
128.135323943739
 30
0.0
 10
73.92805601563821
 20
128.0814861457083
 30
0.0
 10
73.93348891132916
 20
128.024755347476
 30
0.0
 10
73.93826049357105
 20
127.9652701706039
 30
0.0
 10
73.94531921844414
 20
127.8772722117925
 30
0.0
 10
73.95093072171156
 20
127.7832465572162
 30
0.0
 10
73.95530812690569
 20
127.6838358930721
 30
0.0
 10
73.9593173702354
 20
127.5927861673932
 30
0.0
 10
73.96229137365351
 20
127.4972191533798
 30
0.0
 10
73.96437045960567
 20
127.3976517276302
 30
0.0
 10
73.96610732311517
 20
127.3144733345656
 30
0.0
 10
73.96721963336645
 20
127.2285030972498
 30
0.0
 10
73.96781410669245
 20
127.1400425176248
 30
0.0
 10
73.96850311307584
 20
127.0375149502013
 30
0.0
 10
73.96849649513289
 20
126.9316420387024
 30
0.0
 10
73.96804688284671
 20
126.8229611360077
 30
0.0
 10
73.96765261267718
 20
126.7276576061687
 30
0.0
 10
73.96691769149867
 20
126.6301948048909
 30
0.0
 10
73.96604239458596
 20
126.5309717482194
 30
0.0
 10
73.96566455043177
 20
126.4881395944673
 30
0.0
 10
73.96526054814938
 20
126.4449794282814
 30
0.0
 10
73.96482879389473
 20
126.4015169155402
 30
0.0
 10
73.96440552902287
 20
126.3589089859772
 30
0.0
 10
73.96395559279802
 20
126.3160104827673
 30
0.0
 10
73.96348959562523
 20
126.2728529860763
 30
0.0
 10
73.96303307960422
 20
126.2305735693109
 30
0.0
 10
73.96256114953718
 20
126.1880455907856
 30
0.0
 10
73.96208163121217
 20
126.1452973936658
 30
0.0
 10
73.9616121777059
 20
126.1034464570175
 30
0.0
 10
73.96113545114518
 20
126.0613844492829
 30
0.0
 10
73.96066037397943
 20
126.0191388205926
 30
0.0
 10
73.96019555533185
 20
125.9778054174999
 30
0.0
 10
73.95973231561652
 20
125.9362962378257
 30
0.0
 10
73.95927958547416
 20
125.8946372176846
 30
0.0
 10
73.95883688703438
 20
125.8539012880929
 30
0.0
 10
73.95840423758037
 20
125.8130220848667
 30
0.0
 10
73.95799102307684
 20
125.7720241997073
 30
0.0
 10
73.95758718218529
 20
125.7319563357947
 30
0.0
 10
73.9572019044967
 20
125.691775113384
 30
0.0
 10
73.95684420636834
 20
125.6515037612297
 30
0.0
 10
73.95649479723333
 20
125.6121656232383
 30
0.0
 10
73.95617170425774
 20
125.572741484286
 30
0.0
 10
73.95588623872058
 20
125.5332532585438
 30
0.0
 10
73.95560751717884
 20
125.4946979244646
 30
0.0
 10
73.95536466621267
 20
125.4560814958715
 30
0.0
 10
73.9551616798374
 20
125.4174246052818
 30
0.0
 10
73.95496357316272
 20
125.3796970088284
 30
0.0
 10
73.9548034374626
 20
125.3419308723734
 30
0.0
 10
73.95471246447063
 20
125.3041456324713
 30
0.0
 10
73.95462371293612
 20
125.2672830655124
 30
0.0
 10
73.95460078759914
 20
125.2304023166863
 30
0.0
 10
73.95457786226245
 20
125.1935215678614
 30
0.0
  0
SPLINE
  5
B5
330
70
100
AcDbEntity
  8
PIEZA
 62
    18
420
        0
370
     9
100
AcDbSpline
210
0.0
220
0.0
230
1.0
 70
     8
 71
     3
 72
    38
 73
    34
 74
     0
 42
0.0000000001
 43
0.0000000001
 40
0.0
 40
0.0
 40
0.0
 40
0.0
 40
1.0
 40
1.0
 40
1.0
 40
2.0
 40
2.0
 40
2.0
 40
3.0
 40
3.0
 40
3.0
 40
4.0
 40
4.0
 40
4.0
 40
5.0
 40
5.0
 40
5.0
 40
6.0
 40
6.0
 40
6.0
 40
7.0
 40
7.0
 40
7.0
 40
8.0
 40
8.0
 40
8.0
 40
9.0
 40
9.0
 40
9.0
 40
10.0
 40
10.0
 40
10.0
 40
11.0
 40
11.0
 40
11.0
 40
11.0
 10
73.95457786226245
 20
125.1935190332773
 30
0.0
 10
73.95450391430159
 20
124.963488630785
 30
0.0
 10
73.95642887139729
 20
124.7371314152254
 30
0.0
 10
73.9588951263006
 20
124.5140928842879
 30
0.0
 10
73.96012825375243
 20
124.4025736188192
 30
0.0
 10
73.96148945131757
 20
124.2918883900083
 30
0.0
 10
73.96274861396218
 20
124.1820388960989
 30
0.0
 10
73.96400777660677
 20
124.0721894021895
 30
0.0
 10
73.96511267174718
 20
123.9626679162657
 30
0.0
 10
73.96604239458628
 20
123.8560688529193
 30
0.0
 10
73.96790184026414
 20
123.6428707262279
 30
0.0
 10
73.96905609482439
 20
123.4398727736169
 30
0.0
 10
73.96781410669245
 20
123.246998083514
 30
0.0
 10
73.96719311262664
 20
123.1505607384631
 30
0.0
 10
73.96596444154075
 20
123.0566739752675
 30
0.0
 10
73.96386137419883
 20
122.965450687255
 30
0.0
 10
73.96175830685722
 20
122.8742273992425
 30
0.0
 10
73.95892492670967
 20
122.7865567394125
 30
0.0
 10
73.95530812690569
 20
122.7032047080666
 30
0.0
 10
73.94807452729837
 20
122.5365006453749
 30
0.0
 10
73.93754137622162
 20
122.3858580549072
 30
0.0
 10
73.9217447912623
 20
122.2517166573997
 30
0.0
 10
73.91384649878265
 20
122.1846459586453
 30
0.0
 10
73.9045009315996
 20
122.121434362594
 30
0.0
 10
73.89392272546198
 20
122.0634926468144
 30
0.0
 10
73.88334451932435
 20
122.0055509310348
 30
0.0
 10
73.87154596470316
 20
121.9528180517125
 30
0.0
 10
73.85830790687403
 20
121.9052015140605
 30
0.0
 10
73.83183179121577
 20
121.8099684387577
 30
0.0
 10
73.79959341992886
 20
121.7350846859144
 30
0.0
 10
73.75983322653638
 20
121.6812891618498
 30
0.0
 10
73.72007303314358
 20
121.6274936377852
 30
0.0
 10
73.67331229994377
 20
121.5957298402884
 30
0.0
 10
73.61947785670601
 20
121.5864274965364
 30
0.0
  0
LINE
  5
B6
330
70
100
AcDbEntity
  8
PIEZA
 62
    18
420
        0
370
     9
100
AcDbLine
 10
102.7593285417967
 20
216.9066311451443
 30
0.0
 11
51.75195558342217
 21
216.9066311451443
 31
0.0
  0
SPLINE
  5
B7
330
70
100
AcDbEntity
  8
PIEZA
 62
    18
420
        0
370
     9
100
AcDbSpline
210
0.0
220
0.0
230
1.0
 70
     8
 71
     3
 72
    17
 73
    13
 74
     0
 42
0.0000000001
 43
0.0000000001
 40
0.0
 40
0.0
 40
0.0
 40
0.0
 40
1.0
 40
1.0
 40
1.0
 40
2.0
 40
2.0
 40
2.0
 40
3.0
 40
3.0
 40
3.0
 40
4.0
 40
4.0
 40
4.0
 40
4.0
 10
103.21465530822
 20
215.9764528120086
 30
0.0
 10
102.444759098963
 20
214.9851973957647
 30
0.0
 10
101.6554345783704
 20
214.0090315396539
 30
0.0
 10
100.8473024016586
 20
213.0486927548278
 30
0.0
 10
99.787577069158
 20
211.7893748271545
 30
0.0
 10
98.69551050838339
 20
210.5572727801893
 30
0.0
 10
97.57250225238784
 20
209.3540496487659
 30
0.0
 10
96.44949399639132
 20
208.1508265173416
 30
0.0
 10
95.29554404517387
 20
206.976482301459
 30
0.0
 10
94.11221507847331
 20
205.8325277657036
 30
0.0
 10
93.8915963306332
 20
205.6192499500103
 30
0.0
 10
93.66995638215536
 20
205.4070284651784
 30
0.0
 10
93.44730536003851
 20
205.195873101768
 30
0.0
  0
LINE
  5
B8
330
70
100
AcDbEntity
  8
PIEZA
 62
    18
420
        0
370
     9
100
AcDbLine
 10
63.44062562952525
 20
211.4486168862029
 30
0.0
 11
62.85925023856785
 21
211.5511290535489
 31
0.0
  0
SPLINE
  5
B9
330
70
100
AcDbEntity
  8
PIEZA
 62
    18
420
        0
370
     9
100
AcDbSpline
210
0.0
220
0.0
230
1.0
 70
    24
 71
     3
 72
    53
 73
    49
 74
     0
 42
0.0000000001
 43
0.0000000001
 40
0.0
 40
0.0
 40
0.0
 40
0.0
 40
1.0
 40
1.0
 40
1.0
 40
2.0
 40
2.0
 40
2.0
 40
3.0
 40
3.0
 40
3.0
 40
4.0
 40
4.0
 40
4.0
 40
5.0
 40
5.0
 40
5.0
 40
6.0
 40
6.0
 40
6.0
 40
7.0
 40
7.0
 40
7.0
 40
8.0
 40
8.0
 40
8.0
 40
9.0
 40
9.0
 40
9.0
 40
10.0
 40
10.0
 40
10.0
 40
11.0
 40
11.0
 40
11.0
 40
12.0
 40
12.0
 40
12.0
 40
13.0
 40
13.0
 40
13.0
 40
14.0
 40
14.0
 40
14.0
 40
15.0
 40
15.0
 40
15.0
 40
16.0
 40
16.0
 40
16.0
 40
16.0
 10
62.85925023844112
 20
211.551129053571
 30
0.0
 10
62.84493960170152
 20
211.5536524049394
 30
0.0
 10
62.83062896496193
 20
211.5561757563078
 30
0.0
 10
62.81630440161098
 20
211.5587015633133
 30
0.0
 10
62.80179005460058
 20
211.5612608342985
 30
0.0
 10
62.78726140951206
 20
211.5638226264206
 30
0.0
 10
62.772726783673
 20
211.5663854731107
 30
0.0
 10
62.75799581838781
 20
211.5689829397424
 30
0.0
 10
62.74325870968007
 20
211.5715814896253
 30
0.0
 10
62.72851738462783
 20
211.5741807829631
 30
0.0
 10
62.71357353529198
 20
211.5768157867969
 30
0.0
 10
62.69862535296294
 20
211.5794515546539
 30
0.0
 10
62.68367620447514
 20
211.5820874928709
 30
0.0
 10
62.66851865353198
 20
211.5847601780638
 30
0.0
 10
62.65336010930416
 20
211.5874330383995
 30
0.0
 10
62.63820324321494
 20
211.5901056028337
 30
0.0
 10
62.62283241414316
 20
211.5928158947151
 30
0.0
 10
62.60746331092351
 20
211.595525882282
 30
0.0
 10
62.59209850084753
 20
211.5982351128518
 30
0.0
 10
62.57651447304969
 20
211.6009829974208
 30
0.0
 10
62.56093486177435
 20
211.6037301032376
 30
0.0
 10
62.54536197737262
 20
211.606476022925
 30
0.0
 10
62.52956491922572
 20
211.6092614704921
 30
0.0
 10
62.51377478301481
 20
211.612045697535
 30
0.0
 10
62.49799367279019
 20
211.6148283330533
 30
0.0
 10
62.48198372185558
 20
211.6176513193628
 30
0.0
 10
62.4659830605753
 20
211.6204726676556
 30
0.0
 10
62.44999358710056
 20
211.6232920432366
 30
0.0
 10
62.43377088513887
 20
211.6261525432925
 30
0.0
 10
62.41755969974214
 20
211.6290110126674
 30
0.0
 10
62.40136172030341
 20
211.6318671534753
 30
0.0
 10
62.38492639311299
 20
211.6347651450956
 30
0.0
 10
62.36850466172782
 20
211.6376607394089
 30
0.0
 10
62.35209807239875
 20
211.640553663769
 30
0.0
 10
62.33545027417989
 20
211.6434891197643
 30
0.0
 10
62.31881806652592
 20
211.6464218267226
 30
0.0
 10
62.30220264338689
 20
211.6493515741177
 30
0.0
 10
62.28534239541801
 20
211.652324490736
 30
0.0
 10
62.26849943024111
 20
211.6552943599321
 30
0.0
 10
62.25167543326783
 20
211.6582608845218
 30
0.0
 10
62.23460323660967
 20
211.6612711734124
 30
0.0
 10
62.21755057194869
 20
211.6642780182854
 30
0.0
 10
62.20051644204094
 20
211.6672815949809
 30
0.0
 10
62.18323094062461
 20
211.6703294952557
 30
0.0
 10
62.16596452503051
 20
211.673374030185
 30
0.0
 10
62.14872566970654
 20
211.6764137054952
 30
0.0
 10
62.13123256574927
 20
211.6794982116992
 30
0.0
 10
62.11376784100711
 20
211.6825777138818
 30
0.0
 10
62.09630311626494
 20
211.6856572160644
 30
0.0
  0
LINE
  5
BA
330
70
100
AcDbEntity
  8
PIEZA
 62
    18
420
        0
370
     9
100
AcDbLine
 10
62.09630311626494
 20
211.6856572160644
 30
0.0
 11
51.559778420999
 21
213.5435308027407
 31
0.0
  0
SPLINE
  5
BB
330
70
100
AcDbEntity
  8
PIEZA
 62
    18
420
        0
370
     9
100
AcDbSpline
210
0.0
220
0.0
230
1.0
 70
     8
 71
     3
 72
    62
 73
    58
 74
     0
 42
0.0000000001
 43
0.0000000001
 40
0.0
 40
0.0
 40
0.0
 40
0.0
 40
1.0
 40
1.0
 40
1.0
 40
2.0
 40
2.0
 40
2.0
 40
3.0
 40
3.0
 40
3.0
 40
4.0
 40
4.0
 40
4.0
 40
5.0
 40
5.0
 40
5.0
 40
6.0
 40
6.0
 40
6.0
 40
7.0
 40
7.0
 40
7.0
 40
8.0
 40
8.0
 40
8.0
 40
9.0
 40
9.0
 40
9.0
 40
10.0
 40
10.0
 40
10.0
 40
11.0
 40
11.0
 40
11.0
 40
12.0
 40
12.0
 40
12.0
 40
13.0
 40
13.0
 40
13.0
 40
14.0
 40
14.0
 40
14.0
 40
15.0
 40
15.0
 40
15.0
 40
16.0
 40
16.0
 40
16.0
 40
17.0
 40
17.0
 40
17.0
 40
18.0
 40
18.0
 40
18.0
 40
19.0
 40
19.0
 40
19.0
 40
19.0
 10
57.60271102168422
 20
212.4779987426371
 30
0.0
 10
57.59881397889318
 20
212.4786680931466
 30
0.0
 10
57.59491693610247
 20
212.4793374436563
 30
0.0
 10
57.5909943844126
 20
212.4799714617719
 30
0.0
 10
57.58703831586588
 20
212.480610897355
 30
0.0
 10
57.58305630062823
 20
212.4812143941579
 30
0.0
 10
57.57907203089265
 20
212.4817883742071
 30
0.0
 10
57.57502910879805
 20
212.4823708038057
 30
0.0
 10
57.57098386534018
 20
212.4829228412232
 30
0.0
 10
57.56694563126934
 20
212.4834407297613
 30
0.0
 10
57.5628250056709
 20
212.483969184707
 30
0.0
 10
57.55871167840087
 20
212.4844620830884
 30
0.0
 10
57.55461710951298
 20
212.4849196645657
 30
0.0
 10
57.55041839707764
 20
212.4853888844255
 30
0.0
 10
57.54623940938182
 20
212.4858209679943
 30
0.0
 10
57.54208865341235
 20
212.4862162069734
 30
0.0
 10
57.53781451560647
 20
212.4866231944895
 30
0.0
 10
57.5335703128564
 20
212.4869911144388
 30
0.0
 10
57.52936272459525
 20
212.4873212839335
 30
0.0
 10
57.52501525103538
 20
212.4876624302292
 30
0.0
 10
57.52070686700115
 20
212.4879632742455
 30
0.0
 10
57.51644206855978
 20
212.4882257278507
 30
0.0
 10
57.51202365451721
 20
212.4884976348845
 30
0.0
 10
57.50765202247084
 20
212.4887283360982
 30
0.0
 10
57.50332972469547
 20
212.4889202839339
 30
0.0
 10
57.49884272977137
 20
212.4891195457637
 30
0.0
 10
57.49440890042059
 20
212.4892770446253
 30
0.0
 10
57.49002903628033
 20
212.489395618059
 30
0.0
 10
57.48547581945469
 20
212.4895188845657
 30
0.0
 10
57.48098092420634
 20
212.4896000833712
 30
0.0
 10
57.47654366043256
 20
212.4896423251503
 30
0.0
 10
57.4719265377108
 20
212.4896862791471
 30
0.0
 10
57.46737181319113
 20
212.4896880539624
 30
0.0
 10
57.46287757799313
 20
212.4896509380977
 30
0.0
 10
57.45819883382896
 20
212.4896122984563
 30
0.0
 10
57.45358564766803
 20
212.4895315093032
 30
0.0
 10
57.44903510332285
 20
212.4894119372215
 30
0.0
 10
57.44429696992477
 20
212.4892874359681
 30
0.0
 10
57.43962674941492
 20
212.4891208883486
 30
0.0
 10
57.43502089398628
 20
212.4889157602964
 30
0.0
 10
57.43022568013707
 20
212.4887021989083
 30
0.0
 10
57.4255002325858
 20
212.4884468195978
 30
0.0
 10
57.42083996030311
 20
212.4881528131446
 30
0.0
 10
57.41598962405369
 20
212.4878468159686
 30
0.0
 10
57.41120988768082
 20
212.4874989766711
 30
0.0
 10
57.40649767473428
 20
212.4871134808128
 30
0.0
 10
57.39614039360375
 20
212.4862661742456
 30
0.0
 10
57.3861093216571
 20
212.4852369468759
 30
0.0
 10
57.37627965983448
 20
212.4840372663862
 30
0.0
 10
57.36432189179063
 20
212.4825778569701
 30
0.0
 10
57.35266218422445
 20
212.4808661993684
 30
0.0
 10
57.3411925430933
 20
212.4789397307439
 30
0.0
 10
57.32766645979063
 20
212.476667857126
 30
0.0
 10
57.31440470857525
 20
212.4740972382516
 30
0.0
 10
57.30141430412889
 20
212.4711365973042
 30
0.0
 10
57.28644010000188
 20
212.4677238288961
 30
0.0
 10
57.27182644696059
 20
212.4637928200005
 30
0.0
 10
57.2572127939193
 20
212.4598618111049
 30
0.0
  0
SPLINE
  5
BC
330
70
100
AcDbEntity
  8
PIEZA
 62
    18
420
        0
370
     9
100
AcDbSpline
210
0.0
220
0.0
230
1.0
 70
     8
 71
     3
 72
    26
 73
    22
 74
     0
 42
0.0000000001
 43
0.0000000001
 40
0.0
 40
0.0
 40
0.0
 40
0.0
 40
1.0
 40
1.0
 40
1.0
 40
2.0
 40
2.0
 40
2.0
 40
3.0
 40
3.0
 40
3.0
 40
4.0
 40
4.0
 40
4.0
 40
5.0
 40
5.0
 40
5.0
 40
6.0
 40
6.0
 40
6.0
 40
7.0
 40
7.0
 40
7.0
 40
7.0
 10
57.25721252739537
 20
212.4598686372144
 30
0.0
 10
57.24802067429635
 20
212.4571414848444
 30
0.0
 10
57.238828821197
 20
212.4544143324747
 30
0.0
 10
57.22972209216588
 20
212.4515644781026
 30
0.0
 10
57.22061402700025
 20
212.448714205601
 30
0.0
 10
57.21159111088322
 20
212.4457411950892
 30
0.0
 10
57.20263553375699
 20
212.4426420465654
 30
0.0
 10
57.19367516906856
 20
212.4395412412677
 30
0.0
 10
57.18478221538751
 20
212.4363141630581
 30
0.0
 10
57.17595686427291
 20
212.432984910836
 30
0.0
 10
57.16725007891668
 20
212.4297003860484
 30
0.0
 10
57.15860909189089
 20
212.4263164141569
 30
0.0
 10
57.15004756348031
 20
212.4227992280903
 30
0.0
 10
57.14148618911248
 20
212.4192821053069
 30
0.0
 10
57.13300427050076
 20
212.4156317731423
 30
0.0
 10
57.12458759506094
 20
212.4118874223114
 30
0.0
 10
57.10498109131825
 20
212.4031650200873
 30
0.0
 10
57.08572862911573
 20
212.3939324263405
 30
0.0
 10
57.06705429291062
 20
212.3838337498732
 30
0.0
 10
57.04827888754651
 20
212.373680417394
 30
0.0
 10
57.03008788297674
 20
212.3626516020074
 30
0.0
 10
57.01189687840666
 20
212.3516227866204
 30
0.0
  0
SPLINE
  5
BD
330
70
100
AcDbEntity
  8
PIEZA
 62
    18
420
        0
370
     9
100
AcDbSpline
210
0.0
220
0.0
230
1.0
 70
     8
 71
     3
 72
    20
 73
    16
 74
     0
 42
0.0000000001
 43
0.0000000001
 40
0.0
 40
0.0
 40
0.0
 40
0.0
 40
1.0
 40
1.0
 40
1.0
 40
2.0
 40
2.0
 40
2.0
 40
3.0
 40
3.0
 40
3.0
 40
4.0
 40
4.0
 40
4.0
 40
5.0
 40
5.0
 40
5.0
 40
5.0
 10
56.70051751581628
 20
211.8830516449653
 30
0.0
 10
56.71083674935047
 20
211.9279072318143
 30
0.0
 10
56.72491335247681
 20
211.9716052242844
 30
0.0
 10
56.74280320838586
 20
212.0141380644668
 30
0.0
 10
56.76069306429459
 20
212.056670904649
 30
0.0
 10
56.78238888743449
 20
212.0980407095545
 30
0.0
 10
56.80832494687554
 20
212.1381189017704
 30
0.0
 10
56.82129297659606
 20
212.1581579978783
 30
0.0
 10
56.83540336961835
 20
212.1779608693799
 30
0.0
 10
56.8504337158188
 20
212.1971012717321
 30
0.0
 10
56.86546406201925
 20
212.2162416740846
 30
0.0
 10
56.8814222942569
 20
212.2347534693822
 30
0.0
 10
56.8983409817217
 20
212.2526142744066
 30
0.0
 10
56.93217835665095
 20
212.288335884456
 30
0.0
 10
56.96981875716706
 20
212.3214801226495
 30
0.0
 10
57.0118980999934
 20
212.3516100810746
 30
0.0
  0
SPLINE
  5
BE
330
70
100
AcDbEntity
  8
PIEZA
 62
    18
420
        0
370
     9
100
AcDbSpline
210
0.0
220
0.0
230
1.0
 70
    24
 71
     3
 72
    11
 73
     7
 74
     0
 42
0.0000000001
 43
0.0000000001
 40
0.0
 40
0.0
 40
0.0
 40
0.0
 40
1.0
 40
1.0
 40
1.0
 40
2.0
 40
2.0
 40
2.0
 40
2.0
 10
56.70051751581628
 20
211.8830516449653
 30
0.0
 10
56.70051751581628
 20
211.8550452779598
 30
0.0
 10
56.70051751581628
 20
211.8277717252905
 30
0.0
 10
56.70051751581628
 20
211.8008727927048
 30
0.0
 10
56.70051751581628
 20
211.7739738601191
 30
0.0
 10
56.70051751581628
 20
211.7473946591027
 30
0.0
 10
56.70051751581628
 20
211.7209685046125
 30
0.0
  0
SPLINE
  5
BF
330
70
100
AcDbEntity
  8
PIEZA
 62
    18
420
        0
370
     9
100
AcDbSpline
210
0.0
220
0.0
230
1.0
 70
     8
 71
     3
 72
    26
 73
    22
 74
     0
 42
0.0000000001
 43
0.0000000001
 40
0.0
 40
0.0
 40
0.0
 40
0.0
 40
1.0
 40
1.0
 40
1.0
 40
2.0
 40
2.0
 40
2.0
 40
3.0
 40
3.0
 40
3.0
 40
4.0
 40
4.0
 40
4.0
 40
5.0
 40
5.0
 40
5.0
 40
6.0
 40
6.0
 40
6.0
 40
7.0
 40
7.0
 40
7.0
 40
7.0
 10
63.32520899386644
 20
211.4689679530924
 30
0.0
 10
63.38500877660915
 20
211.4584236379542
 30
0.0
 10
63.44398943853515
 20
211.4451799228358
 30
0.0
 10
63.50213715270048
 20
211.4292007856987
 30
0.0
 10
63.5602848668655
 20
211.4132216485616
 30
0.0
 10
63.61758381488128
 20
211.3944750951891
 30
0.0
 10
63.67300031532299
 20
211.373325429494
 30
0.0
 10
63.78383331620579
 20
211.3310260981036
 30
0.0
 10
63.88827544171769
 20
211.2789130203441
 30
0.0
 10
63.98609260265859
 20
211.2168561234599
 30
0.0
 10
64.0105468928939
 20
211.2013418992389
 30
0.0
 10
64.034583255412
 20
211.1852012083883
 30
0.0
 10
64.05819058580192
 20
211.1684229545005
 30
0.0
 10
64.08179791619184
 20
211.1516447006127
 30
0.0
 10
64.10496609996478
 20
211.1342271768201
 30
0.0
 10
64.1273811390223
 20
211.116424400524
 30
0.0
 10
64.17221121713767
 20
211.0808188479319
 30
0.0
 10
64.21437075233896
 20
211.0434374079932
 30
0.0
 10
64.2540102883066
 20
211.0044450663439
 30
0.0
 10
64.33328936024252
 20
210.926460383046
 30
0.0
 10
64.40238100803606
 20
210.841976859048
 30
0.0
 10
64.46303810126078
 20
210.7526694970809
 30
0.0
  0
LINE
  5
C0
330
70
100
AcDbEntity
  8
PIEZA
 62
    18
420
        0
370
     9
100
AcDbLine
 10
56.70051751581628
 20
211.7209685046128
 30
0.0
 11
56.70051751581628
 21
205.6749367331082
 31
0.0
  0
SPLINE
  5
C1
330
70
100
AcDbEntity
  8
PIEZA
 62
    18
420
        0
370
     9
100
AcDbSpline
210
0.0
220
0.0
230
1.0
 70
     8
 71
     3
 72
     8
 73
     4
 74
     0
 42
0.0000000001
 43
0.0000000001
 40
0.0
 40
0.0
 40
0.0
 40
0.0
 40
1.0
 40
1.0
 40
1.0
 40
1.0
 10
64.46303810126109
 20
210.7526694970812
 30
0.0
 10
64.51073191133159
 20
210.683254059237
 30
0.0
 10
64.55232771097012
 20
210.6113046520633
 30
0.0
 10
64.58819538719992
 20
210.5369914477008
 30
0.0
  0
SPLINE
  5
C2
330
70
100
AcDbEntity
  8
PIEZA
 62
    18
420
        0
370
     9
100
AcDbSpline
210
0.0
220
0.0
230
1.0
 70
     8
 71
     3
 72
     8
 73
     4
 74
     0
 42
0.0000000001
 43
0.0000000001
 40
0.0
 40
0.0
 40
0.0
 40
0.0
 40
1.0
 40
1.0
 40
1.0
 40
1.0
 10
66.91613655696517
 20
205.7188573262731
 30
0.0
 10
66.16366942265774
 20
207.2973143611397
 30
0.0
 10
65.38735757951396
 20
208.9040450762016
 30
0.0
 10
64.58819538719831
 20
210.5369914477037
 30
0.0
  0
SPLINE
  5
C3
330
70
100
AcDbEntity
  8
PIEZA
 62
    18
420
        0
370
     9
100
AcDbSpline
210
0.0
220
0.0
230
1.0
 70
     8
 71
     3
 72
    11
 73
     7
 74
     0
 42
0.0000000001
 43
0.0000000001
 40
0.0
 40
0.0
 40
0.0
 40
0.0
 40
1.0
 40
1.0
 40
1.0
 40
2.0
 40
2.0
 40
2.0
 40
2.0
 10
92.07207195273767
 20
202.7905885670309
 30
0.0
 10
92.1774459489038
 20
203.2470134892044
 30
0.0
 10
92.35003099304512
 20
203.6878631065903
 30
0.0
 10
92.58253779389358
 20
204.0945177219682
 30
0.0
 10
92.8150445947417
 20
204.5011723373464
 30
0.0
 10
93.10741665285554
 20
204.8735331331409
 30
0.0
 10
93.44730536004107
 20
205.1958731017712
 30
0.0
  0
LINE
  5
C4
330
70
100
AcDbEntity
  8
PIEZA
 62
    18
420
        0
370
     9
100
AcDbLine
 10
88.67587808895727
 20
188.0800567816833
 30
0.0
 11
92.07207195273509
 21
202.7905885670306
 31
0.0
  0
SPLINE
  5
C5
330
70
100
AcDbEntity
  8
PIEZA
 62
    18
420
        0
370
     9
100
AcDbSpline
210
0.0
220
0.0
230
1.0
 70
     8
 71
     3
 72
    77
 73
    73
 74
     0
 42
0.0000000001
 43
0.0000000001
 40
0.0
 40
0.0
 40
0.0
 40
0.0
 40
1.0
 40
1.0
 40
1.0
 40
2.0
 40
2.0
 40
2.0
 40
3.0
 40
3.0
 40
3.0
 40
4.0
 40
4.0
 40
4.0
 40
5.0
 40
5.0
 40
5.0
 40
6.0
 40
6.0
 40
6.0
 40
7.0
 40
7.0
 40
7.0
 40
8.0
 40
8.0
 40
8.0
 40
9.0
 40
9.0
 40
9.0
 40
10.0
 40
10.0
 40
10.0
 40
11.0
 40
11.0
 40
11.0
 40
12.0
 40
12.0
 40
12.0
 40
13.0
 40
13.0
 40
13.0
 40
14.0
 40
14.0
 40
14.0
 40
15.0
 40
15.0
 40
15.0
 40
16.0
 40
16.0
 40
16.0
 40
17.0
 40
17.0
 40
17.0
 40
18.0
 40
18.0
 40
18.0
 40
19.0
 40
19.0
 40
19.0
 40
20.0
 40
20.0
 40
20.0
 40
21.0
 40
21.0
 40
21.0
 40
22.0
 40
22.0
 40
22.0
 40
23.0
 40
23.0
 40
23.0
 40
24.0
 40
24.0
 40
24.0
 40
24.0
 10
51.75195558342217
 20
188.0800567816833
 30
0.0
 10
58.86660945724412
 20
188.0800567816833
 30
0.0
 10
65.9812633310664
 20
188.0800567816833
 30
0.0
 10
73.09591720488866
 20
188.0800567816833
 30
0.0
 10
74.87458067334424
 20
188.0800567816833
 30
0.0
 10
76.65324414179981
 20
188.0800567816833
 30
0.0
 10
78.43190761025536
 20
188.0800567816833
 30
0.0
 10
78.48749084364469
 20
188.0800567816833
 30
0.0
 10
78.5430740770337
 20
188.0800567816833
 30
0.0
 10
78.59865731042304
 20
188.0800567816833
 30
0.0
 10
78.65424054381204
 20
188.0800567816833
 30
0.0
 10
78.7098250317817
 20
188.0800567816833
 30
0.0
 10
78.76540183965021
 20
188.0800567816833
 30
0.0
 10
78.87655545538755
 20
188.0800567816833
 30
0.0
 10
78.98765201447853
 20
188.0800567816833
 30
0.0
 10
79.09860530750539
 20
188.0800567816836
 30
0.0
 10
79.3205118935585
 20
188.0800567816833
 30
0.0
 10
79.54229944706433
 20
188.0800567816833
 30
0.0
 10
79.76193941850333
 20
188.0800567816836
 30
0.0
 10
80.20121936138098
 20
188.0800567816833
 30
0.0
 10
80.63336394831351
 20
188.0800585145261
 30
0.0
 10
81.05887644534387
 20
188.0800571099688
 30
0.0
 10
81.27163269385922
 20
188.0800564076901
 30
0.0
 10
81.48271693547137
 20
188.0800576067369
 30
0.0
 10
81.69214176895533
 20
188.0800605502919
 30
0.0
 10
81.79685418569714
 20
188.0800620220691
 30
0.0
 10
81.90124693792945
 20
188.0800637039051
 30
0.0
 10
82.00455675939995
 20
188.0800651583269
 30
0.0
 10
82.10786658087043
 20
188.080066612749
 30
0.0
 10
82.21025112405696
 20
188.0800678399673
 30
0.0
 10
82.31173363971848
 20
188.0800684638155
 30
0.0
 10
82.71766370236518
 20
188.0800709592083
 30
0.0
 10
83.10923678685572
 20
188.0800593698939
 30
0.0
 10
83.487242983396
 20
188.0800571697193
 30
0.0
 10
83.86524917993629
 20
188.0800549695444
 30
0.0
 10
84.22972429942575
 20
188.0800893489327
 30
0.0
 10
84.58064058951967
 20
188.080107797988
 30
0.0
 10
84.75609873456647
 20
188.0801170225156
 30
0.0
 10
84.92853286002585
 20
188.0801242673052
 30
0.0
 10
85.09532878652036
 20
188.0801294593152
 30
0.0
 10
85.26212471301519
 20
188.0801346513249
 30
0.0
 10
85.42377194803583
 20
188.0801378282844
 30
0.0
 10
85.58036875174506
 20
188.0801389823487
 30
0.0
 10
85.89356235916419
 20
188.0801412904776
 30
0.0
 10
86.18661201952985
 20
188.0801357007261
 30
0.0
 10
86.45957977351763
 20
188.0801202300586
 30
0.0
 10
86.59606365051168
 20
188.0801124947251
 30
0.0
 10
86.72751252182143
 20
188.0801022444422
 30
0.0
 10
86.85384529834241
 20
188.0800889152173
 30
0.0
 10
86.91701168660273
 20
188.0800822506049
 30
0.0
 10
86.97889918288375
 20
188.0800745173235
 30
0.0
 10
87.03948216690211
 20
188.0800682341418
 30
0.0
 10
87.10006515092047
 20
188.0800619509605
 30
0.0
 10
87.15944402688995
 20
188.0800571683705
 30
0.0
 10
87.21715412820392
 20
188.0800568040291
 30
0.0
 10
87.44799453345915
 20
188.0800553466636
 30
0.0
 10
87.65272066820656
 20
188.0800823551925
 30
0.0
 10
87.8314744717927
 20
188.0800854622332
 30
0.0
 10
88.01022827537851
 20
188.0800885692738
 30
0.0
 10
88.16305452349412
 20
188.0800567729863
 30
0.0
 10
88.28821146733003
 20
188.0800567818613
 30
0.0
 10
88.35078993924815
 20
188.0800567862987
 30
0.0
 10
88.40642388907722
 20
188.0800572629441
 30
0.0
 10
88.45472473891474
 20
188.0800600438325
 30
0.0
 10
88.47887516383368
 20
188.0800614342769
 30
0.0
 10
88.50122237898801
 20
188.0800633444295
 30
0.0
 10
88.52156913866648
 20
188.080065591783
 30
0.0
 10
88.54191589834494
 20
188.080067839137
 30
0.0
 10
88.56027605864163
 20
188.0800704217606
 30
0.0
 10
88.57663942573095
 20
188.0800728892561
 30
0.0
 10
88.64209289408893
 20
188.0800827592377
 30
0.0
 10
88.67587736963061
 20
188.0800567816833
 30
0.0
 10
88.67587808895727
 20
188.0800567816833
 30
0.0
  0
LINE
  5
C6
330
70
100
AcDbEntity
  8
PIEZA
 62
    18
420
        0
370
     9
100
AcDbLine
 10
51.559778420999
 20
188.2722339441064
 30
0.0
 11
51.559778420999
 21
216.7144539827215
 31
0.0
  0
SPLINE
  5
C7
330
70
100
AcDbEntity
  8
PIEZA
 62
    18
420
        0
370
     9
100
AcDbSpline
210
0.0
220
0.0
230
1.0
 70
     8
 71
     3
 72
    44
 73
    40
 74
     0
 42
0.0000000001
 43
0.0000000001
 40
0.0
 40
0.0
 40
0.0
 40
0.0
 40
1.0
 40
1.0
 40
1.0
 40
2.0
 40
2.0
 40
2.0
 40
3.0
 40
3.0
 40
3.0
 40
4.0
 40
4.0
 40
4.0
 40
5.0
 40
5.0
 40
5.0
 40
6.0
 40
6.0
 40
6.0
 40
7.0
 40
7.0
 40
7.0
 40
8.0
 40
8.0
 40
8.0
 40
9.0
 40
9.0
 40
9.0
 40
10.0
 40
10.0
 40
10.0
 40
11.0
 40
11.0
 40
11.0
 40
12.0
 40
12.0
 40
12.0
 40
13.0
 40
13.0
 40
13.0
 40
13.0
 10
72.58676354870323
 20
182.6131161208445
 30
0.0
 10
72.89224739310523
 20
182.6162244906423
 30
0.0
 10
73.19773123750755
 20
182.61933286044
 30
0.0
 10
73.50229648447943
 20
182.6394236896873
 30
0.0
 10
73.80686062401095
 20
182.6595144458816
 30
0.0
 10
74.11050617279274
 20
182.6965875380251
 30
0.0
 10
74.41198412062393
 20
182.7459832911891
 30
0.0
 10
74.71346261444089
 20
182.7953791338104
 30
0.0
 10
75.01277349945604
 20
182.857097682086
 30
0.0
 10
75.30878947831983
 20
182.9320739490257
 30
0.0
 10
75.60480545718167
 20
183.007050215965
 30
0.0
 10
75.89752652989151
 20
183.0952842015678
 30
0.0
 10
76.185801453049
 20
183.1961564715383
 30
0.0
 10
76.47407637620424
 20
183.2970287415086
 30
0.0
 10
76.75790514980711
 20
183.4105392958459
 30
0.0
 10
77.03621281062682
 20
183.5362889536783
 30
0.0
 10
77.31452047145229
 20
183.6620386115128
 30
0.0
 10
77.58730701949393
 20
183.8000273728424
 30
0.0
 10
77.85349001807411
 20
183.9497469911189
 30
0.0
 10
78.11967301665301
 20
184.0994666093944
 30
0.0
 10
78.37925246577043
 20
184.2609170846166
 30
0.0
 10
78.63127062071868
 20
184.4334275847741
 30
0.0
 10
78.88328877566404
 20
184.6059380849304
 30
0.0
 10
79.12774563644052
 20
184.7895086100217
 30
0.0
 10
79.36359855550918
 20
184.9835051960599
 30
0.0
 10
79.59945147457911
 20
185.177501782099
 30
0.0
 10
79.82670045194122
 20
185.3819244290849
 30
0.0
 10
80.04475244077095
 20
185.5958114651076
 30
0.0
 10
80.26280442960002
 20
185.8096985011296
 30
0.0
 10
80.47165942989673
 20
186.0330499261887
 30
0.0
 10
80.66953743890628
 20
186.2655377439885
 30
0.0
 10
80.86741544791584
 20
186.498025561788
 30
0.0
 10
81.05431646563857
 20
186.7396497723281
 30
0.0
 10
81.23304975634306
 20
186.9875789135992
 30
0.0
 10
81.41178304704883
 20
187.2355080548722
 30
0.0
 10
81.58234861073635
 20
187.4897421268758
 30
0.0
 10
81.73101605124561
 20
187.756291572313
 30
0.0
 10
81.7904778169405
 20
187.8629020084408
 30
0.0
 10
81.84643649688979
 20
187.9714825590286
 30
0.0
 10
81.90239517683906
 20
188.0800631096167
 30
0.0
  0
SPLINE
  5
C8
330
70
100
AcDbEntity
  8
PIEZA
 62
    18
420
        0
370
     9
100
AcDbSpline
210
0.0
220
0.0
230
1.0
 70
     8
 71
     3
 72
    41
 73
    37
 74
     0
 42
0.0000000001
 43
0.0000000001
 40
0.0
 40
0.0
 40
0.0
 40
0.0
 40
1.0
 40
1.0
 40
1.0
 40
2.0
 40
2.0
 40
2.0
 40
3.0
 40
3.0
 40
3.0
 40
4.0
 40
4.0
 40
4.0
 40
5.0
 40
5.0
 40
5.0
 40
6.0
 40
6.0
 40
6.0
 40
7.0
 40
7.0
 40
7.0
 40
8.0
 40
8.0
 40
8.0
 40
9.0
 40
9.0
 40
9.0
 40
10.0
 40
10.0
 40
10.0
 40
11.0
 40
11.0
 40
11.0
 40
12.0
 40
12.0
 40
12.0
 40
12.0
 10
64.70930568828292
 20
188.0800567816833
 30
0.0
 10
64.72602893127795
 20
188.0315548160495
 30
0.0
 10
64.74275217427329
 20
187.9830528504154
 30
0.0
 10
64.76045332319571
 20
187.9349295107305
 30
0.0
 10
64.86519341997308
 20
187.650177188837
 30
0.0
 10
65.00417244078292
 20
187.3786815051889
 30
0.0
 10
65.15208340321496
 20
187.1129490567929
 30
0.0
 10
65.29999465644029
 20
186.8472160859657
 30
0.0
 10
65.45683788640833
 20
186.5872463730516
 30
0.0
 10
65.62831820365793
 20
186.3369144822941
 30
0.0
 10
65.79979852090751
 20
186.0865825915366
 30
0.0
 10
65.985915925439
 20
185.8458885229359
 30
0.0
 10
66.18385913594723
 20
185.6155244917051
 30
0.0
 10
66.38180206256492
 20
185.385160790863
 30
0.0
 10
66.5915707612382
 20
185.1651270977603
 30
0.0
 10
66.81246533041761
 20
184.9568279604757
 30
0.0
 10
67.0333602164051
 20
184.7485285244476
 30
0.0
 10
67.26538100481234
 20
184.5519636778974
 30
0.0
 10
67.50711040744189
 20
184.3681876093808
 30
0.0
 10
67.74883981007175
 20
184.1844115408635
 30
0.0
 10
68.00027782692392
 20
184.0134242503794
 30
0.0
 10
68.26004588001667
 20
183.8562135669602
 30
0.0
 10
68.51981356054827
 20
183.6990031090138
 30
0.0
 10
68.78791125342617
 20
183.5555692186153
 30
0.0
 10
69.06283057825892
 20
183.4266049121996
 30
0.0
 10
69.33775029738332
 20
183.2976404208229
 30
0.0
 10
69.61949166802992
 20
183.1831455549338
 30
0.0
 10
69.90649120522158
 20
183.084163687338
 30
0.0
 10
70.19349074241262
 20
182.9851818197425
 30
0.0
 10
70.48574844614872
 20
182.9017129504402
 30
0.0
 10
70.78160330748239
 20
182.8327515666176
 30
0.0
 10
71.07745758716657
 20
182.7637903183729
 30
0.0
 10
71.37690901030396
 20
182.7093364985652
 30
0.0
 10
71.67836819366584
 20
182.675148504648
 30
0.0
 10
71.9798281318259
 20
182.6409604251306
 30
0.0
 10
72.28329584026457
 20
182.6270382729879
 30
0.0
 10
72.58676354870323
 20
182.6131161208452
 30
0.0
  0
SPLINE
  5
C9
330
70
100
AcDbEntity
  8
PIEZA
 62
    18
420
        0
370
     9
100
AcDbSpline
210
0.0
220
0.0
230
1.0
 70
     8
 71
     3
 72
    50
 73
    46
 74
     0
 42
0.0000000001
 43
0.0000000001
 40
0.0
 40
0.0
 40
0.0
 40
0.0
 40
1.0
 40
1.0
 40
1.0
 40
2.0
 40
2.0
 40
2.0
 40
3.0
 40
3.0
 40
3.0
 40
4.0
 40
4.0
 40
4.0
 40
5.0
 40
5.0
 40
5.0
 40
6.0
 40
6.0
 40
6.0
 40
7.0
 40
7.0
 40
7.0
 40
8.0
 40
8.0
 40
8.0
 40
9.0
 40
9.0
 40
9.0
 40
10.0
 40
10.0
 40
10.0
 40
11.0
 40
11.0
 40
11.0
 40
12.0
 40
12.0
 40
12.0
 40
13.0
 40
13.0
 40
13.0
 40
14.0
 40
14.0
 40
14.0
 40
15.0
 40
15.0
 40
15.0
 40
15.0
 10
56.70051751581628
 20
205.0585634594726
 30
0.0
 10
56.70051751581628
 20
205.0097872387707
 30
0.0
 10
56.70362987081179
 20
204.9606640226771
 30
0.0
 10
56.70908321799303
 20
204.9120183788236
 30
0.0
 10
56.71453656517428
 20
204.8633727349701
 30
0.0
 10
56.72231124440738
 20
204.8151218633512
 30
0.0
 10
56.73181413531914
 20
204.7671600544772
 30
0.0
 10
56.74131702623058
 20
204.719198245603
 30
0.0
 10
56.75255313617316
 20
204.671526464835
 30
0.0
 10
56.76508353129994
 20
204.6240687920812
 30
0.0
 10
56.77761392642673
 20
204.5766111193275
 30
0.0
 10
56.79146950790898
 20
204.5292834782464
 30
0.0
 10
56.80618397547925
 20
204.4824185951223
 30
0.0
 10
56.83561291061946
 20
204.388688828874
 30
0.0
 10
56.86844719841414
 20
204.2965740242721
 30
0.0
 10
56.90293968686286
 20
204.2052160340131
 30
0.0
 10
56.93743217531189
 20
204.1138580437544
 30
0.0
 10
56.97361586331898
 20
204.0232704204178
 30
0.0
 10
57.01056414683517
 20
203.9329604158978
 30
0.0
 10
57.04751243035169
 20
203.8426504113778
 30
0.0
 10
57.0852419788507
 20
203.7526249730867
 30
0.0
 10
57.12329108307806
 20
203.6626100956555
 30
0.0
 10
57.16134018730542
 20
203.5725952182242
 30
0.0
 10
57.19973273794707
 20
203.482563141322
 30
0.0
 10
57.23820797227581
 20
203.3925331216859
 30
0.0
 10
57.27668320660455
 20
203.3025031020497
 30
0.0
 10
57.31525366516954
 20
203.2124643903914
 30
0.0
 10
57.35386072217905
 20
203.1223819325689
 30
0.0
 10
57.37316425068396
 20
203.0773407036577
 30
0.0
 10
57.3924788826928
 20
203.0322894812885
 30
0.0
 10
57.41180245804158
 20
202.9872267040728
 30
0.0
 10
57.42146424571581
 20
202.9646953154649
 30
0.0
 10
57.43112878231964
 20
202.942161263664
 30
0.0
 10
57.44079242314914
 20
202.9196229463743
 30
0.0
 10
57.44562424356422
 20
202.9083537877293
 30
0.0
 10
57.45045668775439
 20
202.8970839256252
 30
0.0
 10
57.45528267015941
 20
202.8858103266057
 30
0.0
 10
57.45769566136176
 20
202.880173527096
 30
0.0
 10
57.46010842497271
 20
202.8745363869179
 30
0.0
 10
57.46250864104289
 20
202.8688936369984
 30
0.0
 10
57.46370874907781
 20
202.8660722620385
 30
0.0
 10
57.46490754479585
 20
202.8632502649504
 30
0.0
 10
57.46608661738344
 20
202.8604197720408
 30
0.0
 10
57.46726568997104
 20
202.8575892791311
 30
0.0
 10
57.46866583563136
 20
202.8548532713692
 30
0.0
 10
57.46928736920787
 20
202.8517842153036
 30
0.0
  0
SPLINE
  5
CA
330
70
100
AcDbEntity
  8
PIEZA
 62
    18
420
        0
370
     9
100
AcDbSpline
210
0.0
220
0.0
230
1.0
 70
     8
 71
     3
 72
     8
 73
     4
 74
     0
 42
0.0000000001
 43
0.0000000001
 40
0.0
 40
0.0
 40
0.0
 40
0.0
 40
1.0
 40
1.0
 40
1.0
 40
1.0
 10
56.70051751581628
 20
207.1983063766381
 30
0.0
 10
56.73040637820117
 20
206.8058112958009
 30
0.0
 10
57.06928823983464
 20
206.5096552917006
 30
0.0
 10
57.46224968288185
 20
206.5326125749534
 30
0.0
  0
LINE
  5
CB
330
70
100
AcDbEntity
  8
PIEZA
 62
    18
420
        0
370
     9
100
AcDbLine
 10
63.33832285000009
 20
206.4710312259016
 30
0.0
 11
57.46224968288185
 21
206.5326125749534
 31
0.0
  0
SPLINE
  5
CC
330
70
100
AcDbEntity
  8
PIEZA
 62
    18
420
        0
370
     9
100
AcDbSpline
210
0.0
220
0.0
230
1.0
 70
     8
 71
     3
 72
   155
 73
   151
 74
     0
 42
0.0000000001
 43
0.0000000001
 40
0.0
 40
0.0
 40
0.0
 40
0.0
 40
1.0
 40
1.0
 40
1.0
 40
2.0
 40
2.0
 40
2.0
 40
3.0
 40
3.0
 40
3.0
 40
4.0
 40
4.0
 40
4.0
 40
5.0
 40
5.0
 40
5.0
 40
6.0
 40
6.0
 40
6.0
 40
7.0
 40
7.0
 40
7.0
 40
8.0
 40
8.0
 40
8.0
 40
9.0
 40
9.0
 40
9.0
 40
10.0
 40
10.0
 40
10.0
 40
11.0
 40
11.0
 40
11.0
 40
12.0
 40
12.0
 40
12.0
 40
13.0
 40
13.0
 40
13.0
 40
14.0
 40
14.0
 40
14.0
 40
15.0
 40
15.0
 40
15.0
 40
16.0
 40
16.0
 40
16.0
 40
17.0
 40
17.0
 40
17.0
 40
18.0
 40
18.0
 40
18.0
 40
19.0
 40
19.0
 40
19.0
 40
20.0
 40
20.0
 40
20.0
 40
21.0
 40
21.0
 40
21.0
 40
22.0
 40
22.0
 40
22.0
 40
23.0
 40
23.0
 40
23.0
 40
24.0
 40
24.0
 40
24.0
 40
25.0
 40
25.0
 40
25.0
 40
26.0
 40
26.0
 40
26.0
 40
27.0
 40
27.0
 40
27.0
 40
28.0
 40
28.0
 40
28.0
 40
29.0
 40
29.0
 40
29.0
 40
30.0
 40
30.0
 40
30.0
 40
31.0
 40
31.0
 40
31.0
 40
32.0
 40
32.0
 40
32.0
 40
33.0
 40
33.0
 40
33.0
 40
34.0
 40
34.0
 40
34.0
 40
35.0
 40
35.0
 40
35.0
 40
36.0
 40
36.0
 40
36.0
 40
37.0
 40
37.0
 40
37.0
 40
38.0
 40
38.0
 40
38.0
 40
39.0
 40
39.0
 40
39.0
 40
40.0
 40
40.0
 40
40.0
 40
41.0
 40
41.0
 40
41.0
 40
42.0
 40
42.0
 40
42.0
 40
43.0
 40
43.0
 40
43.0
 40
44.0
 40
44.0
 40
44.0
 40
45.0
 40
45.0
 40
45.0
 40
46.0
 40
46.0
 40
46.0
 40
47.0
 40
47.0
 40
47.0
 40
48.0
 40
48.0
 40
48.0
 40
49.0
 40
49.0
 40
49.0
 40
50.0
 40
50.0
 40
50.0
 40
50.0
 10
63.93010794639018
 20
206.605001380102
 30
0.0
 10
63.94395076931598
 20
206.6110217017806
 30
0.0
 10
63.9577935922421
 20
206.6170420234588
 30
0.0
 10
63.97156694477375
 20
206.6232153202891
 30
0.0
 10
63.98513812744598
 20
206.629298003411
 30
0.0
 10
63.99864186417541
 20
206.6355292038031
 30
0.0
 10
64.01208826337368
 20
206.6418700200817
 30
0.0
 10
64.02531230773234
 20
206.6481059821787
 30
0.0
 10
64.03848089519169
 20
206.6544479648365
 30
0.0
 10
64.0515847864923
 20
206.6609040391518
 30
0.0
 10
64.06445342981746
 20
206.6672442106125
 30
0.0
 10
64.07725967905223
 20
206.6736944140345
 30
0.0
 10
64.090000686137
 20
206.680249824064
 30
0.0
 10
64.10251070894855
 20
206.6866863897502
 30
0.0
 10
64.11495783374313
 20
206.6932243819984
 30
0.0
 10
64.12733828218653
 20
206.6998622732208
 30
0.0
 10
64.13952115324142
 20
206.7063942315104
 30
0.0
 10
64.1516394591157
 20
206.7130229256769
 30
0.0
 10
64.16368960735003
 20
206.7197457922291
 30
0.0
 10
64.17557323852324
 20
206.7263757576852
 30
0.0
 10
64.18739058273786
 20
206.7330973108351
 30
0.0
 10
64.19913797756945
 20
206.7399091594413
 30
0.0
 10
64.21767547105014
 20
206.7506583171006
 30
0.0
 10
64.23603878272921
 20
206.7616323205652
 30
0.0
 10
64.25421360667129
 20
206.772823028561
 30
0.0
 10
64.27256235904073
 20
206.7841208287766
 30
0.0
 10
64.29071899885233
 20
206.7956395009833
 30
0.0
 10
64.30866937941435
 20
206.8073704094189
 30
0.0
 10
64.32604753333514
 20
206.8187273570739
 30
0.0
 10
64.34323236876716
 20
206.8302832251996
 30
0.0
 10
64.36021431354777
 20
206.8420308034176
 30
0.0
 10
64.38640750934384
 20
206.8601504369675
 30
0.0
 10
64.4121180197359
 20
206.8787261569002
 30
0.0
 10
64.43730171274717
 20
206.8977235250955
 30
0.0
 10
64.45378828576074
 20
206.9101602037699
 30
0.0
 10
64.47004908055567
 20
206.9227775883153
 30
0.0
 10
64.4860733562884
 20
206.9355656622378
 30
0.0
 10
64.49400745625819
 20
206.9418974215394
 30
0.0
 10
64.50188357269613
 20
206.9482710259797
 30
0.0
 10
64.50970178322986
 20
206.954687022987
 30
0.0
 10
64.55645775668897
 20
206.9930572081458
 30
0.0
 10
64.60114271950347
 20
207.0329435678473
 30
0.0
 10
64.6434260010564
 20
207.0740215213632
 30
0.0
 10
64.65738183272572
 20
207.0875795278265
 30
0.0
 10
64.67107603324852
 20
207.1012673425458
 30
0.0
 10
64.68450674771
 20
207.1150795060685
 30
0.0
 10
64.69118434807433
 20
207.1219467586216
 30
0.0
 10
64.69779681556198
 20
207.128844749785
 30
0.0
 10
64.70434366261743
 20
207.1357730767267
 30
0.0
 10
64.73743104593437
 20
207.1707884371479
 30
0.0
 10
64.76884233074414
 20
207.20657864394
 30
0.0
 10
64.79844446022055
 20
207.2429659529633
 30
0.0
 10
64.81613975456873
 20
207.26471723083
 30
0.0
 10
64.83318858315093
 20
207.2866818713333
 30
0.0
 10
64.84957535841695
 20
207.3088287266292
 30
0.0
 10
64.8550224094176
 20
207.3161904587782
 30
0.0
 10
64.86039630797201
 20
207.323572324439
 30
0.0
 10
64.86569691525821
 20
207.3309740364665
 30
0.0
 10
64.88685237007485
 20
207.3605152901214
 30
0.0
 10
64.90684035493771
 20
207.3903726801699
 30
0.0
 10
64.9256084032679
 20
207.4204481125669
 30
0.0
 10
64.93029815681063
 20
207.4279633514005
 30
0.0
 10
64.93491173770599
 20
207.4354922047642
 30
0.0
 10
64.93944931348877
 20
207.4430341604768
 30
0.0
 10
64.94171830533088
 20
207.4468054773218
 30
0.0
 10
64.94396829247851
 20
207.450580070343
 30
0.0
 10
64.94619923389215
 20
207.4543578686776
 30
0.0
 10
64.95736166437133
 20
207.4732599389044
 30
0.0
 10
64.96804729192215
 20
207.4922422529724
 30
0.0
 10
64.97824705971313
 20
207.5112824580071
 30
0.0
 10
64.98440845599161
 20
207.5227841167554
 30
0.0
 10
64.99039256047153
 20
207.5343069001049
 30
0.0
 10
64.99619831926103
 20
207.5458471215132
 30
0.0
 10
64.99813601816545
 20
207.5496987238954
 30
0.0
 10
65.00005385075906
 20
207.5535522687403
 30
0.0
 10
65.00195178372002
 20
207.5574075912633
 30
0.0
 10
65.00575163156091
 20
207.5651263248901
 30
0.0
 10
65.00947171378303
 20
207.5728521841556
 30
0.0
 10
65.01311172790835
 20
207.5805841930127
 30
0.0
 10
65.02041095921676
 20
207.596089001286
 30
0.0
 10
65.02738822629883
 20
207.6116185378662
 30
0.0
 10
65.03404009879736
 20
207.6271610872899
 30
0.0
 10
65.03737669892287
 20
207.6349572788688
 30
0.0
 10
65.04063142791334
 20
207.6427567445536
 30
0.0
 10
65.04380414967336
 20
207.6505585262417
 30
0.0
 10
65.04698462794455
 20
207.658379381334
 30
0.0
 10
65.05008269752106
 20
207.6662025637676
 30
0.0
 10
65.05309804905133
 20
207.6740266403979
 30
0.0
 10
65.05612124982372
 20
207.6818710838312
 30
0.0
 10
65.05906130134417
 20
207.6897164261225
 30
0.0
 10
65.06191802971544
 20
207.6975616941636
 30
0.0
 10
65.06748807017792
 20
207.7128583744021
 30
0.0
 10
65.07274134032382
 20
207.7281547723618
 30
0.0
 10
65.07767559235009
 20
207.7434401503527
 30
0.0
 10
65.0813979808902
 20
207.7549714048481
 30
0.0
 10
65.08493881113333
 20
207.7664963877039
 30
0.0
 10
65.08829749632335
 20
207.7780110855772
 30
0.0
 10
65.09054691051428
 20
207.785722830898
 30
0.0
 10
65.09271462553556
 20
207.7934299630026
 30
0.0
 10
65.09480045033703
 20
207.8011311418121
 30
0.0
 10
65.09584642396608
 20
207.8049930337322
 30
0.0
 10
65.09687180467884
 20
207.8088534285781
 30
0.0
 10
65.09787660622888
 20
207.8127123093065
 30
0.0
 10
65.10191728946472
 20
207.8282303134997
 30
0.0
 10
65.10562517775881
 20
207.8437238322132
 30
0.0
 10
65.10899853233517
 20
207.8591805415313
 30
0.0
 10
65.11069699136514
 20
207.8669628801265
 30
0.0
 10
65.11231064449636
 20
207.874735887364
 30
0.0
 10
65.11383946776938
 20
207.8824984410344
 30
0.0
 10
65.11461927119473
 20
207.8864578692077
 30
0.0
 10
65.11537700451227
 20
207.8904145776859
 30
0.0
 10
65.11611265676117
 20
207.8943683715129
 30
0.0
 10
65.11758960959788
 20
207.9023063164018
 30
0.0
 10
65.11897755870305
 20
207.9102325129999
 30
0.0
 10
65.12027653366544
 20
207.9181460746588
 30
0.0
 10
65.12355608756805
 20
207.9381256376026
 30
0.0
 10
65.12626849948671
 20
207.9580246624901
 30
0.0
 10
65.12841456061231
 20
207.9778190779268
 30
0.0
 10
65.12928235686345
 20
207.985823285872
 30
0.0
 10
65.13005754759406
 20
207.9938103888487
 30
0.0
 10
65.1307400641908
 20
208.0017791560778
 30
0.0
 10
65.13142710130442
 20
208.0098007028943
 30
0.0
 10
65.13202023259966
 20
208.0178036702729
 30
0.0
 10
65.13251915804241
 20
208.0257859450306
 30
0.0
 10
65.13302146425345
 20
208.0338223084701
 30
0.0
 10
65.13342828358948
 20
208.0418376979085
 30
0.0
 10
65.13374133837236
 20
208.0498322430927
 30
0.0
 10
65.13405671524203
 20
208.0578860879009
 30
0.0
 10
65.13427693140013
 20
208.065918778083
 30
0.0
 10
65.13440262418663
 20
208.0739293829489
 30
0.0
 10
65.1345652957652
 20
208.0842967061605
 30
0.0
 10
65.1345696451275
 20
208.0946270375029
 30
0.0
 10
65.13441329101373
 20
208.1049149827557
 30
0.0
 10
65.13430813283294
 20
208.1118342865333
 30
0.0
 10
65.13413028162104
 20
208.1187344172762
 30
0.0
 10
65.13387853741107
 20
208.1256131957233
 30
0.0
 10
65.13375201216927
 20
208.1290704315685
 30
0.0
 10
65.13360682146909
 20
208.1325222737989
 30
0.0
 10
65.13344278520233
 20
208.135968530915
 30
0.0
 10
65.13277997939041
 20
208.1498934957433
 30
0.0
 10
65.13180949159792
 20
208.1637272752543
 30
0.0
 10
65.13053053616836
 20
208.177460082619
 30
0.0
 10
65.12988278623042
 20
208.1844153094525
 30
0.0
 10
65.12915591132419
 20
208.1913446359424
 30
0.0
 10
65.1283588797103
 20
208.1982513422107
 30
0.0
 10
65.12755551023875
 20
208.2052129694117
 30
0.0
 10
65.12668086387506
 20
208.2121516152172
 30
0.0
 10
65.12572195700514
 20
208.2190677385068
 30
0.0
 10
65.12475680413868
 20
208.226028911098
 30
0.0
 10
65.12370628950169
 20
208.23296726681
 30
0.0
 10
65.12265577486468
 20
208.239905622522
 30
0.0
  0
SPLINE
  5
CD
330
70
100
AcDbEntity
  8
PIEZA
 62
    18
420
        0
370
     9
100
AcDbSpline
210
0.0
220
0.0
230
1.0
 70
     8
 71
     3
 72
    14
 73
    10
 74
     0
 42
0.0000000001
 43
0.0000000001
 40
0.0
 40
0.0
 40
0.0
 40
0.0
 40
1.0
 40
1.0
 40
1.0
 40
2.0
 40
2.0
 40
2.0
 40
3.0
 40
3.0
 40
3.0
 40
3.0
 10
63.93007344325376
 20
206.6049936724101
 30
0.0
 10
63.83584105375181
 20
206.564631690081
 30
0.0
 10
63.73933142896735
 20
206.5334117063121
 30
0.0
 10
63.64061078209983
 20
206.5110390457753
 30
0.0
 10
63.59125045866607
 20
206.4998527155067
 30
0.0
 10
63.54133412832615
 20
206.490891318199
 30
0.0
 10
63.49085064754053
 20
206.48419609744
 30
0.0
 10
63.4403671667549
 20
206.4775008766807
 30
0.0
 10
63.38933799483239
 20
206.4730920622578
 30
0.0
 10
63.33832285000009
 20
206.4710312259016
 30
0.0
  0
SPLINE
  5
CE
330
70
100
AcDbEntity
  8
PIEZA
 62
    18
420
        0
370
     9
100
AcDbSpline
210
0.0
220
0.0
230
1.0
 70
     8
 71
     3
 72
    38
 73
    34
 74
     0
 42
0.0000000001
 43
0.0000000001
 40
0.0
 40
0.0
 40
0.0
 40
0.0
 40
1.0
 40
1.0
 40
1.0
 40
2.0
 40
2.0
 40
2.0
 40
3.0
 40
3.0
 40
3.0
 40
4.0
 40
4.0
 40
4.0
 40
5.0
 40
5.0
 40
5.0
 40
6.0
 40
6.0
 40
6.0
 40
7.0
 40
7.0
 40
7.0
 40
8.0
 40
8.0
 40
8.0
 40
9.0
 40
9.0
 40
9.0
 40
10.0
 40
10.0
 40
10.0
 40
11.0
 40
11.0
 40
11.0
 40
11.0
 10
148.4580604730528
 20
205.4551540302778
 30
0.0
 10
148.4621174987811
 20
205.4485125385427
 30
0.0
 10
148.4652665201742
 20
205.4433855300286
 30
0.0
 10
148.4684087936263
 20
205.4382432216448
 30
0.0
 10
148.4741083129731
 20
205.4289159983579
 30
0.0
 10
148.4797856319735
 20
205.4195384393562
 30
0.0
 10
148.485429697599
 20
205.4101454861867
 30
0.0
 10
148.502479931111
 20
205.3817701880355
 30
0.0
 10
148.5192266970618
 20
205.3532544039754
 30
0.0
 10
148.5356793375891
 20
205.3245612381014
 30
0.0
 10
148.5622797167006
 20
205.2781705636765
 30
0.0
 10
148.5881112539888
 20
205.2313162144165
 30
0.0
 10
148.6131531115443
 20
205.1840446378686
 30
0.0
 10
148.6549192178436
 20
205.1052026555324
 30
0.0
 10
148.6944886487273
 20
205.0252000597376
 30
0.0
 10
148.7318011526689
 20
204.944161084361
 30
0.0
 10
148.7664544772373
 20
204.8688975769635
 30
0.0
 10
148.799161104066
 20
204.792740147059
 30
0.0
 10
148.8298709775432
 20
204.7157777406551
 30
0.0
 10
148.8790410418603
 20
204.5925520140599
 30
0.0
 10
148.9230922854446
 20
204.4672626723509
 30
0.0
 10
148.9619469252169
 20
204.3403782110985
 30
0.0
 10
148.996998252168
 20
204.2259139215732
 30
0.0
 10
149.0278205296878
 20
204.1101515074182
 30
0.0
 10
149.0540673626678
 20
203.9933969027635
 30
0.0
 10
149.0762593592997
 20
203.8946795529335
 30
0.0
 10
149.0951804185071
 20
203.7952528964972
 30
0.0
 10
149.1115543769141
 20
203.695350292738
 30
0.0
 10
149.1292163207332
 20
203.5875892901084
 30
0.0
 10
149.1439146906305
 20
203.4792745186309
 30
0.0
 10
149.1523306204433
 20
203.3704826866701
 30
0.0
 10
149.1570428651886
 20
203.3095679986962
 30
0.0
 10
149.1597855018263
 20
203.248503747466
 30
0.0
 10
149.162528138464
 20
203.1874394962357
 30
0.0
  0
SPLINE
  5
CF
330
70
100
AcDbEntity
  8
PIEZA
 62
    18
420
        0
370
     9
100
AcDbSpline
210
0.0
220
0.0
230
1.0
 70
     8
 71
     3
 72
    14
 73
    10
 74
     0
 42
0.0000000001
 43
0.0000000001
 40
0.0
 40
0.0
 40
0.0
 40
0.0
 40
1.0
 40
1.0
 40
1.0
 40
2.0
 40
2.0
 40
2.0
 40
3.0
 40
3.0
 40
3.0
 40
3.0
 10
143.0555481562058
 20
216.7489239326641
 30
0.0
 10
143.0574272727311
 20
216.7502936729639
 30
0.0
 10
143.0593063892564
 20
216.7516634132633
 30
0.0
 10
143.0612045777034
 20
216.7530041293526
 30
0.0
 10
143.1003242577215
 20
216.7806348867087
 30
0.0
 10
143.1475443365563
 20
216.7959382196848
 30
0.0
 10
143.1949554177544
 20
216.8056430207299
 30
0.0
 10
143.2423664989526
 20
216.8153478217747
 30
0.0
 10
143.2899685825128
 20
216.8194540908892
 30
0.0
 10
143.3375706660736
 20
216.8235603600034
 30
0.0
  0
LINE
  5
D0
330
70
100
AcDbEntity
  8
PIEZA
 62
    18
420
        0
370
     9
100
AcDbLine
 10
149.1667400825539
 20
203.2071865619943
 30
0.0
 11
149.1680020134769
 21
203.2020575033471
 31
0.0
  0
LINE
  5
D1
330
70
100
AcDbEntity
  8
PIEZA
 62
    18
420
        0
370
     9
100
AcDbLine
 10
143.3375695456446
 20
216.8235603600011
 30
0.0
 11
176.7199824271246
 21
216.8235603600043
 31
0.0
  0
SPLINE
  5
D2
330
70
100
AcDbEntity
  8
PIEZA
 62
    18
420
        0
370
     9
100
AcDbSpline
210
0.0
220
0.0
230
1.0
 70
     8
 71
     3
 72
     8
 73
     4
 74
     0
 42
0.0000000001
 43
0.0000000001
 40
0.0
 40
0.0
 40
0.0
 40
0.0
 40
1.0
 40
1.0
 40
1.0
 40
1.0
 10
142.813257613923
 20
216.0072674203108
 30
0.0
 10
144.4737801079915
 20
212.3760258352128
 30
0.0
 10
146.3590365309312
 20
208.8518213517962
 30
0.0
 10
148.4580604730509
 20
205.45515403028
 30
0.0
  0
SPLINE
  5
D3
330
70
100
AcDbEntity
  8
PIEZA
 62
    18
420
        0
370
     9
100
AcDbSpline
210
0.0
220
0.0
230
1.0
 70
     8
 71
     3
 72
    11
 73
     7
 74
     0
 42
0.0000000001
 43
0.0000000001
 40
0.0
 40
0.0
 40
0.0
 40
0.0
 40
1.0
 40
1.0
 40
1.0
 40
2.0
 40
2.0
 40
2.0
 40
2.0
 10
143.3375695456446
 20
216.8235603600011
 30
0.0
 10
143.0191599974283
 20
216.8235603600011
 30
0.0
 10
142.7610380583751
 20
216.5654384209479
 30
0.0
 10
142.7610380583751
 20
216.2470288727319
 30
0.0
 10
142.7610380583751
 20
216.1642871490927
 30
0.0
 10
142.778847913371
 20
216.0825147813197
 30
0.0
 10
142.8132576139223
 20
216.0072674203115
 30
0.0
  0
LINE
  5
D4
330
70
100
AcDbEntity
  8
PIEZA
 62
    18
420
        0
370
     9
100
AcDbLine
 10
149.9912524690233
 20
187.9969848151105
 30
0.0
 11
170.0662695532576
 21
187.9969859965432
 31
0.0
  0
LINE
  5
D5
330
70
100
AcDbEntity
  8
PIEZA
 62
    18
420
        0
370
     9
100
AcDbLine
 10
149.162528138464
 20
203.1874394962357
 30
0.0
 11
149.9912524690233
 21
187.9969848151105
 31
0.0
  0
SPLINE
  5
D6
330
70
100
AcDbEntity
  8
PIEZA
 62
    18
420
        0
370
     9
100
AcDbSpline
210
0.0
220
0.0
230
1.0
 70
     8
 71
     3
 72
    95
 73
    91
 74
     0
 42
0.0000000001
 43
0.0000000001
 40
0.0
 40
0.0
 40
0.0
 40
0.0
 40
1.0
 40
1.0
 40
1.0
 40
2.0
 40
2.0
 40
2.0
 40
3.0
 40
3.0
 40
3.0
 40
4.0
 40
4.0
 40
4.0
 40
5.0
 40
5.0
 40
5.0
 40
6.0
 40
6.0
 40
6.0
 40
7.0
 40
7.0
 40
7.0
 40
8.0
 40
8.0
 40
8.0
 40
9.0
 40
9.0
 40
9.0
 40
10.0
 40
10.0
 40
10.0
 40
11.0
 40
11.0
 40
11.0
 40
12.0
 40
12.0
 40
12.0
 40
13.0
 40
13.0
 40
13.0
 40
14.0
 40
14.0
 40
14.0
 40
15.0
 40
15.0
 40
15.0
 40
16.0
 40
16.0
 40
16.0
 40
17.0
 40
17.0
 40
17.0
 40
18.0
 40
18.0
 40
18.0
 40
19.0
 40
19.0
 40
19.0
 40
20.0
 40
20.0
 40
20.0
 40
21.0
 40
21.0
 40
21.0
 40
22.0
 40
22.0
 40
22.0
 40
23.0
 40
23.0
 40
23.0
 40
24.0
 40
24.0
 40
24.0
 40
25.0
 40
25.0
 40
25.0
 40
26.0
 40
26.0
 40
26.0
 40
27.0
 40
27.0
 40
27.0
 40
28.0
 40
28.0
 40
28.0
 40
29.0
 40
29.0
 40
29.0
 40
30.0
 40
30.0
 40
30.0
 40
30.0
 10
86.03410278193607
 20
142.4612036202935
 30
0.0
 10
86.4850751106131
 20
142.4537209506136
 30
0.0
 10
86.8920303575023
 20
142.4462382809323
 30
0.0
 10
87.28650591416506
 20
142.4223161982098
 30
0.0
 10
87.66489685599806
 20
142.3993695307693
 30
0.0
 10
88.03180506995481
 20
142.361296742169
 30
0.0
 10
88.39715359915512
 20
142.3123725674954
 30
0.0
 10
88.74700876813319
 20
142.2655231236656
 30
0.0
 10
89.09543373079861
 20
142.208723130021
 30
0.0
 10
89.44176489497479
 20
142.1410154356925
 30
0.0
 10
89.77274339118681
 20
142.0763091858091
 30
0.0
 10
90.10180960823296
 20
142.0016408651376
 30
0.0
 10
90.42840129771692
 20
141.9174586113609
 30
0.0
 10
90.7398163490045
 20
141.8371882869107
 30
0.0
 10
91.04898151055467
 20
141.7482677050187
 30
0.0
 10
91.35544611668349
 20
141.6507940808359
 30
0.0
 10
91.71753651789693
 20
141.5356282085559
 30
0.0
 10
92.0758570482863
 20
141.4085226203435
 30
0.0
 10
92.42958961289156
 20
141.2697579486185
 30
0.0
 10
92.76056825733091
 20
141.1399193430185
 30
0.0
 10
93.0875301959033
 20
140.9998733576444
 30
0.0
 10
93.40987822189026
 20
140.8499145918856
 30
0.0
 10
93.71002372492943
 20
140.7102846095211
 30
0.0
 10
94.00616901591694
 20
140.5620603543305
 30
0.0
 10
94.29784508414584
 20
140.4055222651176
 30
0.0
 10
94.56796349969875
 20
140.26055383871
 30
0.0
 10
94.83424891546858
 20
140.1084551067174
 30
0.0
 10
95.09633171672266
 20
139.9494196702598
 30
0.0
 10
95.37024564141376
 20
139.783204945919
 30
0.0
 10
95.63956895256335
 20
139.6094130980221
 30
0.0
 10
95.90387480993411
 20
139.4283111041298
 30
0.0
 10
96.14180291078898
 20
139.2652831111202
 30
0.0
 10
96.37566506869088
 20
139.0963312694997
 30
0.0
 10
96.60518981201441
 20
138.9216845994789
 30
0.0
 10
96.80925926051376
 20
138.7664070066682
 30
0.0
 10
97.00990002158043
 20
138.606627702938
 30
0.0
 10
97.20692288864647
 20
138.4425079602036
 30
0.0
 10
97.38777177807758
 20
138.2918611157577
 30
0.0
 10
97.56557239168571
 20
138.137557211354
 30
0.0
 10
97.74017367731392
 20
137.9797146652504
 30
0.0
 10
97.91037498187485
 20
137.8258497772258
 30
0.0
 10
98.07753617390913
 20
137.6686223489955
 30
0.0
 10
98.24152075739466
 20
137.5081476415964
 30
0.0
 10
98.4013299854544
 20
137.3517589215865
 30
0.0
 10
98.55812231038479
 20
137.1922861808235
 30
0.0
 10
98.71177877503626
 20
137.0298537507496
 30
0.0
 10
98.86140697533138
 20
136.8716796561129
 30
0.0
 10
99.00806157982136
 20
136.7106990207088
 30
0.0
 10
99.15165981072197
 20
136.5470163646028
 30
0.0
 10
99.39364036500759
 20
136.2711911012745
 30
0.0
 10
99.62694192918156
 20
135.9876930812429
 30
0.0
 10
99.8510476847306
 20
135.6971205013246
 30
0.0
 10
100.0655266856601
 20
135.4190298450385
 30
0.0
 10
100.2715829453278
 20
135.1344593684464
 30
0.0
 10
100.4688057346883
 20
134.8438933403804
 30
0.0
 10
100.6646601365622
 20
134.555343341589
 30
0.0
 10
100.8518032211183
 20
134.2608807003617
 30
0.0
 10
101.0299133023918
 20
133.961036854874
 30
0.0
 10
101.2079514223424
 20
133.6613141544659
 30
0.0
 10
101.3769638366946
 20
133.3562145972248
 30
0.0
 10
101.5366114817957
 20
133.0463510210959
 30
0.0
 10
101.6014941488049
 20
132.9204188458017
 30
0.0
 10
101.6648300326597
 20
132.7936997953615
 30
0.0
 10
101.7266021176247
 20
132.6662197164319
 30
0.0
 10
101.7990228498295
 20
132.5167638471212
 30
0.0
 10
101.8692941574943
 20
132.3662619524405
 30
0.0
 10
101.9373803833958
 20
132.2147774701577
 30
0.0
 10
102.0177999153689
 20
132.0358527169496
 30
0.0
 10
102.0951710452422
 20
131.8555571582374
 30
0.0
 10
102.1694395068532
 20
131.673990786566
 30
0.0
 10
102.2550932529322
 20
131.4645904629511
 30
0.0
 10
102.336620144007
 20
131.2534998326799
 30
0.0
 10
102.4139645973197
 20
131.0408850419689
 30
0.0
 10
102.5015887845226
 20
130.8000119421495
 30
0.0
 10
102.5838448896943
 20
130.5571826104069
 30
0.0
 10
102.6606371163255
 20
130.312637778864
 30
0.0
 10
102.7464416015088
 20
130.0393934116232
 30
0.0
 10
102.8254244828319
 20
129.7640072581092
 30
0.0
 10
102.8975208079609
 20
129.4868149521845
 30
0.0
 10
102.9771964336839
 20
129.1804821345162
 30
0.0
 10
103.0484614627889
 20
128.8719434509656
 30
0.0
 10
103.110905813817
 20
128.5616609870048
 30
0.0
 10
103.1792867270391
 20
128.2218800797952
 30
0.0
 10
103.2370900813627
 20
127.8800080703115
 30
0.0
 10
103.2852770788654
 20
127.5366805628668
 30
0.0
 10
103.3376456657903
 20
127.1635596516419
 30
0.0
 10
103.3786564963769
 20
126.7887196703469
 30
0.0
 10
103.4037032180958
 20
126.4129728652163
 30
0.0
 10
103.4307530113712
 20
126.0071763096186
 30
0.0
 10
103.4391831852006
 20
125.6003220867943
 30
0.0
 10
103.4476133590309
 20
125.19346786397
 30
0.0
  0
SPLINE
  5
D7
330
70
100
AcDbEntity
  8
PIEZA
 62
    18
420
        0
370
     9
100
AcDbSpline
210
0.0
220
0.0
230
1.0
 70
     8
 71
     3
 72
    11
 73
     7
 74
     0
 42
0.0000000001
 43
0.0000000001
 40
0.0
 40
0.0
 40
0.0
 40
0.0
 40
1.0
 40
1.0
 40
1.0
 40
2.0
 40
2.0
 40
2.0
 40
2.0
 10
155.3981739474963
 20
187.0168762437618
 30
0.0
 10
155.4787787208927
 20
184.4595331575254
 30
0.0
 10
157.6172579859289
 20
182.4517400513851
 30
0.0
 10
160.1746010721646
 20
182.5323448247815
 30
0.0
 10
162.6049535958567
 20
182.6089469887617
 30
0.0
 10
164.5625163856113
 20
184.5514633147835
 30
0.0
 10
164.6578685385657
 20
186.98115244055
 30
0.0
  0
LINE
  5
D8
330
70
100
AcDbEntity
  8
PIEZA
 62
    18
420
        0
370
     9
100
AcDbLine
 10
155.3575817801731
 20
187.9969851309239
 30
0.0
 11
155.3981739474963
 21
187.0168762437618
 31
0.0
  0
SPLINE
  5
D9
330
70
100
AcDbEntity
  8
PIEZA
 62
    18
420
        0
370
     9
100
AcDbSpline
210
0.0
220
0.0
230
1.0
 70
     8
 71
     3
 72
    38
 73
    34
 74
     0
 42
0.0000000001
 43
0.0000000001
 40
0.0
 40
0.0
 40
0.0
 40
0.0
 40
1.0
 40
1.0
 40
1.0
 40
2.0
 40
2.0
 40
2.0
 40
3.0
 40
3.0
 40
3.0
 40
4.0
 40
4.0
 40
4.0
 40
5.0
 40
5.0
 40
5.0
 40
6.0
 40
6.0
 40
6.0
 40
7.0
 40
7.0
 40
7.0
 40
8.0
 40
8.0
 40
8.0
 40
9.0
 40
9.0
 40
9.0
 40
10.0
 40
10.0
 40
10.0
 40
11.0
 40
11.0
 40
11.0
 40
11.0
 10
171.5994615492287
 20
205.4551540302778
 30
0.0
 10
171.5954045235004
 20
205.4485125385427
 30
0.0
 10
171.5922555021074
 20
205.4433855300286
 30
0.0
 10
171.5891132286546
 20
205.4382432216448
 30
0.0
 10
171.5834137093078
 20
205.4289159983579
 30
0.0
 10
171.577736390308
 20
205.4195384393562
 30
0.0
 10
171.5720923246825
 20
205.4101454861867
 30
0.0
 10
171.5550420911699
 20
205.3817701880355
 30
0.0
 10
171.5382953252191
 20
205.3532544039754
 30
0.0
 10
171.5218426846918
 20
205.3245612381014
 30
0.0
 10
171.495242305581
 20
205.2781705636765
 30
0.0
 10
171.469410768292
 20
205.2313162144165
 30
0.0
 10
171.4443689107365
 20
205.1840446378686
 30
0.0
 10
171.4026028044373
 20
205.1052026555324
 30
0.0
 10
171.3630333735542
 20
205.0252000597376
 30
0.0
 10
171.3257208696126
 20
204.944161084361
 30
0.0
 10
171.2910675450435
 20
204.8688975769635
 30
0.0
 10
171.2583609182155
 20
204.792740147059
 30
0.0
 10
171.2276510447376
 20
204.7157777406551
 30
0.0
 10
171.1784809804206
 20
204.5925520140599
 30
0.0
 10
171.1344297368369
 20
204.4672626723509
 30
0.0
 10
171.0955750970639
 20
204.3403782110985
 30
0.0
 10
171.0605237701129
 20
204.2259139215732
 30
0.0
 10
171.0297014925931
 20
204.1101515074182
 30
0.0
 10
171.0034546596131
 20
203.9933969027635
 30
0.0
 10
170.9812626629812
 20
203.8946795529335
 30
0.0
 10
170.9623416037744
 20
203.7952528964972
 30
0.0
 10
170.9459676453668
 20
203.695350292738
 30
0.0
 10
170.9283057015483
 20
203.5875892901084
 30
0.0
 10
170.9136073316504
 20
203.4792745186309
 30
0.0
 10
170.9051914018383
 20
203.3704826866701
 30
0.0
 10
170.9004791570923
 20
203.3095679986962
 30
0.0
 10
170.8977365204546
 20
203.248503747466
 30
0.0
 10
170.8949938838168
 20
203.1874394962357
 30
0.0
  0
SPLINE
  5
DA
330
70
100
AcDbEntity
  8
PIEZA
 62
    18
420
        0
370
     9
100
AcDbSpline
210
0.0
220
0.0
230
1.0
 70
     8
 71
     3
 72
    14
 73
    10
 74
     0
 42
0.0000000001
 43
0.0000000001
 40
0.0
 40
0.0
 40
0.0
 40
0.0
 40
1.0
 40
1.0
 40
1.0
 40
2.0
 40
2.0
 40
2.0
 40
3.0
 40
3.0
 40
3.0
 40
3.0
 10
177.0019738660757
 20
216.7489239326641
 30
0.0
 10
177.0000947495504
 20
216.7502936729639
 30
0.0
 10
176.9982156330252
 20
216.7516634132633
 30
0.0
 10
176.9963174445775
 20
216.7530041293526
 30
0.0
 10
176.9571977645594
 20
216.7806348867087
 30
0.0
 10
176.9099776857246
 20
216.7959382196848
 30
0.0
 10
176.8625666045265
 20
216.8056430207299
 30
0.0
 10
176.815155523329
 20
216.8153478217747
 30
0.0
 10
176.7675534397681
 20
216.8194540908892
 30
0.0
 10
176.7199513562079
 20
216.8235603600034
 30
0.0
  0
LINE
  5
DB
330
70
100
AcDbEntity
  8
PIEZA
 62
    18
420
        0
370
     9
100
AcDbLine
 10
170.890781939727
 20
203.2071865619943
 30
0.0
 11
170.8895200088039
 21
203.2020575033471
 31
0.0
  0
SPLINE
  5
DC
330
70
100
AcDbEntity
  8
PIEZA
 62
    18
420
        0
370
     9
100
AcDbSpline
210
0.0
220
0.0
230
1.0
 70
     8
 71
     3
 72
     8
 73
     4
 74
     0
 42
0.0000000001
 43
0.0000000001
 40
0.0
 40
0.0
 40
0.0
 40
0.0
 40
1.0
 40
1.0
 40
1.0
 40
1.0
 10
171.5994615492088
 20
205.4551540302463
 30
0.0
 10
173.6984854913375
 20
208.8518213517728
 30
0.0
 10
175.5837419142843
 20
212.376025835201
 30
0.0
 10
177.2442644083579
 20
216.0072674203108
 30
0.0
  0
SPLINE
  5
DD
330
70
100
AcDbEntity
  8
PIEZA
 62
    18
420
        0
370
     9
100
AcDbSpline
210
0.0
220
0.0
230
1.0
 70
     8
 71
     3
 72
    11
 73
     7
 74
     0
 42
0.0000000001
 43
0.0000000001
 40
0.0
 40
0.0
 40
0.0
 40
0.0
 40
1.0
 40
1.0
 40
1.0
 40
2.0
 40
2.0
 40
2.0
 40
2.0
 10
177.2442644083586
 20
216.0072674203115
 30
0.0
 10
177.3766810021277
 20
216.2968369043559
 30
0.0
 10
177.2492834131015
 20
216.6389242106847
 30
0.0
 10
176.9597139290567
 20
216.7713408044539
 30
0.0
 10
176.8844665680485
 20
216.8057505050055
 30
0.0
 10
176.8026942002758
 20
216.8235603600011
 30
0.0
 10
176.7199524766362
 20
216.8235603600011
 30
0.0
  0
LINE
  5
DE
330
70
100
AcDbEntity
  8
PIEZA
 62
    18
420
        0
370
     9
100
AcDbLine
 10
170.8949938838168
 20
203.1874394962357
 30
0.0
 11
170.0662695532576
 21
187.9969848151105
 31
0.0
  0
LINE
  5
DF
330
70
100
AcDbEntity
  8
PIEZA
 62
    18
420
        0
370
     9
100
AcDbLine
 10
88.67587808895727
 20
188.0800567816833
 30
0.0
 11
51.75195558342217
 21
188.0800567816833
 31
0.0
  0
SPLINE
  5
E0
330
70
100
AcDbEntity
  8
PIEZA
 62
    18
420
        0
370
     9
100
AcDbSpline
210
0.0
220
0.0
230
1.0
 70
     8
 71
     3
 72
     8
 73
     4
 74
     0
 42
0.0000000001
 43
0.0000000001
 40
0.0
 40
0.0
 40
0.0
 40
0.0
 40
1.0
 40
1.0
 40
1.0
 40
1.0
 10
51.559778420999
 20
188.2722339441064
 30
0.0
 10
51.559778420999
 20
188.1660974280343
 30
0.0
 10
51.64581906735006
 20
188.0800567816833
 30
0.0
 10
51.75195558342217
 20
188.0800567816833
 30
0.0
  0
SPLINE
  5
E1
330
70
100
AcDbEntity
  8
PIEZA
 62
    18
420
        0
370
     9
100
AcDbSpline
210
0.0
220
0.0
230
1.0
 70
     8
 71
     3
 72
     8
 73
     4
 74
     0
 42
0.0000000001
 43
0.0000000001
 40
0.0
 40
0.0
 40
0.0
 40
0.0
 40
1.0
 40
1.0
 40
1.0
 40
1.0
 10
51.75195558342217
 20
216.9066311451443
 30
0.0
 10
51.64581906735006
 20
216.9066311451443
 30
0.0
 10
51.559778420999
 20
216.8205904987933
 30
0.0
 10
51.559778420999
 20
216.7144539827215
 30
0.0
  0
SPLINE
  5
E2
330
70
100
AcDbEntity
  8
PIEZA
 62
    18
420
        0
370
     9
100
AcDbSpline
210
0.0
220
0.0
230
1.0
 70
     8
 71
     3
 72
    11
 73
     7
 74
     0
 42
0.0000000001
 43
0.0000000001
 40
0.0
 40
0.0
 40
0.0
 40
0.0
 40
1.0
 40
1.0
 40
1.0
 40
2.0
 40
2.0
 40
2.0
 40
2.0
 10
103.2146553082004
 20
215.9764528119833
 30
0.0
 10
103.4099690680122
 20
216.2279228412578
 30
0.0
 10
103.3644454169633
 20
216.5901126644671
 30
0.0
 10
103.1129753876889
 20
216.7854264242789
 30
0.0
 10
103.0118276800403
 20
216.8639866373357
 30
0.0
 10
102.8874010440683
 20
216.9066311451443
 30
0.0
 10
102.759328541797
 20
216.9066311451443
 30
0.0
  0
INSERT
  5
E5
330
70
100
AcDbEntity
  8
COTAS
100
AcDbBlockReference
  2
Block_0
 10
0.0
 20
0.0
 30
0.0
  0
INSERT
  5
F1
330
70
100
AcDbEntity
  8
COTAS
100
AcDbBlockReference
  2
Block_1
 10
0.0
 20
0.0
 30
0.0
  0
INSERT
  5
FD
330
70
100
AcDbEntity
  8
COTAS
100
AcDbBlockReference
  2
Block_2
 10
0.0
 20
0.0
 30
0.0
  0
INSERT
  5
109
330
70
100
AcDbEntity
  8
COTAS
100
AcDbBlockReference
  2
Block_3
 10
0.0
 20
0.0
 30
0.0
  0
LINE
  5
114
330
70
100
AcDbEntity
  8
COTAS
 62
    18
420
        0
370
     9
100
AcDbLine
 10
46.68241370776871
 20
233.184597535238
 30
0.0
 11
47.58086623976618
 21
234.0830500672358
 31
0.0
  0
LINE
  5
115
330
70
100
AcDbEntity
  8
COTAS
 62
    18
420
        0
370
     9
100
AcDbLine
 10
46.68241370776871
 20
228.8735754564314
 30
0.0
 11
51.559778420999
 21
233.750940169662
 31
0.0
  0
LINE
  5
116
330
70
100
AcDbEntity
  8
COTAS
 62
    18
420
        0
370
     9
100
AcDbLine
 10
46.68241370776839
 20
224.5625533776248
 30
0.0
 11
51.559778420999
 21
229.4399180908554
 31
0.0
  0
LINE
  5
117
330
70
100
AcDbEntity
  8
COTAS
 62
    18
420
        0
370
     9
100
AcDbLine
 10
46.68241370776871
 20
220.4466258873476
 30
0.0
 11
51.559778420999
 21
225.3239906005782
 31
0.0
  0
LINE
  5
118
330
70
100
AcDbEntity
  8
COTAS
 62
    18
420
        0
370
     9
100
AcDbLine
 10
46.68241370776871
 20
216.1356038085413
 30
0.0
 11
51.559778420999
 21
221.0129685217716
 31
0.0
  0
LINE
  5
119
330
70
100
AcDbEntity
  8
COTAS
 62
    18
420
        0
370
     9
100
AcDbLine
 10
46.68241370776871
 20
185.1548653813319
 30
0.0
 11
51.559778420999
 21
190.0322300945625
 31
0.0
  0
LINE
  5
11A
330
70
100
AcDbEntity
  8
COTAS
 62
    18
420
        0
370
     9
100
AcDbLine
 10
46.68241370776839
 20
180.6487487139962
 30
0.0
 11
51.559778420999
 21
185.5261134272268
 31
0.0
  0
LINE
  5
11B
330
70
100
AcDbEntity
  8
COTAS
 62
    18
420
        0
370
     9
100
AcDbLine
 10
46.68241370776839
 20
176.33772663519
 30
0.0
 11
51.559778420999
 21
181.2150913484202
 31
0.0
  0
LINE
  5
11C
330
70
100
AcDbEntity
  8
COTAS
 62
    18
420
        0
370
     9
100
AcDbLine
 10
47.48083444899214
 20
172.8251252976071
 30
0.0
 11
52.35819916222244
 21
177.7024900108374
 31
0.0
  0
LINE
  5
11D
330
70
100
AcDbEntity
  8
COTAS
 62
    18
420
        0
370
     9
100
AcDbLine
 10
51.79185652779874
 20
172.8251252976071
 30
0.0
 11
56.66922124102902
 21
177.7024900108374
 31
0.0
  0
LINE
  5
11E
330
70
100
AcDbEntity
  8
COTAS
 62
    18
420
        0
370
     9
100
AcDbLine
 10
56.10287860660533
 20
172.8251252976071
 30
0.0
 11
60.98024331983562
 21
177.7024900108374
 31
0.0
  0
LINE
  5
11F
330
70
100
AcDbEntity
  8
COTAS
 62
    18
420
        0
370
     9
100
AcDbLine
 10
60.41390068541128
 20
172.8251252976071
 30
0.0
 11
65.29126539864188
 21
177.7024900108374
 31
0.0
  0
LINE
  5
120
330
70
100
AcDbEntity
  8
COTAS
 62
    18
420
        0
370
     9
100
AcDbLine
 10
64.72492276421786
 20
172.8251252976071
 30
0.0
 11
69.6022874774488
 21
177.7024900108374
 31
0.0
  0
LINE
  5
121
330
70
100
AcDbEntity
  8
COTAS
 62
    18
420
        0
370
     9
100
AcDbLine
 10
69.03594484302414
 20
172.8251252976065
 30
0.0
 11
73.91330955625474
 21
177.7024900108374
 31
0.0
  0
LINE
  5
122
330
70
100
AcDbEntity
  8
COTAS
 62
    18
420
        0
370
     9
100
AcDbLine
 10
73.34696692183072
 20
172.8251252976071
 30
0.0
 11
78.22433163506133
 21
177.7024900108374
 31
0.0
  0
LINE
  5
123
330
70
100
AcDbEntity
  8
COTAS
 62
    18
420
        0
370
     9
100
AcDbLine
 10
77.65798900063732
 20
172.8251252976071
 30
0.0
 11
82.5353537138676
 21
177.7024900108371
 31
0.0
  0
LINE
  5
124
330
70
100
AcDbEntity
  8
COTAS
 62
    18
420
        0
370
     9
100
AcDbLine
 10
81.96901107944325
 20
172.8251252976065
 30
0.0
 11
86.84637579267386
 21
177.7024900108371
 31
0.0
  0
LINE
  5
125
330
70
100
AcDbEntity
  8
COTAS
 62
    18
420
        0
370
     9
100
AcDbLine
 10
86.28003315824985
 20
172.8251252976065
 30
0.0
 11
91.15739787148047
 21
177.7024900108371
 31
0.0
  0
LINE
  5
126
330
70
100
AcDbEntity
  8
COTAS
 62
    18
420
        0
370
     9
100
AcDbLine
 10
90.59105523705644
 20
172.8251252976065
 30
0.0
 11
95.46841995028705
 21
177.7024900108371
 31
0.0
  0
LINE
  5
127
330
70
100
AcDbEntity
  8
COTAS
 62
    18
420
        0
370
     9
100
AcDbLine
 10
94.90207731586304
 20
172.8251252976071
 30
0.0
 11
99.77944202909332
 21
177.7024900108371
 31
0.0
  0
LINE
  5
128
330
70
100
AcDbEntity
  8
COTAS
 62
    18
420
        0
370
     9
100
AcDbLine
 10
99.21309939466963
 20
172.8251252976071
 30
0.0
 11
101.1202156925775
 21
174.7322415955144
 31
0.0
  0
LINE
  5
129
330
70
100
AcDbEntity
  8
COTAS
 62
    18
420
        0
370
     9
100
AcDbLine
 10
51.559778420999
 20
177.7024900108374
 30
0.0
 11
51.559778420999
 21
234.0830500672358
 31
0.0
  0
INSERT
  5
12B
330
70
100
AcDbEntity
  8
COTAS
100
AcDbBlockReference
  2
Block_4
 10
0.0
 20
0.0
 30
0.0
  0
INSERT
  5
137
330
70
100
AcDbEntity
  8
COTAS
100
AcDbBlockReference
  2
Block_5
 10
0.0
 20
0.0
 30
0.0
  0
LINE
  5
144
330
70
100
AcDbEntity
  8
COTAS
 62
    18
420
        0
370
     9
100
AcDbLine
 10
51.559778420999
 20
177.7024900108374
 30
0.0
 11
101.1202156925772
 21
177.7024900108381
 31
0.0
  0
INSERT
  5
146
330
70
100
AcDbEntity
  8
COTAS
100
AcDbBlockReference
  2
Block_6
 10
0.0
 20
0.0
 30
0.0
  0
INSERT
  5
152
330
70
100
AcDbEntity
  8
COTAS
100
AcDbBlockReference
  2
Block_7
 10
0.0
 20
0.0
 30
0.0
  0
LINE
  5
15D
330
70
100
AcDbEntity
  8
COTAS
 62
    18
420
        0
370
     9
100
AcDbLine
 10
46.68241370776839
 20
189.4658874601385
 30
0.0
 11
51.559778420999
 21
194.3432521733687
 31
0.0
  0
LINE
  5
15E
330
70
100
AcDbEntity
  8
COTAS
 62
    18
420
        0
370
     9
100
AcDbLine
 10
46.68241370776839
 20
193.7769095389447
 30
0.0
 11
51.559778420999
 21
198.6542742521754
 31
0.0
  0
LINE
  5
15F
330
70
100
AcDbEntity
  8
COTAS
 62
    18
420
        0
370
     9
100
AcDbLine
 10
46.68241370776839
 20
198.0879316177514
 30
0.0
 11
51.559778420999
 21
202.965296330982
 31
0.0
  0
LINE
  5
160
330
70
100
AcDbEntity
  8
COTAS
 62
    18
420
        0
370
     9
100
AcDbLine
 10
46.68241370776839
 20
202.3989536965579
 30
0.0
 11
51.559778420999
 21
207.2763184097885
 31
0.0
  0
LINE
  5
161
330
70
100
AcDbEntity
  8
COTAS
 62
    18
420
        0
370
     9
100
AcDbLine
 10
46.68241370776839
 20
206.7099757753645
 30
0.0
 11
51.559778420999
 21
211.5873404885951
 31
0.0
  0
LINE
  5
162
330
70
100
AcDbEntity
  8
COTAS
 62
    18
420
        0
370
     9
100
AcDbLine
 10
46.68241370776839
 20
211.4227897919528
 30
0.0
 11
51.559778420999
 21
216.3001545051834
 31
0.0
  0
INSERT
  5
164
330
70
100
AcDbEntity
  8
COTAS
100
AcDbBlockReference
  2
Block_8
 10
0.0
 20
0.0
 30
0.0
  0
INSERT
  5
170
330
70
100
AcDbEntity
  8
COTAS
100
AcDbBlockReference
  2
Block_9
 10
0.0
 20
0.0
 30
0.0
  0
LINE
  5
181
330
70
100
AcDbEntity
  8
COTAS
 62
    18
420
        0
370
     9
100
AcDbLine
 10
137.179702735865
 20
177.7024900108374
 30
0.0
 11
182.8778298887541
 21
177.7024900108374
 31
0.0
  0
INSERT
  5
183
330
70
100
AcDbEntity
  8
COTAS
100
AcDbBlockReference
  2
Block_10
 10
0.0
 20
0.0
 30
0.0
  0
INSERT
  5
18F
330
70
100
AcDbEntity
  8
COTAS
100
AcDbBlockReference
  2
Block_11
 10
0.0
 20
0.0
 30
0.0
  0
INSERT
  5
19B
330
70
100
AcDbEntity
  8
COTAS
100
AcDbBlockReference
  2
Block_12
 10
0.0
 20
0.0
 30
0.0
  0
LINE
  5
1A7
330
70
100
AcDbEntity
  8
EJES
  6
AI-Linetype-0
 62
    18
420
        0
370
     9
100
AcDbLine
 10
61.3451499018425
 20
130.0020715203459
 30
0.0
 11
61.3451499018425
 21
135.7591420746376
 31
0.0
  0
LINE
  5
1A9
330
70
100
AcDbEntity
  8
EJES
  6
AI-Linetype-1
 62
    18
420
        0
370
     9
100
AcDbLine
 10
58.46661462469696
 20
132.8806067974918
 30
0.0
 11
64.22368517898869
 21
132.8806067974918
 31
0.0
  0
LINE
  5
1AB
330
70
100
AcDbEntity
  8
EJES
  6
AI-Linetype-2
 62
    18
420
        0
370
     9
100
AcDbLine
 10
58.46661462469696
 20
117.5284186527138
 30
0.0
 11
64.22368517898836
 21
117.5284186527138
 31
0.0
  0
LINE
  5
1AD
330
70
100
AcDbEntity
  8
EJES
  6
AI-Linetype-3
 62
    18
420
        0
370
     9
100
AcDbLine
 10
61.3451499018425
 20
114.649883375568
 30
0.0
 11
61.3451499018425
 21
120.4069539298597
 31
0.0
  0
LINE
  5
1AF
330
70
100
AcDbEntity
  8
EJES
  6
AI-Linetype-4
 62
    18
420
        0
370
     9
100
AcDbLine
 10
47.7142923329076
 20
211.8139363409329
 30
0.0
 11
59.24880775755191
 21
211.8139363409329
 31
0.0
  0
LINE
  5
1B1
330
70
100
AcDbEntity
  8
EJES
  6
AI-Linetype-5
 62
    18
420
        0
370
     9
100
AcDbLine
 10
47.32993800806158
 20
198.8419778773754
 30
0.0
 11
58.86445343270588
 21
198.8419778773754
 31
0.0
  0
LINE
  5
1B3
330
70
100
AcDbEntity
  8
EJES
  6
AI-Linetype-6
 62
    18
420
        0
370
     9
100
AcDbLine
 10
154.2615032988186
 20
198.8419778773754
 30
0.0
 11
165.7960187234629
 21
198.8419778773754
 31
0.0
  0
LINE
  5
1B5
330
70
100
AcDbEntity
  8
EJES
  6
AI-Linetype-7
 62
    18
420
        0
370
     9
100
AcDbLine
 10
151.3807887021025
 20
205.568178562183
 30
0.0
 11
151.3807887021025
 21
211.3334934348752
 31
0.0
  0
LINE
  5
1B7
330
70
100
AcDbEntity
  8
EJES
  6
AI-Linetype-8
 62
    18
420
        0
370
     9
100
AcDbLine
 10
148.4981312657562
 20
208.4508359985293
 30
0.0
 11
154.2634461384488
 21
208.4508359985293
 31
0.0
  0
LINE
  5
1B9
330
70
100
AcDbEntity
  8
EJES
  6
AI-Linetype-9
 62
    18
420
        0
370
     9
100
AcDbLine
 10
168.676733320179
 20
205.568178562183
 30
0.0
 11
168.676733320179
 21
211.3334934348752
 31
0.0
  0
LINE
  5
1BB
330
70
100
AcDbEntity
  8
EJES
  6
AI-Linetype-10
 62
    18
420
        0
370
     9
100
AcDbLine
 10
165.7940758838327
 20
208.4508359985293
 30
0.0
 11
171.5593907565253
 21
208.4508359985293
 31
0.0
  0
LINE
  5
1BD
330
70
100
AcDbEntity
  8
EJES
  6
AI-Linetype-11
 62
    18
420
        0
370
     9
100
AcDbLine
 10
160.0287610111408
 20
207.9774193870034
 30
0.0
 11
160.0287610111408
 21
215.6504532948626
 31
0.0
  0
LINE
  5
1BF
330
70
100
AcDbEntity
  8
EJES
  6
AI-Linetype-12
 62
    18
420
        0
370
     9
100
AcDbLine
 10
163.8652779650702
 20
211.8139363409329
 30
0.0
 11
156.1922440572113
 21
211.8139363409329
 31
0.0
  0
LINE
  5
1C1
330
70
100
AcDbEntity
  8
EJES
  6
AI-Linetype-13
 62
    18
420
        0
370
     9
100
AcDbLine
 10
160.0287610111408
 20
192.021503292612
 30
0.0
 11
160.0287610111408
 21
205.6624524621389
 31
0.0
  0
LINE
  5
1C4
330
70
100
AcDbEntity
  8
OCULTO
  6
AI-Linetype-14
 62
    18
420
        0
370
     9
100
AcDbLine
 10
53.09719572038341
 20
203.7424955191638
 30
0.0
 11
53.09719572038341
 21
193.9414602355871
 31
0.0
  0
LINE
  5
1C6
330
70
100
AcDbEntity
  8
OCULTO
  6
AI-Linetype-15
 62
    18
420
        0
370
     9
100
AcDbLine
 10
53.09719572038341
 20
193.9414602355871
 30
0.0
 11
55.88166065716777
 21
193.8928572193253
 31
0.0
  0
LINE
  5
1C8
330
70
100
AcDbEntity
  8
OCULTO
  6
AI-Linetype-16
 62
    18
420
        0
370
     9
100
AcDbLine
 10
53.09719572038341
 20
203.7424955191638
 30
0.0
 11
55.88166065716777
 21
203.7910985354259
 31
0.0
  0
LINE
  5
1CA
330
70
100
AcDbEntity
  8
OCULTO
  6
AI-Linetype-17
 62
    18
420
        0
370
     9
100
AcDbLine
 10
53.57763862644134
 20
209.1715003576155
 30
0.0
 11
56.17203031915256
 21
209.1715003576155
 31
0.0
  0
LINE
  5
1CC
330
70
100
AcDbEntity
  8
OCULTO
  6
AI-Linetype-18
 62
    18
420
        0
370
     9
100
AcDbLine
 10
53.48155004522975
 20
214.7624629008888
 30
0.0
 11
53.48155004522975
 21
208.3514222264406
 31
0.0
  0
LINE
  5
1CE
330
70
100
AcDbEntity
  8
OCULTO
  6
AI-Linetype-19
 62
    18
420
        0
370
     9
100
AcDbLine
 10
53.57763862644134
 20
214.4563723242502
 30
0.0
 11
56.17203031915256
 21
214.4563723242502
 31
0.0
  0
CIRCLE
  5
1D0
330
70
100
AcDbEntity
  8
OCULTO
  6
AI-Linetype-20
 62
    18
420
        0
370
     9
100
AcDbCircle
 10
160.0287610111408
 20
198.8419778773754
 30
0.0
 40
4.900517641788322
  0
CIRCLE
  5
1D2
330
70
100
AcDbEntity
  8
OCULTO
  6
AI-Linetype-21
 62
    18
420
        0
370
     9
100
AcDbCircle
 10
151.3807887021027
 20
208.4508359985293
 30
0.0
 40
1.201107265144103
  0
CIRCLE
  5
1D4
330
70
100
AcDbEntity
  8
OCULTO
  6
AI-Linetype-22
 62
    18
420
        0
370
     9
100
AcDbCircle
 10
160.0287610111406
 20
211.8139363409329
 30
0.0
 40
2.642435983317373
  0
CIRCLE
  5
1D6
330
70
100
AcDbEntity
  8
OCULTO
  6
AI-Linetype-23
 62
    18
420
        0
370
     9
100
AcDbCircle
 10
168.6767333201788
 20
208.4508359985293
 30
0.0
 40
1.201107265144264
  0
ENDSEC
  0
SECTION
  2
OBJECTS
  0
DICTIONARY
  5
C
330
0
100
AcDbDictionary
281
     1
  3
ACAD_COLOR
350
63
  3
ACAD_DETAILVIEWSTYLE
350
6A
  3
ACAD_GROUP
350
D
  3
ACAD_LAYOUT
350
62
  3
ACAD_MATERIAL
350
10
  3
ACAD_MLEADERSTYLE
350
66
  3
ACAD_MLINESTYLE
350
5F
  3
ACAD_PLOTSETTINGS
350
61
  3
ACAD_PLOTSTYLENAME
350
E
  3
ACAD_SCALELIST
350
42
  3
ACAD_SECTIONVIEWSTYLE
350
68
  3
ACAD_TABLESTYLE
350
64
  3
ACAD_VISUALSTYLE
350
29
  3
ACDB_RECOMPOSE_DATA
350
1E1
  3
AcDbVariableDictionary
350
1D8
  0
DICTIONARY
  5
63
102
{ACAD_REACTORS
330
C
102
}
330
C
100
AcDbDictionary
281
     1
  0
DICTIONARY
  5
6A
102
{ACAD_REACTORS
330
C
102
}
330
C
100
AcDbDictionary
281
     1
  3
Imperial24
350
6B
  0
DICTIONARY
  5
D
102
{ACAD_REACTORS
330
C
102
}
330
C
100
AcDbDictionary
281
     1
  0
DICTIONARY
  5
62
102
{ACAD_REACTORS
330
C
102
}
330
C
100
AcDbDictionary
281
     1
  3
Layout1
350
6F
  3
Layout2
350
77
  3
Model
350
73
  0
DICTIONARY
  5
10
102
{ACAD_REACTORS
330
C
102
}
330
C
100
AcDbDictionary
281
     1
  3
ByBlock
350
19
  3
ByLayer
350
11
  3
Global
350
21
  0
DICTIONARY
  5
66
102
{ACAD_REACTORS
330
C
102
}
330
C
100
AcDbDictionary
281
     1
  3
Standard
350
67
  0
DICTIONARY
  5
5F
102
{ACAD_REACTORS
330
C
102
}
330
C
100
AcDbDictionary
281
     1
  3
Standard
350
60
  0
DICTIONARY
  5
61
102
{ACAD_REACTORS
330
C
102
}
330
C
100
AcDbDictionary
281
     1
  0
ACDBDICTIONARYWDFLT
  5
E
102
{ACAD_REACTORS
330
C
102
}
330
C
100
AcDbDictionary
281
     1
  3
Normal
350
F
100
AcDbDictionaryWithDefault
340
F
  0
DICTIONARY
  5
42
102
{ACAD_REACTORS
330
C
102
}
330
C
100
AcDbDictionary
281
     1
  3
A0
350
43
  3
A1
350
44
  3
A2
350
45
  3
A3
350
46
  3
A4
350
47
  3
A5
350
48
  3
A6
350
49
  3
A7
350
4A
  3
A8
350
4B
  3
A9
350
4C
  3
B0
350
4D
  3
B1
350
4E
  3
B2
350
4F
  3
B3
350
50
  3
B4
350
51
  3
B5
350
52
  3
B6
350
53
  0
DICTIONARY
  5
68
102
{ACAD_REACTORS
330
C
102
}
330
C
100
AcDbDictionary
281
     1
  3
Imperial24
350
69
  0
DICTIONARY
  5
64
102
{ACAD_REACTORS
330
C
102
}
330
C
100
AcDbDictionary
281
     1
  3
Standard
350
65
  0
DICTIONARY
  5
29
102
{ACAD_REACTORS
330
C
102
}
330
C
100
AcDbDictionary
281
     1
  3
2dWireframe
350
2F
  3
Basic
350
2E
  3
Brighten
350
35
  3
ColorChange
350
39
  3
Conceptual
350
32
  3
Dim
350
34
  3
EdgeColorOff
350
41
  3
Facepattern
350
38
  3
Flat
350
2A
  3
FlatWithEdges
350
2B
  3
Gouraud
350
2C
  3
GouraudWithEdges
350
2D
  3
Hidden
350
31
  3
JitterOff
350
3F
  3
Linepattern
350
37
  3
OverhangOff
350
40
  3
Realistic
350
33
  3
Shaded
350
3E
  3
Shaded with edges
350
3D
  3
Shades of Gray
350
3A
  3
Sketchy
350
3B
  3
Thicken
350
36
  3
Wireframe
350
30
  3
X-Ray
350
3C
  0
XRECORD
  5
1E1
102
{ACAD_REACTORS
330
C
102
}
330
C
100
AcDbXrecord
280
     1
 90
        1
330
65
  0
DICTIONARY
  5
1D8
102
{ACAD_REACTORS
330
C
102
}
330
C
100
AcDbDictionary
281
     1
  3
CANNOSCALE
350
1DD
  3
CMLEADERSTYLE
350
1DA
  3
CTABLESTYLE
350
1D9
  3
CVIEWDETAILSTYLE
350
1DB
  3
CVIEWSECTIONSTYLE
350
1DC
  0
ACDBDETAILVIEWSTYLE
  5
6B
102
{ACAD_XDICTIONARY
360
216
102
}
102
{ACAD_REACTORS
330
6A
102
}
330
6A
100
AcDbModelDocViewStyle
 70
     0
  3
Imperial24
290
     0
100
AcDbDetailViewStyle
 70
     0
 71
     0
 90
        3
 71
     1
340
55
 62
   256
 40
0.24
340
0
 62
   256
 40
0.24
300

 40
0.36
280
     3
 71
     2
340
5D
 90
       25
 62
   256
 71
     3
340
55
 62
   256
 40
0.24
 90
        1
 40
0.75
 90
        1
300
%<\AcVar ViewType \f "%tc1">% %<\AcVar ViewDetailId>%\PSCALE %<\AcVar ViewScale \f "%sn">%
 71
     4
340
5D
 90
       25
 62
   256
340
5D
 90
       25
 62
   256
280
     0
  0
LAYOUT
  5
6F
102
{ACAD_REACTORS
330
62
102
}
330
62
100
AcDbPlotSettings
  1

  2

  4

  6

 40
0.0
 41
0.0
 42
0.0
 43
0.0
 44
0.0
 45
0.0
 46
0.0
 47
0.0
 48
0.0
 49
0.0
140
0.0
141
0.0
142
1.0
143
1.0
 70
   688
 72
     0
 73
     0
 74
     5
  7

 75
    16
147
1.0
 76
     0
 77
     2
 78
   300
148
0.0
149
0.0
100
AcDbLayout
  1
Layout1
 70
     1
 71
     1
 10
0.0
 20
0.0
 11
12.0
 21
9.0
 12
0.0
 22
0.0
 32
0.0
 14
0.0
 24
0.0
 34
0.0
 15
0.0
 25
0.0
 35
0.0
146
0.0
 13
0.0
 23
0.0
 33
0.0
 16
1.0
 26
0.0
 36
0.0
 17
0.0
 27
1.0
 37
0.0
 76
     0
330
6C
  0
LAYOUT
  5
77
102
{ACAD_REACTORS
330
62
102
}
330
62
100
AcDbPlotSettings
  1

  2

  4

  6

 40
0.0
 41
0.0
 42
0.0
 43
0.0
 44
0.0
 45
0.0
 46
0.0
 47
0.0
 48
0.0
 49
0.0
140
0.0
141
0.0
142
1.0
143
1.0
 70
   688
 72
     0
 73
     0
 74
     5
  7

 75
    16
147
1.0
 76
     0
 77
     2
 78
   300
148
0.0
149
0.0
100
AcDbLayout
  1
Layout2
 70
     1
 71
     2
 10
0.0
 20
0.0
 11
12.0
 21
9.0
 12
0.0
 22
0.0
 32
0.0
 14
0.0
 24
0.0
 34
0.0
 15
0.0
 25
0.0
 35
0.0
146
0.0
 13
0.0
 23
0.0
 33
0.0
 16
1.0
 26
0.0
 36
0.0
 17
0.0
 27
1.0
 37
0.0
 76
     0
330
74
  0
LAYOUT
  5
73
102
{ACAD_REACTORS
330
62
102
}
330
62
100
AcDbPlotSettings
  1

  2

  4

  6

 40
0.0
 41
0.0
 42
0.0
 43
0.0
 44
0.0
 45
0.0
 46
0.0
 47
0.0
 48
0.0
 49
0.0
140
0.0
141
0.0
142
1.0
143
1.0
 70
  1712
 72
     0
 73
     0
 74
     0
  7

 75
     0
147
1.0
 76
     0
 77
     2
 78
   300
148
0.0
149
0.0
100
AcDbLayout
  1
Model
 70
     1
 71
     0
 10
0.0
 20
0.0
 11
12.0
 21
9.0
 12
0.0
 22
0.0
 32
0.0
 14
0.0
 24
0.0
 34
0.0
 15
0.0
 25
0.0
 35
0.0
146
0.0
 13
0.0
 23
0.0
 33
0.0
 16
1.0
 26
0.0
 36
0.0
 17
0.0
 27
1.0
 37
0.0
 76
     0
330
70
  0
MATERIAL
  5
19
102
{ACAD_XDICTIONARY
360
1A
102
}
102
{ACAD_REACTORS
330
10
102
}
330
10
100
AcDbMaterial
  1
ByBlock
 72
     0
 43
0.0208333333333333
 43
0.0
 43
0.0
 43
0.0
 43
0.0
 43
0.0208333333333333
 43
0.0
 43
0.0
 43
0.0
 43
0.0
 43
1.0
 43
0.0
 43
0.0
 43
0.0
 43
0.0
 43
1.0
 77
     0
 47
0.0208333333333333
 47
0.0
 47
0.0
 47
0.0
 47
0.0
 47
0.0208333333333333
 47
0.0
 47
0.0
 47
0.0
 47
0.0
 47
1.0
 47
0.0
 47
0.0
 47
0.0
 47
0.0
 47
1.0
171
     0
 49
0.0208333333333333
 49
0.0
 49
0.0
 49
0.0
 49
0.0
 49
0.0208333333333333
 49
0.0
 49
0.0
 49
0.0
 49
0.0
 49
1.0
 49
0.0
 49
0.0
 49
0.0
 49
0.0
 49
1.0
175
     0
142
0.0208333333333333
142
0.0
142
0.0
142
0.0
142
0.0
142
0.0208333333333333
142
0.0
142
0.0
142
0.0
142
0.0
142
1.0
142
0.0
142
0.0
142
0.0
142
0.0
142
1.0
179
     0
144
0.0208333333333333
144
0.0
144
0.0
144
0.0
144
0.0
144
0.0208333333333333
144
0.0
144
0.0
144
0.0
144
0.0
144
1.0
144
0.0
144
0.0
144
0.0
144
0.0
144
1.0
147
0.0208333333333333
147
0.0
147
0.0
147
0.0
147
0.0
147
0.0208333333333333
147
0.0
147
0.0
147
0.0
147
0.0
147
1.0
147
0.0
147
0.0
147
0.0
147
0.0
147
1.0
  0
MATERIAL
  5
11
102
{ACAD_XDICTIONARY
360
12
102
}
102
{ACAD_REACTORS
330
10
102
}
330
10
100
AcDbMaterial
  1
ByLayer
 72
     0
 43
0.0208333333333333
 43
0.0
 43
0.0
 43
0.0
 43
0.0
 43
0.0208333333333333
 43
0.0
 43
0.0
 43
0.0
 43
0.0
 43
1.0
 43
0.0
 43
0.0
 43
0.0
 43
0.0
 43
1.0
 77
     0
 47
0.0208333333333333
 47
0.0
 47
0.0
 47
0.0
 47
0.0
 47
0.0208333333333333
 47
0.0
 47
0.0
 47
0.0
 47
0.0
 47
1.0
 47
0.0
 47
0.0
 47
0.0
 47
0.0
 47
1.0
171
     0
 49
0.0208333333333333
 49
0.0
 49
0.0
 49
0.0
 49
0.0
 49
0.0208333333333333
 49
0.0
 49
0.0
 49
0.0
 49
0.0
 49
1.0
 49
0.0
 49
0.0
 49
0.0
 49
0.0
 49
1.0
175
     0
142
0.0208333333333333
142
0.0
142
0.0
142
0.0
142
0.0
142
0.0208333333333333
142
0.0
142
0.0
142
0.0
142
0.0
142
1.0
142
0.0
142
0.0
142
0.0
142
0.0
142
1.0
179
     0
144
0.0208333333333333
144
0.0
144
0.0
144
0.0
144
0.0
144
0.0208333333333333
144
0.0
144
0.0
144
0.0
144
0.0
144
1.0
144
0.0
144
0.0
144
0.0
144
0.0
144
1.0
147
0.0208333333333333
147
0.0
147
0.0
147
0.0
147
0.0
147
0.0208333333333333
147
0.0
147
0.0
147
0.0
147
0.0
147
1.0
147
0.0
147
0.0
147
0.0
147
0.0
147
1.0
  0
MATERIAL
  5
21
102
{ACAD_XDICTIONARY
360
22
102
}
102
{ACAD_REACTORS
330
10
102
}
330
10
100
AcDbMaterial
  1
Global
 72
     0
 43
0.0208333333333333
 43
0.0
 43
0.0
 43
0.0
 43
0.0
 43
0.0208333333333333
 43
0.0
 43
0.0
 43
0.0
 43
0.0
 43
1.0
 43
0.0
 43
0.0
 43
0.0
 43
0.0
 43
1.0
 77
     0
 47
0.0208333333333333
 47
0.0
 47
0.0
 47
0.0
 47
0.0
 47
0.0208333333333333
 47
0.0
 47
0.0
 47
0.0
 47
0.0
 47
1.0
 47
0.0
 47
0.0
 47
0.0
 47
0.0
 47
1.0
171
     0
 49
0.0208333333333333
 49
0.0
 49
0.0
 49
0.0
 49
0.0
 49
0.0208333333333333
 49
0.0
 49
0.0
 49
0.0
 49
0.0
 49
1.0
 49
0.0
 49
0.0
 49
0.0
 49
0.0
 49
1.0
175
     0
142
0.0208333333333333
142
0.0
142
0.0
142
0.0
142
0.0
142
0.0208333333333333
142
0.0
142
0.0
142
0.0
142
0.0
142
1.0
142
0.0
142
0.0
142
0.0
142
0.0
142
1.0
179
     0
144
0.0208333333333333
144
0.0
144
0.0
144
0.0
144
0.0
144
0.0208333333333333
144
0.0
144
0.0
144
0.0
144
0.0
144
1.0
144
0.0
144
0.0
144
0.0
144
0.0
144
1.0
147
0.0208333333333333
147
0.0
147
0.0
147
0.0
147
0.0
147
0.0208333333333333
147
0.0
147
0.0
147
0.0
147
0.0
147
1.0
147
0.0
147
0.0
147
0.0
147
0.0
147
1.0
  0
MLEADERSTYLE
  5
67
102
{ACAD_XDICTIONARY
360
212
102
}
102
{ACAD_REACTORS
330
66
102
}
330
66
100
AcDbMLeaderStyle
179
     2
170
     2
171
     1
172
     0
 90
        2
 40
0.0
 41
0.0
173
     1
 91
-1056964608
340
5B
 92
       -2
290
     1
 42
0.09
291
     1
 43
0.36
  3
Standard
 44
0.18
300

342
55
174
     1
178
     6
175
     1
176
     0
 93
-1056964608
 45
0.18
292
     0
297
     0
 46
0.18
 94
-1056964608
 47
1.0
 49
1.0
140
1.0
293
     1
141
0.0
294
     1
177
     0
142
1.0
295
     0
296
     0
143
0.125
271
     0
272
     9
273
     9
  0
MLINESTYLE
  5
60
102
{ACAD_REACTORS
330
5F
102
}
330
5F
100
AcDbMlineStyle
  2
STANDARD
 70
     0
  3

 62
   256
 51
90.0
 52
90.0
 71
     2
 49
0.5
 62
   256
  6
BYLAYER
 49
-0.5
 62
   256
  6
BYLAYER
  0
ACDBPLACEHOLDER
  5
F
102
{ACAD_REACTORS
330
E
102
}
330
E
  0
SCALE
  5
43
102
{ACAD_REACTORS
330
42
102
}
330
42
100
AcDbScale
 70
     0
300
1:1
140
1.0
141
1.0
290
     1
  0
SCALE
  5
44
102
{ACAD_REACTORS
330
42
102
}
330
42
100
AcDbScale
 70
     0
300
1/128" = 1'-0"
140
0.0078125
141
12.0
290
     0
  0
SCALE
  5
45
102
{ACAD_REACTORS
330
42
102
}
330
42
100
AcDbScale
 70
     0
300
1/64" = 1'-0"
140
0.015625
141
12.0
290
     0
  0
SCALE
  5
46
102
{ACAD_REACTORS
330
42
102
}
330
42
100
AcDbScale
 70
     0
300
1/32" = 1'-0"
140
0.03125
141
12.0
290
     0
  0
SCALE
  5
47
102
{ACAD_REACTORS
330
42
102
}
330
42
100
AcDbScale
 70
     0
300
1/16" = 1'-0"
140
0.0625
141
12.0
290
     0
  0
SCALE
  5
48
102
{ACAD_REACTORS
330
42
102
}
330
42
100
AcDbScale
 70
     0
300
3/32" = 1'-0"
140
0.09375
141
12.0
290
     0
  0
SCALE
  5
49
102
{ACAD_REACTORS
330
42
102
}
330
42
100
AcDbScale
 70
     0
300
1/8" = 1'-0"
140
0.125
141
12.0
290
     0
  0
SCALE
  5
4A
102
{ACAD_REACTORS
330
42
102
}
330
42
100
AcDbScale
 70
     0
300
3/16" = 1'-0"
140
0.1875
141
12.0
290
     0
  0
SCALE
  5
4B
102
{ACAD_REACTORS
330
42
102
}
330
42
100
AcDbScale
 70
     0
300
1/4" = 1'-0"
140
0.25
141
12.0
290
     0
  0
SCALE
  5
4C
102
{ACAD_REACTORS
330
42
102
}
330
42
100
AcDbScale
 70
     0
300
3/8" = 1'-0"
140
0.375
141
12.0
290
     0
  0
SCALE
  5
4D
102
{ACAD_REACTORS
330
42
102
}
330
42
100
AcDbScale
 70
     0
300
1/2" = 1'-0"
140
0.5
141
12.0
290
     0
  0
SCALE
  5
4E
102
{ACAD_REACTORS
330
42
102
}
330
42
100
AcDbScale
 70
     0
300
3/4" = 1'-0"
140
0.75
141
12.0
290
     0
  0
SCALE
  5
4F
102
{ACAD_REACTORS
330
42
102
}
330
42
100
AcDbScale
 70
     0
300
1" = 1'-0"
140
1.0
141
12.0
290
     0
  0
SCALE
  5
50
102
{ACAD_REACTORS
330
42
102
}
330
42
100
AcDbScale
 70
     0
300
1-1/2" = 1'-0"
140
1.5
141
12.0
290
     0
  0
SCALE
  5
51
102
{ACAD_REACTORS
330
42
102
}
330
42
100
AcDbScale
 70
     0
300
3" = 1'-0"
140
3.0
141
12.0
290
     0
  0
SCALE
  5
52
102
{ACAD_REACTORS
330
42
102
}
330
42
100
AcDbScale
 70
     0
300
6" = 1'-0"
140
6.0
141
12.0
290
     0
  0
SCALE
  5
53
102
{ACAD_REACTORS
330
42
102
}
330
42
100
AcDbScale
 70
     0
300
1'-0" = 1'-0"
140
12.0
141
12.0
290
     0
  0
ACDBSECTIONVIEWSTYLE
  5
69
102
{ACAD_XDICTIONARY
360
214
102
}
102
{ACAD_REACTORS
330
68
102
}
330
68
100
AcDbModelDocViewStyle
 70
     0
  3
Imperial24
290
     0
100
AcDbSectionViewStyle
 70
     0
 71
     0
 90
       78
 71
     1
340
55
 62
   256
 40
0.24
340
0
340
0
 62
   256
 40
0.24
300
I, O, Q, S, X, Z
 40
0.48
 90
        3
 40
0.18
 90
        1
 71
     2
340
5D
 90
       25
 62
   256
340
5D
 90
       50
 62
   256
 40
0.24
 40
0.0
 40
0.24
 71
     3
340
55
 62
   256
 40
0.24
 90
        1
 40
0.75
 90
        1
300
%<\AcVar ViewType \f "%tc1">% %<\AcVar ViewSectionStartId>%-%<\AcVar ViewSectionEndId>%\PSCALE %<\AcVar ViewScale \f "%sn">%
 71
     4
 62
   256
 62
   257
300
ANSI31
 40
1.0
 90
        0
290
     0
290
     0
 90
        6
 40
0.0
 40
1.570796326794896
 40
0.2617993877991494
 40
1.308996938995747
 40
-0.2617993877991494
 40
1.832595714594046
  0
TABLESTYLE
  5
65
102
{ACAD_XDICTIONARY
360
1DE
102
}
102
{ACAD_REACTORS
330
64
102
}
330
64
100
AcDbTableStyle
280
     0
  3
Standard
 70
     0
 71
     0
 40
0.06
 41
0.06
280
     0
281
     0
  7
Standard
140
0.18
170
     2
 62
     0
 63
     7
283
     0
 90
      512
 91
        0
  1

274
    -2
284
     1
 64
     0
275
    -2
285
     1
 65
     0
276
    -2
286
     1
 66
     0
277
    -2
287
     1
 67
     0
278
    -2
288
     1
 68
     0
279
    -2
289
     1
 69
     0
  7
Standard
140
0.25
170
     5
 62
     0
 63
     7
283
     0
 90
      512
 91
        0
  1

274
    -2
284
     1
 64
     0
275
    -2
285
     1
 65
     0
276
    -2
286
     1
 66
     0
277
    -2
287
     1
 67
     0
278
    -2
288
     1
 68
     0
279
    -2
289
     1
 69
     0
  7
Standard
140
0.18
170
     5
 62
     0
 63
     7
283
     0
 90
      512
 91
        0
  1

274
    -2
284
     1
 64
     0
275
    -2
285
     1
 65
     0
276
    -2
286
     1
 66
     0
277
    -2
287
     1
 67
     0
278
    -2
288
     1
 68
     0
279
    -2
289
     1
 69
     0
  0
VISUALSTYLE
  5
2F
102
{ACAD_XDICTIONARY
360
1EC
102
}
102
{ACAD_REACTORS
330
29
102
}
330
29
100
AcDbVisualStyle
  2
2dWireframe
 70
     4
177
     2
291
     0
 71
     0
176
     1
 72
     2
176
     1
 73
     0
176
     1
 90
        0
176
     1
 40
0.6
176
     1
 41
30.0
176
     1
 63
     7
421
 16777215
176
     1
 74
     1
176
     1
 91
        4
176
     1
 64
     7
176
     1
 65
   257
176
     1
 75
     1
176
     1
175
     1
176
     1
 42
1.0
176
     1
 92
        0
176
     1
 66
   257
176
     1
 43
1.0
176
     1
 76
     1
176
     1
 77
     6
176
     1
 78
     2
176
     1
 67
     7
176
     1
 79
     5
176
     1
170
     0
176
     1
171
     0
176
     1
290
     0
176
     1
 93
        1
176
     1
 44
0.0
176
     1
173
     0
176
     1
1001
ACAD
1000
AcDbSavedByObjectVersion
1070
     0
  0
VISUALSTYLE
  5
2E
102
{ACAD_XDICTIONARY
360
1EA
102
}
102
{ACAD_REACTORS
330
29
102
}
330
29
100
AcDbVisualStyle
  2
Basic
 70
     7
177
     2
291
     1
 71
     1
176
     1
 72
     0
176
     1
 73
     1
176
     1
 90
        0
176
     1
 40
0.6
176
     1
 41
30.0
176
     1
 63
     7
421
 16777215
176
     1
 74
     0
176
     1
 91
        4
176
     1
 64
     7
176
     1
 65
   257
176
     1
 75
     1
176
     1
175
     1
176
     1
 42
1.0
176
     1
 92
        8
176
     1
 66
     7
176
     1
 43
1.0
176
     1
 76
     1
176
     1
 77
     6
176
     1
 78
     2
176
     1
 67
     7
176
     1
 79
     5
176
     1
170
     0
176
     1
171
     0
176
     1
290
     0
176
     1
 93
        1
176
     1
 44
0.0
176
     1
173
     0
176
     1
1001
ACAD
1000
AcDbSavedByObjectVersion
1070
     0
  0
VISUALSTYLE
  5
35
102
{ACAD_XDICTIONARY
360
1F8
102
}
102
{ACAD_REACTORS
330
29
102
}
330
29
100
AcDbVisualStyle
  2
Brighten
 70
    12
177
     2
291
     1
 71
     2
176
     1
 72
     2
176
     1
 73
     0
176
     1
 90
        0
176
     1
 40
0.6
176
     1
 41
30.0
176
     1
 63
     7
421
 16777215
176
     1
 74
     1
176
     1
 91
        4
176
     1
 64
     7
176
     1
 65
   257
176
     1
 75
     1
176
     1
175
     1
176
     1
 42
1.0
176
     1
 92
        8
176
     1
 66
     7
176
     1
 43
1.0
176
     1
 76
     1
176
     1
 77
     6
176
     1
 78
     2
176
     1
 67
     7
176
     1
 79
     5
176
     1
170
     0
176
     1
171
     0
176
     1
290
     0
176
     1
 93
        1
176
     1
 44
50.0
176
     1
173
     0
176
     1
1001
ACAD
1000
AcDbSavedByObjectVersion
1070
     0
  0
VISUALSTYLE
  5
39
102
{ACAD_XDICTIONARY
360
200
102
}
102
{ACAD_REACTORS
330
29
102
}
330
29
100
AcDbVisualStyle
  2
ColorChange
 70
    16
177
     2
291
     1
 71
     2
176
     1
 72
     2
176
     1
 73
     3
176
     1
 90
        0
176
     1
 40
0.6
176
     1
 41
30.0
176
     1
 63
     8
421
  8421504
176
     1
 74
     1
176
     1
 91
        4
176
     1
 64
     7
176
     1
 65
   257
176
     1
 75
     1
176
     1
175
     1
176
     1
 42
1.0
176
     1
 92
        8
176
     1
 66
     8
424
  8421504
176
     1
 43
1.0
176
     1
 76
     1
176
     1
 77
     6
176
     1
 78
     2
176
     1
 67
     7
176
     1
 79
     5
176
     1
170
     0
176
     1
171
     0
176
     1
290
     0
176
     1
 93
        1
176
     1
 44
0.0
176
     1
173
     0
176
     1
1001
ACAD
1000
AcDbSavedByObjectVersion
1070
     0
  0
VISUALSTYLE
  5
32
102
{ACAD_XDICTIONARY
360
1F2
102
}
102
{ACAD_REACTORS
330
29
102
}
330
29
100
AcDbVisualStyle
  2
Conceptual
 70
     9
177
     2
291
     0
 71
     3
176
     1
 72
     2
176
     1
 73
     0
176
     1
 90
        0
176
     1
 40
0.6
176
     1
 41
30.0
176
     1
 63
     7
421
 16777215
176
     1
 74
     2
176
     1
 91
        2
176
     1
 64
     7
176
     1
 65
   257
176
     1
 75
     1
176
     1
175
     1
176
     1
 42
179.0
176
     1
 92
        8
176
     1
 66
     7
176
     1
 43
1.0
176
     1
 76
     1
176
     1
 77
     6
176
     1
 78
     2
176
     1
 67
     7
176
     1
 79
     3
176
     1
170
     0
176
     1
171
     0
176
     1
290
     0
176
     1
 93
        1
176
     1
 44
0.0
176
     1
173
     0
176
     1
1001
ACAD
1000
AcDbSavedByObjectVersion
1070
     0
  0
VISUALSTYLE
  5
34
102
{ACAD_XDICTIONARY
360
1F6
102
}
102
{ACAD_REACTORS
330
29
102
}
330
29
100
AcDbVisualStyle
  2
Dim
 70
    11
177
     2
291
     1
 71
     2
176
     1
 72
     2
176
     1
 73
     0
176
     1
 90
        0
176
     1
 40
0.6
176
     1
 41
30.0
176
     1
 63
     7
421
 16777215
176
     1
 74
     1
176
     1
 91
        4
176
     1
 64
     7
176
     1
 65
   257
176
     1
 75
     1
176
     1
175
     1
176
     1
 42
1.0
176
     1
 92
        8
176
     1
 66
     7
176
     1
 43
1.0
176
     1
 76
     1
176
     1
 77
     6
176
     1
 78
     2
176
     1
 67
     7
176
     1
 79
     5
176
     1
170
     0
176
     1
171
     0
176
     1
290
     0
176
     1
 93
        1
176
     1
 44
-50.0
176
     1
173
     0
176
     1
1001
ACAD
1000
AcDbSavedByObjectVersion
1070
     0
  0
VISUALSTYLE
  5
41
102
{ACAD_XDICTIONARY
360
210
102
}
102
{ACAD_REACTORS
330
29
102
}
330
29
100
AcDbVisualStyle
  2
EdgeColorOff
 70
    22
177
     2
291
     1
 71
     2
176
     0
 72
     2
176
     0
 73
     0
176
     0
 90
        0
176
     0
 40
0.6
176
     0
 41
30.0
176
     0
 63
     7
421
 16777215
176
     0
 74
     1
176
     0
 91
        4
176
     0
 64
     7
176
     0
 65
   257
176
     0
 75
     1
176
     0
175
     1
176
     0
 42
1.0
176
     0
 92
        8
176
     2
 66
     7
176
     0
 43
1.0
176
     0
 76
     1
176
     0
 77
     6
176
     0
 78
     2
176
     0
 67
     7
176
     0
 79
     5
176
     0
170
     0
176
     0
171
     0
176
     0
290
     0
176
     0
 93
        1
176
     0
 44
0.0
176
     0
173
     0
176
     0
1001
ACAD
1000
AcDbSavedByObjectVersion
1070
     0
  0
VISUALSTYLE
  5
38
102
{ACAD_XDICTIONARY
360
1FE
102
}
102
{ACAD_REACTORS
330
29
102
}
330
29
100
AcDbVisualStyle
  2
Facepattern
 70
    15
177
     2
291
     1
 71
     2
176
     1
 72
     2
176
     1
 73
     0
176
     1
 90
        0
176
     1
 40
0.6
176
     1
 41
30.0
176
     1
 63
     7
421
 16777215
176
     1
 74
     1
176
     1
 91
        4
176
     1
 64
     7
176
     1
 65
   257
176
     1
 75
     1
176
     1
175
     1
176
     1
 42
1.0
176
     1
 92
        8
176
     1
 66
     7
176
     1
 43
1.0
176
     1
 76
     1
176
     1
 77
     6
176
     1
 78
     2
176
     1
 67
     7
176
     1
 79
     5
176
     1
170
     0
176
     1
171
     0
176
     1
290
     0
176
     1
 93
        1
176
     1
 44
0.0
176
     1
173
     0
176
     1
1001
ACAD
1000
AcDbSavedByObjectVersion
1070
     0
  0
VISUALSTYLE
  5
2A
102
{ACAD_XDICTIONARY
360
1E2
102
}
102
{ACAD_REACTORS
330
29
102
}
330
29
100
AcDbVisualStyle
  2
Flat
 70
     0
177
     2
291
     1
 71
     2
176
     1
 72
     1
176
     1
 73
     1
176
     1
 90
        2
176
     1
 40
0.6
176
     1
 41
30.0
176
     1
 63
     7
421
 16777215
176
     1
 74
     0
176
     1
 91
        0
176
     1
 64
     7
176
     1
 65
   257
176
     1
 75
     1
176
     1
175
     1
176
     1
 42
1.0
176
     1
 92
        8
176
     1
 66
     7
176
     1
 43
1.0
176
     1
 76
     1
176
     1
 77
     6
176
     1
 78
     2
176
     1
 67
     7
176
     1
 79
     5
176
     1
170
     0
176
     1
171
     0
176
     1
290
     0
176
     1
 93
       13
176
     1
 44
0.0
176
     1
173
     0
176
     1
1001
ACAD
1000
AcDbSavedByObjectVersion
1070
     0
  0
VISUALSTYLE
  5
2B
102
{ACAD_XDICTIONARY
360
1E4
102
}
102
{ACAD_REACTORS
330
29
102
}
330
29
100
AcDbVisualStyle
  2
FlatWithEdges
 70
     1
177
     2
291
     1
 71
     2
176
     1
 72
     1
176
     1
 73
     1
176
     1
 90
        2
176
     1
 40
0.6
176
     1
 41
30.0
176
     1
 63
     7
421
 16777215
176
     1
 74
     1
176
     1
 91
        0
176
     1
 64
     7
176
     1
 65
   257
176
     1
 75
     1
176
     1
175
     1
176
     1
 42
1.0
176
     1
 92
        0
176
     1
 66
   257
176
     1
 43
1.0
176
     1
 76
     1
176
     1
 77
     6
176
     1
 78
     2
176
     1
 67
     7
176
     1
 79
     5
176
     1
170
     0
176
     1
171
     0
176
     1
290
     0
176
     1
 93
       13
176
     1
 44
0.0
176
     1
173
     0
176
     1
1001
ACAD
1000
AcDbSavedByObjectVersion
1070
     0
  0
VISUALSTYLE
  5
2C
102
{ACAD_XDICTIONARY
360
1E6
102
}
102
{ACAD_REACTORS
330
29
102
}
330
29
100
AcDbVisualStyle
  2
Gouraud
 70
     2
177
     2
291
     1
 71
     2
176
     1
 72
     2
176
     1
 73
     1
176
     1
 90
        2
176
     1
 40
0.6
176
     1
 41
30.0
176
     1
 63
     7
421
 16777215
176
     1
 74
     0
176
     1
 91
        0
176
     1
 64
     7
176
     1
 65
   257
176
     1
 75
     1
176
     1
175
     1
176
     1
 42
1.0
176
     1
 92
        0
176
     1
 66
     7
176
     1
 43
1.0
176
     1
 76
     1
176
     1
 77
     6
176
     1
 78
     2
176
     1
 67
     7
176
     1
 79
     5
176
     1
170
     0
176
     1
171
     0
176
     1
290
     0
176
     1
 93
       13
176
     1
 44
0.0
176
     1
173
     0
176
     1
1001
ACAD
1000
AcDbSavedByObjectVersion
1070
     0
  0
VISUALSTYLE
  5
2D
102
{ACAD_XDICTIONARY
360
1E8
102
}
102
{ACAD_REACTORS
330
29
102
}
330
29
100
AcDbVisualStyle
  2
GouraudWithEdges
 70
     3
177
     2
291
     1
 71
     2
176
     1
 72
     2
176
     1
 73
     1
176
     1
 90
        2
176
     1
 40
0.6
176
     1
 41
30.0
176
     1
 63
     7
421
 16777215
176
     1
 74
     1
176
     1
 91
        0
176
     1
 64
     7
176
     1
 65
   257
176
     1
 75
     1
176
     1
175
     1
176
     1
 42
1.0
176
     1
 92
        0
176
     1
 66
   257
176
     1
 43
1.0
176
     1
 76
     1
176
     1
 77
     6
176
     1
 78
     2
176
     1
 67
     7
176
     1
 79
     5
176
     1
170
     0
176
     1
171
     0
176
     1
290
     0
176
     1
 93
       13
176
     1
 44
0.0
176
     1
173
     0
176
     1
1001
ACAD
1000
AcDbSavedByObjectVersion
1070
     0
  0
VISUALSTYLE
  5
31
102
{ACAD_XDICTIONARY
360
1F0
102
}
102
{ACAD_REACTORS
330
29
102
}
330
29
100
AcDbVisualStyle
  2
Hidden
 70
     6
177
     2
291
     0
 71
     1
176
     1
 72
     2
176
     1
 73
     2
176
     1
 90
        0
176
     1
 40
0.6
176
     1
 41
30.0
176
     1
 63
     7
421
 16777215
176
     1
 74
     2
176
     1
 91
        2
176
     1
 64
     7
176
     1
 65
   257
176
     1
 75
     2
176
     1
175
     1
176
     1
 42
40.0
176
     1
 92
        0
176
     1
 66
   257
176
     1
 43
1.0
176
     1
 76
     1
176
     1
 77
     6
176
     1
 78
     2
176
     1
 67
     7
176
     1
 79
     3
176
     1
170
     0
176
     1
171
     0
176
     1
290
     0
176
     1
 93
        1
176
     1
 44
0.0
176
     1
173
     0
176
     1
1001
ACAD
1000
AcDbSavedByObjectVersion
1070
     0
  0
VISUALSTYLE
  5
3F
102
{ACAD_XDICTIONARY
360
20C
102
}
102
{ACAD_REACTORS
330
29
102
}
330
29
100
AcDbVisualStyle
  2
JitterOff
 70
    20
177
     2
291
     1
 71
     2
176
     0
 72
     2
176
     0
 73
     0
176
     0
 90
        0
176
     0
 40
0.6
176
     0
 41
30.0
176
     0
 63
     7
421
 16777215
176
     0
 74
     1
176
     0
 91
        4
176
     0
 64
     7
176
     0
 65
   257
176
     0
 75
     1
176
     0
175
     1
176
     0
 42
1.0
176
     0
 92
       10
176
     2
 66
     7
176
     0
 43
1.0
176
     0
 76
     1
176
     0
 77
     6
176
     0
 78
     2
176
     0
 67
     7
176
     0
 79
     5
176
     0
170
     0
176
     0
171
     0
176
     0
290
     0
176
     0
 93
        1
176
     0
 44
0.0
176
     0
173
     0
176
     0
1001
ACAD
1000
AcDbSavedByObjectVersion
1070
     0
  0
VISUALSTYLE
  5
37
102
{ACAD_XDICTIONARY
360
1FC
102
}
102
{ACAD_REACTORS
330
29
102
}
330
29
100
AcDbVisualStyle
  2
Linepattern
 70
    14
177
     2
291
     1
 71
     2
176
     1
 72
     2
176
     1
 73
     0
176
     1
 90
        0
176
     1
 40
0.6
176
     1
 41
30.0
176
     1
 63
     7
421
 16777215
176
     1
 74
     1
176
     1
 91
        4
176
     1
 64
     7
176
     1
 65
   257
176
     1
 75
     7
176
     1
175
     7
176
     1
 42
1.0
176
     1
 92
        8
176
     1
 66
     7
176
     1
 43
1.0
176
     1
 76
     1
176
     1
 77
     6
176
     1
 78
     2
176
     1
 67
     7
176
     1
 79
     5
176
     1
170
     0
176
     1
171
     0
176
     1
290
     0
176
     1
 93
        1
176
     1
 44
0.0
176
     1
173
     0
176
     1
1001
ACAD
1000
AcDbSavedByObjectVersion
1070
     0
  0
VISUALSTYLE
  5
40
102
{ACAD_XDICTIONARY
360
20E
102
}
102
{ACAD_REACTORS
330
29
102
}
330
29
100
AcDbVisualStyle
  2
OverhangOff
 70
    21
177
     2
291
     1
 71
     2
176
     0
 72
     2
176
     0
 73
     0
176
     0
 90
        0
176
     0
 40
0.6
176
     0
 41
30.0
176
     0
 63
     7
421
 16777215
176
     0
 74
     1
176
     0
 91
        4
176
     0
 64
     7
176
     0
 65
   257
176
     0
 75
     1
176
     0
175
     1
176
     0
 42
1.0
176
     0
 92
        9
176
     2
 66
     7
176
     0
 43
1.0
176
     0
 76
     1
176
     0
 77
     6
176
     0
 78
     2
176
     0
 67
     7
176
     0
 79
     5
176
     0
170
     0
176
     0
171
     0
176
     0
290
     0
176
     0
 93
        1
176
     0
 44
0.0
176
     0
173
     0
176
     0
1001
ACAD
1000
AcDbSavedByObjectVersion
1070
     0
  0
VISUALSTYLE
  5
33
102
{ACAD_XDICTIONARY
360
1F4
102
}
102
{ACAD_REACTORS
330
29
102
}
330
29
100
AcDbVisualStyle
  2
Realistic
 70
     8
177
     2
291
     0
 71
     2
176
     1
 72
     3
176
     1
 73
     0
176
     1
 90
        2
176
     1
 40
0.6
176
     1
 41
30.0
176
     1
 63
     7
421
 16777215
176
     1
 74
     0
176
     1
 91
        0
176
     1
 64
     7
176
     1
 65
   257
176
     1
 75
     1
176
     1
175
     1
176
     1
 42
1.0
176
     1
 92
        8
176
     1
 66
   257
176
     1
 43
1.0
176
     1
 76
     1
176
     1
 77
     6
176
     1
 78
     2
176
     1
 67
     7
176
     1
 79
     3
176
     1
170
     0
176
     1
171
     0
176
     1
290
     0
176
     1
 93
       13
176
     1
 44
0.0
176
     1
173
     0
176
     1
1001
ACAD
1000
AcDbSavedByObjectVersion
1070
     0
  0
VISUALSTYLE
  5
3E
102
{ACAD_XDICTIONARY
360
20A
102
}
102
{ACAD_REACTORS
330
29
102
}
330
29
100
AcDbVisualStyle
  2
Shaded
 70
    27
177
     2
291
     0
 71
     2
176
     1
 72
     2
176
     1
 73
     1
176
     1
 90
        2
176
     1
 40
0.6
176
     1
 41
30.0
176
     1
 63
     7
421
 16777215
176
     1
 74
     0
176
     1
 91
        4
176
     1
 64
     7
176
     1
 65
   257
176
     1
 75
     1
176
     1
175
     1
176
     1
 42
1.0
176
     1
 92
        8
176
     1
 66
   257
176
     1
 43
1.0
176
     1
 76
     1
176
     1
 77
     6
176
     1
 78
     2
176
     1
 67
     8
425
  7895160
176
     1
 79
     3
176
     1
170
     0
176
     1
171
     0
176
     1
290
     0
176
     1
 93
        5
176
     1
 44
0.0
176
     1
173
     0
176
     1
1001
ACAD
1000
AcDbSavedByObjectVersion
1070
     0
  0
VISUALSTYLE
  5
3D
102
{ACAD_XDICTIONARY
360
208
102
}
102
{ACAD_REACTORS
330
29
102
}
330
29
100
AcDbVisualStyle
  2
Shaded with edges
 70
    26
177
     2
291
     0
 71
     2
176
     1
 72
     2
176
     1
 73
     1
176
     1
 90
        2
176
     1
 40
0.6
176
     1
 41
30.0
176
     1
 63
     7
421
 16777215
176
     1
 74
     1
176
     1
 91
        2
176
     1
 64
     7
176
     1
 65
   257
176
     1
 75
     2
176
     1
175
     1
176
     1
 42
1.0
176
     1
 92
        8
176
     1
 66
   257
176
     1
 43
1.0
176
     1
 76
     1
176
     1
 77
     6
176
     1
 78
     2
176
     1
 67
     7
176
     1
 79
     3
176
     1
170
     0
176
     1
171
     0
176
     1
290
     0
176
     1
 93
        5
176
     1
 44
0.0
176
     1
173
     0
176
     1
1001
ACAD
1000
AcDbSavedByObjectVersion
1070
     0
  0
VISUALSTYLE
  5
3A
102
{ACAD_XDICTIONARY
360
202
102
}
102
{ACAD_REACTORS
330
29
102
}
330
29
100
AcDbVisualStyle
  2
Shades of Gray
 70
    23
177
     2
291
     0
 71
     2
176
     1
 72
     2
176
     1
 73
     3
176
     1
 90
        0
176
     1
 40
0.6
176
     1
 41
30.0
176
     1
 63
     7
421
 16777215
176
     1
 74
     2
176
     1
 91
        2
176
     1
 64
     7
176
     1
 65
     7
176
     1
 75
     1
176
     1
175
     1
176
     1
 42
40.0
176
     1
 92
        8
176
     1
 66
     7
176
     1
 43
1.0
176
     1
 76
     1
176
     1
 77
     6
176
     1
 78
     2
176
     1
 67
     7
176
     1
 79
     3
176
     1
170
     0
176
     1
171
     0
176
     1
290
     0
176
     1
 93
        1
176
     1
 44
0.0
176
     1
173
     0
176
     1
1001
ACAD
1000
AcDbSavedByObjectVersion
1070
     0
  0
VISUALSTYLE
  5
3B
102
{ACAD_XDICTIONARY
360
204
102
}
102
{ACAD_REACTORS
330
29
102
}
330
29
100
AcDbVisualStyle
  2
Sketchy
 70
    24
177
     2
291
     0
 71
     1
176
     1
 72
     2
176
     1
 73
     2
176
     1
 90
        0
176
     1
 40
0.6
176
     1
 41
30.0
176
     1
 63
     7
421
 16777215
176
     1
 74
     2
176
     1
 91
        2
176
     1
 64
     7
176
     1
 65
     7
176
     1
 75
     1
176
     1
175
     1
176
     1
 42
40.0
176
     1
 92
       11
176
     1
 66
     7
176
     1
 43
1.0
176
     1
 76
     1
176
     1
 77
     6
176
     1
 78
     2
176
     1
 67
     7
176
     1
 79
     6
176
     1
170
     0
176
     1
171
     0
176
     1
290
     0
176
     1
 93
        1
176
     1
 44
0.0
176
     1
173
     0
176
     1
1001
ACAD
1000
AcDbSavedByObjectVersion
1070
     0
  0
VISUALSTYLE
  5
36
102
{ACAD_XDICTIONARY
360
1FA
102
}
102
{ACAD_REACTORS
330
29
102
}
330
29
100
AcDbVisualStyle
  2
Thicken
 70
    13
177
     2
291
     1
 71
     2
176
     1
 72
     2
176
     1
 73
     0
176
     1
 90
        0
176
     1
 40
0.6
176
     1
 41
30.0
176
     1
 63
     7
421
 16777215
176
     1
 74
     1
176
     1
 91
        4
176
     1
 64
     7
176
     1
 65
   257
176
     1
 75
     1
176
     1
175
     1
176
     1
 42
1.0
176
     1
 92
       12
176
     1
 66
     7
176
     1
 43
1.0
176
     1
 76
     1
176
     1
 77
     6
176
     1
 78
     2
176
     1
 67
     7
176
     1
 79
     5
176
     1
170
     0
176
     1
171
     0
176
     1
290
     0
176
     1
 93
        1
176
     1
 44
0.0
176
     1
173
     0
176
     1
1001
ACAD
1000
AcDbSavedByObjectVersion
1070
     0
  0
VISUALSTYLE
  5
30
102
{ACAD_XDICTIONARY
360
1EE
102
}
102
{ACAD_REACTORS
330
29
102
}
330
29
100
AcDbVisualStyle
  2
Wireframe
 70
     5
177
     2
291
     0
 71
     0
176
     1
 72
     2
176
     1
 73
     0
176
     1
 90
        0
176
     1
 40
0.6
176
     1
 41
30.0
176
     1
 63
     7
421
 16777215
176
     1
 74
     1
176
     1
 91
        4
176
     1
 64
     7
176
     1
 65
   257
176
     1
 75
     1
176
     1
175
     1
176
     1
 42
1.0
176
     1
 92
        0
176
     1
 66
   257
176
     1
 43
1.0
176
     1
 76
     1
176
     1
 77
     6
176
     1
 78
     2
176
     1
 67
     7
176
     1
 79
     3
176
     1
170
     0
176
     1
171
     0
176
     1
290
     0
176
     1
 93
        1
176
     1
 44
0.0
176
     1
173
     0
176
     1
1001
ACAD
1000
AcDbSavedByObjectVersion
1070
     0
  0
VISUALSTYLE
  5
3C
102
{ACAD_XDICTIONARY
360
206
102
}
102
{ACAD_REACTORS
330
29
102
}
330
29
100
AcDbVisualStyle
  2
X-Ray
 70
    25
177
     2
291
     0
 71
     2
176
     1
 72
     2
176
     1
 73
     1
176
     1
 90
        1
176
     1
 40
0.5
176
     1
 41
30.0
176
     1
 63
     7
421
 16777215
176
     1
 74
     1
176
     1
 91
        0
176
     1
 64
     7
176
     1
 65
   257
176
     1
 75
     1
176
     1
175
     1
176
     1
 42
1.0
176
     1
 92
        8
176
     1
 66
     7
176
     1
 43
1.0
176
     1
 76
     1
176
     1
 77
     6
176
     1
 78
     2
176
     1
 67
     7
176
     1
 79
     3
176
     1
170
     0
176
     1
171
     0
176
     1
290
     0
176
     1
 93
       13
176
     1
 44
0.0
176
     1
173
     0
176
     1
1001
ACAD
1000
AcDbSavedByObjectVersion
1070
     0
  0
DICTIONARYVAR
  5
1DD
102
{ACAD_REACTORS
330
1D8
102
}
330
1D8
100
DictionaryVariables
280
     0
  1
1:1
  0
DICTIONARYVAR
  5
1DA
102
{ACAD_REACTORS
330
1D8
102
}
330
1D8
100
DictionaryVariables
280
     0
  1
STANDARD
  0
DICTIONARYVAR
  5
1D9
102
{ACAD_REACTORS
330
1D8
102
}
330
1D8
100
DictionaryVariables
280
     0
  1
STANDARD
  0
DICTIONARYVAR
  5
1DB
102
{ACAD_REACTORS
330
1D8
102
}
330
1D8
100
DictionaryVariables
280
     0
  1
Imperial24
  0
DICTIONARYVAR
  5
1DC
102
{ACAD_REACTORS
330
1D8
102
}
330
1D8
100
DictionaryVariables
280
     0
  1
Imperial24
  0
DICTIONARY
  5
216
330
6B
100
AcDbDictionary
280
     1
281
     1
  3
ACAD_XREC_ROUNDTRIP
360
217
  0
DICTIONARY
  5
1A
330
19
100
AcDbDictionary
280
     1
281
     1
  3
BUMPTILE
360
1C
  3
DIFFUSETILE
360
1B
  3
OPACITYTILE
360
1F
  3
REFLECTIONTILE
360
1E
  3
REFRACTIONTILE
360
20
  3
SPECULARTILE
360
1D
  0
DICTIONARY
  5
12
330
11
100
AcDbDictionary
280
     1
281
     1
  3
BUMPTILE
360
14
  3
DIFFUSETILE
360
13
  3
OPACITYTILE
360
17
  3
REFLECTIONTILE
360
16
  3
REFRACTIONTILE
360
18
  3
SPECULARTILE
360
15
  0
DICTIONARY
  5
22
330
21
100
AcDbDictionary
280
     1
281
     1
  3
BUMPTILE
360
24
  3
DIFFUSETILE
360
23
  3
OPACITYTILE
360
27
  3
REFLECTIONTILE
360
26
  3
REFRACTIONTILE
360
28
  3
SPECULARTILE
360
25
  0
DICTIONARY
  5
212
330
67
100
AcDbDictionary
280
     1
281
     1
  3
ACAD_XREC_ROUNDTRIP
360
213
  0
DICTIONARY
  5
214
330
69
100
AcDbDictionary
280
     1
281
     1
  3
ACAD_XREC_ROUNDTRIP
360
215
  0
DICTIONARY
  5
1DE
330
65
100
AcDbDictionary
280
     1
281
     1
  3
ACAD_ROUNDTRIP_2008_TABLESTYLE_CELLSTYLEMAP
360
1DF
  0
DICTIONARY
  5
1EC
330
2F
100
AcDbDictionary
280
     1
281
     1
  3
ACAD_XREC_ROUNDTRIP
360
1ED
  0
DICTIONARY
  5
1EA
330
2E
100
AcDbDictionary
280
     1
281
     1
  3
ACAD_XREC_ROUNDTRIP
360
1EB
  0
DICTIONARY
  5
1F8
330
35
100
AcDbDictionary
280
     1
281
     1
  3
ACAD_XREC_ROUNDTRIP
360
1F9
  0
DICTIONARY
  5
200
330
39
100
AcDbDictionary
280
     1
281
     1
  3
ACAD_XREC_ROUNDTRIP
360
201
  0
DICTIONARY
  5
1F2
330
32
100
AcDbDictionary
280
     1
281
     1
  3
ACAD_XREC_ROUNDTRIP
360
1F3
  0
DICTIONARY
  5
1F6
330
34
100
AcDbDictionary
280
     1
281
     1
  3
ACAD_XREC_ROUNDTRIP
360
1F7
  0
DICTIONARY
  5
210
330
41
100
AcDbDictionary
280
     1
281
     1
  3
ACAD_XREC_ROUNDTRIP
360
211
  0
DICTIONARY
  5
1FE
330
38
100
AcDbDictionary
280
     1
281
     1
  3
ACAD_XREC_ROUNDTRIP
360
1FF
  0
DICTIONARY
  5
1E2
330
2A
100
AcDbDictionary
280
     1
281
     1
  3
ACAD_XREC_ROUNDTRIP
360
1E3
  0
DICTIONARY
  5
1E4
330
2B
100
AcDbDictionary
280
     1
281
     1
  3
ACAD_XREC_ROUNDTRIP
360
1E5
  0
DICTIONARY
  5
1E6
330
2C
100
AcDbDictionary
280
     1
281
     1
  3
ACAD_XREC_ROUNDTRIP
360
1E7
  0
DICTIONARY
  5
1E8
330
2D
100
AcDbDictionary
280
     1
281
     1
  3
ACAD_XREC_ROUNDTRIP
360
1E9
  0
DICTIONARY
  5
1F0
330
31
100
AcDbDictionary
280
     1
281
     1
  3
ACAD_XREC_ROUNDTRIP
360
1F1
  0
DICTIONARY
  5
20C
330
3F
100
AcDbDictionary
280
     1
281
     1
  3
ACAD_XREC_ROUNDTRIP
360
20D
  0
DICTIONARY
  5
1FC
330
37
100
AcDbDictionary
280
     1
281
     1
  3
ACAD_XREC_ROUNDTRIP
360
1FD
  0
DICTIONARY
  5
20E
330
40
100
AcDbDictionary
280
     1
281
     1
  3
ACAD_XREC_ROUNDTRIP
360
20F
  0
DICTIONARY
  5
1F4
330
33
100
AcDbDictionary
280
     1
281
     1
  3
ACAD_XREC_ROUNDTRIP
360
1F5
  0
DICTIONARY
  5
20A
330
3E
100
AcDbDictionary
280
     1
281
     1
  3
ACAD_XREC_ROUNDTRIP
360
20B
  0
DICTIONARY
  5
208
330
3D
100
AcDbDictionary
280
     1
281
     1
  3
ACAD_XREC_ROUNDTRIP
360
209
  0
DICTIONARY
  5
202
330
3A
100
AcDbDictionary
280
     1
281
     1
  3
ACAD_XREC_ROUNDTRIP
360
203
  0
DICTIONARY
  5
204
330
3B
100
AcDbDictionary
280
     1
281
     1
  3
ACAD_XREC_ROUNDTRIP
360
205
  0
DICTIONARY
  5
1FA
330
36
100
AcDbDictionary
280
     1
281
     1
  3
ACAD_XREC_ROUNDTRIP
360
1FB
  0
DICTIONARY
  5
1EE
330
30
100
AcDbDictionary
280
     1
281
     1
  3
ACAD_XREC_ROUNDTRIP
360
1EF
  0
DICTIONARY
  5
206
330
3C
100
AcDbDictionary
280
     1
281
     1
  3
ACAD_XREC_ROUNDTRIP
360
207
  0
XRECORD
  5
217
102
{ACAD_REACTORS
330
216
102
}
330
216
100
AcDbXrecord
280
     1
102
DISPLAYNAME
  1
Imperial24
102
FLAGS
 90
        0
  0
XRECORD
  5
1C
102
{ACAD_REACTORS
330
1A
102
}
330
1A
100
AcDbXrecord
280
     1
270
     1
271
     1
  0
XRECORD
  5
1B
102
{ACAD_REACTORS
330
1A
102
}
330
1A
100
AcDbXrecord
280
     1
270
     1
271
     1
  0
XRECORD
  5
1F
102
{ACAD_REACTORS
330
1A
102
}
330
1A
100
AcDbXrecord
280
     1
270
     1
271
     1
  0
XRECORD
  5
1E
102
{ACAD_REACTORS
330
1A
102
}
330
1A
100
AcDbXrecord
280
     1
270
     1
271
     1
  0
XRECORD
  5
20
102
{ACAD_REACTORS
330
1A
102
}
330
1A
100
AcDbXrecord
280
     1
270
     1
271
     1
  0
XRECORD
  5
1D
102
{ACAD_REACTORS
330
1A
102
}
330
1A
100
AcDbXrecord
280
     1
270
     1
271
     1
  0
XRECORD
  5
14
102
{ACAD_REACTORS
330
12
102
}
330
12
100
AcDbXrecord
280
     1
270
     1
271
     1
  0
XRECORD
  5
13
102
{ACAD_REACTORS
330
12
102
}
330
12
100
AcDbXrecord
280
     1
270
     1
271
     1
  0
XRECORD
  5
17
102
{ACAD_REACTORS
330
12
102
}
330
12
100
AcDbXrecord
280
     1
270
     1
271
     1
  0
XRECORD
  5
16
102
{ACAD_REACTORS
330
12
102
}
330
12
100
AcDbXrecord
280
     1
270
     1
271
     1
  0
XRECORD
  5
18
102
{ACAD_REACTORS
330
12
102
}
330
12
100
AcDbXrecord
280
     1
270
     1
271
     1
  0
XRECORD
  5
15
102
{ACAD_REACTORS
330
12
102
}
330
12
100
AcDbXrecord
280
     1
270
     1
271
     1
  0
XRECORD
  5
24
102
{ACAD_REACTORS
330
22
102
}
330
22
100
AcDbXrecord
280
     1
270
     1
271
     1
  0
XRECORD
  5
23
102
{ACAD_REACTORS
330
22
102
}
330
22
100
AcDbXrecord
280
     1
270
     1
271
     1
  0
XRECORD
  5
27
102
{ACAD_REACTORS
330
22
102
}
330
22
100
AcDbXrecord
280
     1
270
     1
271
     1
  0
XRECORD
  5
26
102
{ACAD_REACTORS
330
22
102
}
330
22
100
AcDbXrecord
280
     1
270
     1
271
     1
  0
XRECORD
  5
28
102
{ACAD_REACTORS
330
22
102
}
330
22
100
AcDbXrecord
280
     1
270
     1
271
     1
  0
XRECORD
  5
25
102
{ACAD_REACTORS
330
22
102
}
330
22
100
AcDbXrecord
280
     1
270
     1
271
     1
  0
XRECORD
  5
213
102
{ACAD_REACTORS
330
212
102
}
330
212
100
AcDbXrecord
280
     1
102
ACAD_ROUNDTRIP_2012_MLEADER_STYLE
298
     1
  0
XRECORD
  5
215
102
{ACAD_REACTORS
330
214
102
}
330
214
100
AcDbXrecord
280
     1
102
DISPLAYNAME
  1
Imperial24
102
FLAGS
 90
        0
  0
CELLSTYLEMAP
  5
1DF
102
{ACAD_REACTORS
330
1DE
102
}
330
1DE
100
AcDbCellStyleMap
 90
        3
300
CELLSTYLE
  1
TABLEFORMAT_BEGIN
 90
        5
170
     1
 91
        0
 92
    32768
 62
   257
 93
        1
300
CONTENTFORMAT
  1
CONTENTFORMAT_BEGIN
 90
        0
 91
        0
 92
      512
 93
        0
300

 40
0.0
140
1.0
 94
        5
 62
     0
340
55
144
0.25
309
CONTENTFORMAT_END
171
     0
 94
        0
309
TABLEFORMAT_END
  1
CELLSTYLE_BEGIN
 90
        1
 91
        1
300
_TITLE
309
CELLSTYLE_END
300
CELLSTYLE
  1
TABLEFORMAT_BEGIN
 90
        5
170
     1
 91
        0
 92
        0
 62
   257
 93
        1
300
CONTENTFORMAT
  1
CONTENTFORMAT_BEGIN
 90
        0
 91
        0
 92
      512
 93
        0
300

 40
0.0
140
1.0
 94
        5
 62
     0
340
55
144
0.18
309
CONTENTFORMAT_END
171
     0
 94
        0
309
TABLEFORMAT_END
  1
CELLSTYLE_BEGIN
 90
        2
 91
        1
300
_HEADER
309
CELLSTYLE_END
300
CELLSTYLE
  1
TABLEFORMAT_BEGIN
 90
        5
170
     1
 91
        0
 92
        0
 62
   257
 93
        1
300
CONTENTFORMAT
  1
CONTENTFORMAT_BEGIN
 90
        0
 91
        0
 92
      512
 93
        0
300

 40
0.0
140
1.0
 94
        2
 62
     0
340
55
144
0.18
309
CONTENTFORMAT_END
171
     0
 94
        0
309
TABLEFORMAT_END
  1
CELLSTYLE_BEGIN
 90
        3
 91
        2
300
_DATA
309
CELLSTYLE_END
  0
XRECORD
  5
1ED
102
{ACAD_REACTORS
330
1EC
102
}
330
1EC
100
AcDbXrecord
280
     1
102
RTVSPost2010Prop28
280
     1
102
RTVSPost2010PropOp28
 70
     1
102
RTVSPost2010Prop29
280
     1
102
RTVSPost2010PropOp29
 70
     1
102
RTVSPost2010Prop30
280
     0
102
RTVSPost2010PropOp30
 70
     1
102
RTVSPost2010Prop31
280
     0
102
RTVSPost2010PropOp31
 70
     1
102
RTVSPost2010Prop32
280
     0
102
RTVSPost2010PropOp32
 70
     1
102
RTVSPost2010Prop33
280
     0
102
RTVSPost2010PropOp33
 70
     1
102
RTVSPost2010Prop34
280
     0
102
RTVSPost2010PropOp34
 70
     1
102
RTVSPost2010Prop35
280
     0
102
RTVSPost2010PropOp35
 70
     1
102
RTVSPost2010Prop36
280
     0
102
RTVSPost2010PropOp36
 70
     1
102
RTVSPost2010Prop37
 90
       50
102
RTVSPost2010PropOp37
 70
     1
102
RTVSPost2010Prop38
140
0.0
102
RTVSPost2010PropOp38
 70
     1
102
RTVSPost2010Prop39
140
1.0
102
RTVSPost2010PropOp39
 70
     1
102
RTVSPost2010Prop40
 90
        0
102
RTVSPost2010PropOp40
 70
     1
102
RTVSPost2010Prop41ColorIndex
 90
       18
102
RTVSPost2010Prop41ColorRGB
 90
        0
102
RTVSPost2010PropOp41
 70
     1
102
RTVSPost2010Prop42
 90
       50
102
RTVSPost2010PropOp42
 70
     1
102
RTVSPost2010Prop43
 90
        3
102
RTVSPost2010PropOp43
 70
     1
102
RTVSPost2010Prop44ColorIndex
 90
        5
102
RTVSPost2010Prop44ColorRGB
 90
      255
102
RTVSPost2010PropOp44
 70
     1
102
RTVSPost2010Prop45
280
     0
102
RTVSPost2010PropOp45
 70
     1
102
RTVSPost2010Prop46
 90
       50
102
RTVSPost2010PropOp46
 70
     1
102
RTVSPost2010Prop47
 90
       50
102
RTVSPost2010PropOp47
 70
     1
102
RTVSPost2010Prop48
 90
       50
102
RTVSPost2010PropOp48
 70
     1
102
RTVSPost2010Prop49
280
     0
102
RTVSPost2010PropOp49
 70
     1
102
RTVSPost2010Prop50
 90
       50
102
RTVSPost2010PropOp50
 70
     1
102
RTVSPost2010Prop51ColorIndex
 90
      256
102
RTVSPost2010Prop51ColorRGB
 90
-16777216
102
RTVSPost2010PropOp51
 70
     0
102
RTVSPost2010Prop52
140
1.0
102
RTVSPost2010PropOp52
 70
     0
102
RTVSPost2010Prop53
 90
        2
102
RTVSPost2010PropOp53
 70
     1
102
RTVSPost2010Prop54
  1
strokes_ogs.tif
102
RTVSPost2010PropOp54
 70
     1
102
RTVSPost2010Prop55
280
     0
102
RTVSPost2010PropOp55
 70
     1
102
RTVSPost2010Prop56
140
1.0
102
RTVSPost2010PropOp56
 70
     1
102
RTVSPost2010Prop57
140
1.0
102
RTVSPost2010PropOp57
 70
     1
  0
XRECORD
  5
1EB
102
{ACAD_REACTORS
330
1EA
102
}
330
1EA
100
AcDbXrecord
280
     1
102
RTVSPost2010Prop28
280
     0
102
RTVSPost2010PropOp28
 70
     1
102
RTVSPost2010Prop29
280
     1
102
RTVSPost2010PropOp29
 70
     1
102
RTVSPost2010Prop30
280
     1
102
RTVSPost2010PropOp30
 70
     1
102
RTVSPost2010Prop31
280
     0
102
RTVSPost2010PropOp31
 70
     1
102
RTVSPost2010Prop32
280
     0
102
RTVSPost2010PropOp32
 70
     1
102
RTVSPost2010Prop33
280
     0
102
RTVSPost2010PropOp33
 70
     1
102
RTVSPost2010Prop34
280
     0
102
RTVSPost2010PropOp34
 70
     1
102
RTVSPost2010Prop35
280
     0
102
RTVSPost2010PropOp35
 70
     1
102
RTVSPost2010Prop36
280
     0
102
RTVSPost2010PropOp36
 70
     1
102
RTVSPost2010Prop37
 90
       50
102
RTVSPost2010PropOp37
 70
     1
102
RTVSPost2010Prop38
140
0.0
102
RTVSPost2010PropOp38
 70
     1
102
RTVSPost2010Prop39
140
1.0
102
RTVSPost2010PropOp39
 70
     1
102
RTVSPost2010Prop40
 90
        0
102
RTVSPost2010PropOp40
 70
     1
102
RTVSPost2010Prop41ColorIndex
 90
       18
102
RTVSPost2010Prop41ColorRGB
 90
        0
102
RTVSPost2010PropOp41
 70
     1
102
RTVSPost2010Prop42
 90
       50
102
RTVSPost2010PropOp42
 70
     1
102
RTVSPost2010Prop43
 90
        3
102
RTVSPost2010PropOp43
 70
     1
102
RTVSPost2010Prop44ColorIndex
 90
        5
102
RTVSPost2010Prop44ColorRGB
 90
      255
102
RTVSPost2010PropOp44
 70
     1
102
RTVSPost2010Prop45
280
     0
102
RTVSPost2010PropOp45
 70
     1
102
RTVSPost2010Prop46
 90
       50
102
RTVSPost2010PropOp46
 70
     1
102
RTVSPost2010Prop47
 90
       50
102
RTVSPost2010PropOp47
 70
     1
102
RTVSPost2010Prop48
 90
       50
102
RTVSPost2010PropOp48
 70
     1
102
RTVSPost2010Prop49
280
     0
102
RTVSPost2010PropOp49
 70
     1
102
RTVSPost2010Prop50
 90
       50
102
RTVSPost2010PropOp50
 70
     1
102
RTVSPost2010Prop51ColorIndex
 90
      256
102
RTVSPost2010Prop51ColorRGB
 90
-16777216
102
RTVSPost2010PropOp51
 70
     0
102
RTVSPost2010Prop52
140
1.0
102
RTVSPost2010PropOp52
 70
     0
102
RTVSPost2010Prop53
 90
        2
102
RTVSPost2010PropOp53
 70
     1
102
RTVSPost2010Prop54
  1
strokes_ogs.tif
102
RTVSPost2010PropOp54
 70
     1
102
RTVSPost2010Prop55
280
     0
102
RTVSPost2010PropOp55
 70
     1
102
RTVSPost2010Prop56
140
1.0
102
RTVSPost2010PropOp56
 70
     1
102
RTVSPost2010Prop57
140
1.0
102
RTVSPost2010PropOp57
 70
     1
  0
XRECORD
  5
1F9
102
{ACAD_REACTORS
330
1F8
102
}
330
1F8
100
AcDbXrecord
280
     1
102
RTVSPost2010Prop28
280
     0
102
RTVSPost2010PropOp28
 70
     1
102
RTVSPost2010Prop29
280
     1
102
RTVSPost2010PropOp29
 70
     1
102
RTVSPost2010Prop30
280
     1
102
RTVSPost2010PropOp30
 70
     1
102
RTVSPost2010Prop31
280
     0
102
RTVSPost2010PropOp31
 70
     1
102
RTVSPost2010Prop32
280
     0
102
RTVSPost2010PropOp32
 70
     1
102
RTVSPost2010Prop33
280
     0
102
RTVSPost2010PropOp33
 70
     1
102
RTVSPost2010Prop34
280
     0
102
RTVSPost2010PropOp34
 70
     1
102
RTVSPost2010Prop35
280
     0
102
RTVSPost2010PropOp35
 70
     1
102
RTVSPost2010Prop36
280
     0
102
RTVSPost2010PropOp36
 70
     1
102
RTVSPost2010Prop37
 90
       50
102
RTVSPost2010PropOp37
 70
     1
102
RTVSPost2010Prop38
140
0.0
102
RTVSPost2010PropOp38
 70
     1
102
RTVSPost2010Prop39
140
1.0
102
RTVSPost2010PropOp39
 70
     1
102
RTVSPost2010Prop40
 90
        0
102
RTVSPost2010PropOp40
 70
     1
102
RTVSPost2010Prop41ColorIndex
 90
       18
102
RTVSPost2010Prop41ColorRGB
 90
        0
102
RTVSPost2010PropOp41
 70
     1
102
RTVSPost2010Prop42
 90
       50
102
RTVSPost2010PropOp42
 70
     1
102
RTVSPost2010Prop43
 90
        3
102
RTVSPost2010PropOp43
 70
     1
102
RTVSPost2010Prop44ColorIndex
 90
        5
102
RTVSPost2010Prop44ColorRGB
 90
      255
102
RTVSPost2010PropOp44
 70
     1
102
RTVSPost2010Prop45
280
     0
102
RTVSPost2010PropOp45
 70
     1
102
RTVSPost2010Prop46
 90
       50
102
RTVSPost2010PropOp46
 70
     1
102
RTVSPost2010Prop47
 90
       50
102
RTVSPost2010PropOp47
 70
     1
102
RTVSPost2010Prop48
 90
       50
102
RTVSPost2010PropOp48
 70
     1
102
RTVSPost2010Prop49
280
     0
102
RTVSPost2010PropOp49
 70
     1
102
RTVSPost2010Prop50
 90
       50
102
RTVSPost2010PropOp50
 70
     1
102
RTVSPost2010Prop51ColorIndex
 90
      256
102
RTVSPost2010Prop51ColorRGB
 90
-16777216
102
RTVSPost2010PropOp51
 70
     0
102
RTVSPost2010Prop52
140
1.0
102
RTVSPost2010PropOp52
 70
     0
102
RTVSPost2010Prop53
 90
        2
102
RTVSPost2010PropOp53
 70
     1
102
RTVSPost2010Prop54
  1
strokes_ogs.tif
102
RTVSPost2010PropOp54
 70
     1
102
RTVSPost2010Prop55
280
     0
102
RTVSPost2010PropOp55
 70
     1
102
RTVSPost2010Prop56
140
1.0
102
RTVSPost2010PropOp56
 70
     1
102
RTVSPost2010Prop57
140
1.0
102
RTVSPost2010PropOp57
 70
     1
  0
XRECORD
  5
201
102
{ACAD_REACTORS
330
200
102
}
330
200
100
AcDbXrecord
280
     1
102
RTVSPost2010Prop28
280
     0
102
RTVSPost2010PropOp28
 70
     1
102
RTVSPost2010Prop29
280
     1
102
RTVSPost2010PropOp29
 70
     1
102
RTVSPost2010Prop30
280
     1
102
RTVSPost2010PropOp30
 70
     1
102
RTVSPost2010Prop31
280
     0
102
RTVSPost2010PropOp31
 70
     1
102
RTVSPost2010Prop32
280
     0
102
RTVSPost2010PropOp32
 70
     1
102
RTVSPost2010Prop33
280
     0
102
RTVSPost2010PropOp33
 70
     1
102
RTVSPost2010Prop34
280
     0
102
RTVSPost2010PropOp34
 70
     1
102
RTVSPost2010Prop35
280
     0
102
RTVSPost2010PropOp35
 70
     1
102
RTVSPost2010Prop36
280
     0
102
RTVSPost2010PropOp36
 70
     1
102
RTVSPost2010Prop37
 90
       50
102
RTVSPost2010PropOp37
 70
     1
102
RTVSPost2010Prop38
140
0.0
102
RTVSPost2010PropOp38
 70
     1
102
RTVSPost2010Prop39
140
1.0
102
RTVSPost2010PropOp39
 70
     1
102
RTVSPost2010Prop40
 90
        0
102
RTVSPost2010PropOp40
 70
     1
102
RTVSPost2010Prop41ColorIndex
 90
       18
102
RTVSPost2010Prop41ColorRGB
 90
        0
102
RTVSPost2010PropOp41
 70
     1
102
RTVSPost2010Prop42
 90
       50
102
RTVSPost2010PropOp42
 70
     1
102
RTVSPost2010Prop43
 90
        3
102
RTVSPost2010PropOp43
 70
     1
102
RTVSPost2010Prop44ColorIndex
 90
        5
102
RTVSPost2010Prop44ColorRGB
 90
      255
102
RTVSPost2010PropOp44
 70
     1
102
RTVSPost2010Prop45
280
     0
102
RTVSPost2010PropOp45
 70
     1
102
RTVSPost2010Prop46
 90
       50
102
RTVSPost2010PropOp46
 70
     1
102
RTVSPost2010Prop47
 90
       50
102
RTVSPost2010PropOp47
 70
     1
102
RTVSPost2010Prop48
 90
       50
102
RTVSPost2010PropOp48
 70
     1
102
RTVSPost2010Prop49
280
     0
102
RTVSPost2010PropOp49
 70
     1
102
RTVSPost2010Prop50
 90
       50
102
RTVSPost2010PropOp50
 70
     1
102
RTVSPost2010Prop51ColorIndex
 90
      256
102
RTVSPost2010Prop51ColorRGB
 90
-16777216
102
RTVSPost2010PropOp51
 70
     0
102
RTVSPost2010Prop52
140
1.0
102
RTVSPost2010PropOp52
 70
     0
102
RTVSPost2010Prop53
 90
        2
102
RTVSPost2010PropOp53
 70
     1
102
RTVSPost2010Prop54
  1
strokes_ogs.tif
102
RTVSPost2010PropOp54
 70
     1
102
RTVSPost2010Prop55
280
     0
102
RTVSPost2010PropOp55
 70
     1
102
RTVSPost2010Prop56
140
1.0
102
RTVSPost2010PropOp56
 70
     1
102
RTVSPost2010Prop57
140
1.0
102
RTVSPost2010PropOp57
 70
     1
  0
XRECORD
  5
1F3
102
{ACAD_REACTORS
330
1F2
102
}
330
1F2
100
AcDbXrecord
280
     1
102
RTVSPost2010Prop28
280
     0
102
RTVSPost2010PropOp28
 70
     1
102
RTVSPost2010Prop29
280
     1
102
RTVSPost2010PropOp29
 70
     1
102
RTVSPost2010Prop30
280
     1
102
RTVSPost2010PropOp30
 70
     1
102
RTVSPost2010Prop31
280
     0
102
RTVSPost2010PropOp31
 70
     1
102
RTVSPost2010Prop32
280
     0
102
RTVSPost2010PropOp32
 70
     1
102
RTVSPost2010Prop33
280
     0
102
RTVSPost2010PropOp33
 70
     1
102
RTVSPost2010Prop34
280
     0
102
RTVSPost2010PropOp34
 70
     1
102
RTVSPost2010Prop35
280
     0
102
RTVSPost2010PropOp35
 70
     1
102
RTVSPost2010Prop36
280
     0
102
RTVSPost2010PropOp36
 70
     1
102
RTVSPost2010Prop37
 90
       50
102
RTVSPost2010PropOp37
 70
     1
102
RTVSPost2010Prop38
140
0.0
102
RTVSPost2010PropOp38
 70
     1
102
RTVSPost2010Prop39
140
1.0
102
RTVSPost2010PropOp39
 70
     1
102
RTVSPost2010Prop40
 90
        0
102
RTVSPost2010PropOp40
 70
     1
102
RTVSPost2010Prop41ColorIndex
 90
       18
102
RTVSPost2010Prop41ColorRGB
 90
        0
102
RTVSPost2010PropOp41
 70
     1
102
RTVSPost2010Prop42
 90
       50
102
RTVSPost2010PropOp42
 70
     1
102
RTVSPost2010Prop43
 90
        3
102
RTVSPost2010PropOp43
 70
     1
102
RTVSPost2010Prop44ColorIndex
 90
        5
102
RTVSPost2010Prop44ColorRGB
 90
      255
102
RTVSPost2010PropOp44
 70
     1
102
RTVSPost2010Prop45
280
     0
102
RTVSPost2010PropOp45
 70
     1
102
RTVSPost2010Prop46
 90
       50
102
RTVSPost2010PropOp46
 70
     1
102
RTVSPost2010Prop47
 90
       50
102
RTVSPost2010PropOp47
 70
     1
102
RTVSPost2010Prop48
 90
       50
102
RTVSPost2010PropOp48
 70
     1
102
RTVSPost2010Prop49
280
     0
102
RTVSPost2010PropOp49
 70
     1
102
RTVSPost2010Prop50
 90
       50
102
RTVSPost2010PropOp50
 70
     1
102
RTVSPost2010Prop51ColorIndex
 90
      256
102
RTVSPost2010Prop51ColorRGB
 90
-16777216
102
RTVSPost2010PropOp51
 70
     0
102
RTVSPost2010Prop52
140
1.0
102
RTVSPost2010PropOp52
 70
     0
102
RTVSPost2010Prop53
 90
        2
102
RTVSPost2010PropOp53
 70
     1
102
RTVSPost2010Prop54
  1
strokes_ogs.tif
102
RTVSPost2010PropOp54
 70
     1
102
RTVSPost2010Prop55
280
     0
102
RTVSPost2010PropOp55
 70
     1
102
RTVSPost2010Prop56
140
1.0
102
RTVSPost2010PropOp56
 70
     1
102
RTVSPost2010Prop57
140
1.0
102
RTVSPost2010PropOp57
 70
     1
  0
XRECORD
  5
1F7
102
{ACAD_REACTORS
330
1F6
102
}
330
1F6
100
AcDbXrecord
280
     1
102
RTVSPost2010Prop28
280
     0
102
RTVSPost2010PropOp28
 70
     1
102
RTVSPost2010Prop29
280
     1
102
RTVSPost2010PropOp29
 70
     1
102
RTVSPost2010Prop30
280
     1
102
RTVSPost2010PropOp30
 70
     1
102
RTVSPost2010Prop31
280
     0
102
RTVSPost2010PropOp31
 70
     1
102
RTVSPost2010Prop32
280
     0
102
RTVSPost2010PropOp32
 70
     1
102
RTVSPost2010Prop33
280
     0
102
RTVSPost2010PropOp33
 70
     1
102
RTVSPost2010Prop34
280
     0
102
RTVSPost2010PropOp34
 70
     1
102
RTVSPost2010Prop35
280
     0
102
RTVSPost2010PropOp35
 70
     1
102
RTVSPost2010Prop36
280
     0
102
RTVSPost2010PropOp36
 70
     1
102
RTVSPost2010Prop37
 90
       50
102
RTVSPost2010PropOp37
 70
     1
102
RTVSPost2010Prop38
140
0.0
102
RTVSPost2010PropOp38
 70
     1
102
RTVSPost2010Prop39
140
1.0
102
RTVSPost2010PropOp39
 70
     1
102
RTVSPost2010Prop40
 90
        0
102
RTVSPost2010PropOp40
 70
     1
102
RTVSPost2010Prop41ColorIndex
 90
       18
102
RTVSPost2010Prop41ColorRGB
 90
        0
102
RTVSPost2010PropOp41
 70
     1
102
RTVSPost2010Prop42
 90
       50
102
RTVSPost2010PropOp42
 70
     1
102
RTVSPost2010Prop43
 90
        3
102
RTVSPost2010PropOp43
 70
     1
102
RTVSPost2010Prop44ColorIndex
 90
        5
102
RTVSPost2010Prop44ColorRGB
 90
      255
102
RTVSPost2010PropOp44
 70
     1
102
RTVSPost2010Prop45
280
     0
102
RTVSPost2010PropOp45
 70
     1
102
RTVSPost2010Prop46
 90
       50
102
RTVSPost2010PropOp46
 70
     1
102
RTVSPost2010Prop47
 90
       50
102
RTVSPost2010PropOp47
 70
     1
102
RTVSPost2010Prop48
 90
       50
102
RTVSPost2010PropOp48
 70
     1
102
RTVSPost2010Prop49
280
     0
102
RTVSPost2010PropOp49
 70
     1
102
RTVSPost2010Prop50
 90
       50
102
RTVSPost2010PropOp50
 70
     1
102
RTVSPost2010Prop51ColorIndex
 90
      256
102
RTVSPost2010Prop51ColorRGB
 90
-16777216
102
RTVSPost2010PropOp51
 70
     0
102
RTVSPost2010Prop52
140
1.0
102
RTVSPost2010PropOp52
 70
     0
102
RTVSPost2010Prop53
 90
        2
102
RTVSPost2010PropOp53
 70
     1
102
RTVSPost2010Prop54
  1
strokes_ogs.tif
102
RTVSPost2010PropOp54
 70
     1
102
RTVSPost2010Prop55
280
     0
102
RTVSPost2010PropOp55
 70
     1
102
RTVSPost2010Prop56
140
1.0
102
RTVSPost2010PropOp56
 70
     1
102
RTVSPost2010Prop57
140
1.0
102
RTVSPost2010PropOp57
 70
     1
  0
XRECORD
  5
211
102
{ACAD_REACTORS
330
210
102
}
330
210
100
AcDbXrecord
280
     1
102
RTVSPost2010Prop28
280
     0
102
RTVSPost2010PropOp28
 70
     0
102
RTVSPost2010Prop29
280
     1
102
RTVSPost2010PropOp29
 70
     0
102
RTVSPost2010Prop30
280
     1
102
RTVSPost2010PropOp30
 70
     0
102
RTVSPost2010Prop31
280
     0
102
RTVSPost2010PropOp31
 70
     0
102
RTVSPost2010Prop32
280
     0
102
RTVSPost2010PropOp32
 70
     0
102
RTVSPost2010Prop33
280
     0
102
RTVSPost2010PropOp33
 70
     0
102
RTVSPost2010Prop34
280
     0
102
RTVSPost2010PropOp34
 70
     0
102
RTVSPost2010Prop35
280
     0
102
RTVSPost2010PropOp35
 70
     0
102
RTVSPost2010Prop36
280
     0
102
RTVSPost2010PropOp36
 70
     0
102
RTVSPost2010Prop37
 90
       50
102
RTVSPost2010PropOp37
 70
     0
102
RTVSPost2010Prop38
140
0.0
102
RTVSPost2010PropOp38
 70
     0
102
RTVSPost2010Prop39
140
1.0
102
RTVSPost2010PropOp39
 70
     0
102
RTVSPost2010Prop40
 90
        0
102
RTVSPost2010PropOp40
 70
     0
102
RTVSPost2010Prop41ColorIndex
 90
       18
102
RTVSPost2010Prop41ColorRGB
 90
        0
102
RTVSPost2010PropOp41
 70
     0
102
RTVSPost2010Prop42
 90
       50
102
RTVSPost2010PropOp42
 70
     0
102
RTVSPost2010Prop43
 90
        3
102
RTVSPost2010PropOp43
 70
     0
102
RTVSPost2010Prop44ColorIndex
 90
        5
102
RTVSPost2010Prop44ColorRGB
 90
      255
102
RTVSPost2010PropOp44
 70
     0
102
RTVSPost2010Prop45
280
     0
102
RTVSPost2010PropOp45
 70
     0
102
RTVSPost2010Prop46
 90
       50
102
RTVSPost2010PropOp46
 70
     0
102
RTVSPost2010Prop47
 90
       50
102
RTVSPost2010PropOp47
 70
     0
102
RTVSPost2010Prop48
 90
       50
102
RTVSPost2010PropOp48
 70
     0
102
RTVSPost2010Prop49
280
     0
102
RTVSPost2010PropOp49
 70
     0
102
RTVSPost2010Prop50
 90
       50
102
RTVSPost2010PropOp50
 70
     0
102
RTVSPost2010Prop51ColorIndex
 90
      256
102
RTVSPost2010Prop51ColorRGB
 90
-16777216
102
RTVSPost2010PropOp51
 70
     0
102
RTVSPost2010Prop52
140
1.0
102
RTVSPost2010PropOp52
 70
     0
102
RTVSPost2010Prop53
 90
        2
102
RTVSPost2010PropOp53
 70
     0
102
RTVSPost2010Prop54
  1
strokes_ogs.tif
102
RTVSPost2010PropOp54
 70
     0
102
RTVSPost2010Prop55
280
     0
102
RTVSPost2010PropOp55
 70
     0
102
RTVSPost2010Prop56
140
1.0
102
RTVSPost2010PropOp56
 70
     0
102
RTVSPost2010Prop57
140
1.0
102
RTVSPost2010PropOp57
 70
     0
  0
XRECORD
  5
1FF
102
{ACAD_REACTORS
330
1FE
102
}
330
1FE
100
AcDbXrecord
280
     1
102
RTVSPost2010Prop28
280
     0
102
RTVSPost2010PropOp28
 70
     1
102
RTVSPost2010Prop29
280
     1
102
RTVSPost2010PropOp29
 70
     1
102
RTVSPost2010Prop30
280
     1
102
RTVSPost2010PropOp30
 70
     1
102
RTVSPost2010Prop31
280
     0
102
RTVSPost2010PropOp31
 70
     1
102
RTVSPost2010Prop32
280
     0
102
RTVSPost2010PropOp32
 70
     1
102
RTVSPost2010Prop33
280
     0
102
RTVSPost2010PropOp33
 70
     1
102
RTVSPost2010Prop34
280
     0
102
RTVSPost2010PropOp34
 70
     1
102
RTVSPost2010Prop35
280
     0
102
RTVSPost2010PropOp35
 70
     1
102
RTVSPost2010Prop36
280
     0
102
RTVSPost2010PropOp36
 70
     1
102
RTVSPost2010Prop37
 90
       50
102
RTVSPost2010PropOp37
 70
     1
102
RTVSPost2010Prop38
140
0.0
102
RTVSPost2010PropOp38
 70
     1
102
RTVSPost2010Prop39
140
1.0
102
RTVSPost2010PropOp39
 70
     1
102
RTVSPost2010Prop40
 90
        0
102
RTVSPost2010PropOp40
 70
     1
102
RTVSPost2010Prop41ColorIndex
 90
       18
102
RTVSPost2010Prop41ColorRGB
 90
        0
102
RTVSPost2010PropOp41
 70
     1
102
RTVSPost2010Prop42
 90
       50
102
RTVSPost2010PropOp42
 70
     1
102
RTVSPost2010Prop43
 90
        3
102
RTVSPost2010PropOp43
 70
     1
102
RTVSPost2010Prop44ColorIndex
 90
        5
102
RTVSPost2010Prop44ColorRGB
 90
      255
102
RTVSPost2010PropOp44
 70
     1
102
RTVSPost2010Prop45
280
     0
102
RTVSPost2010PropOp45
 70
     1
102
RTVSPost2010Prop46
 90
       50
102
RTVSPost2010PropOp46
 70
     1
102
RTVSPost2010Prop47
 90
       50
102
RTVSPost2010PropOp47
 70
     1
102
RTVSPost2010Prop48
 90
       50
102
RTVSPost2010PropOp48
 70
     1
102
RTVSPost2010Prop49
280
     0
102
RTVSPost2010PropOp49
 70
     1
102
RTVSPost2010Prop50
 90
       50
102
RTVSPost2010PropOp50
 70
     1
102
RTVSPost2010Prop51ColorIndex
 90
      256
102
RTVSPost2010Prop51ColorRGB
 90
-16777216
102
RTVSPost2010PropOp51
 70
     0
102
RTVSPost2010Prop52
140
1.0
102
RTVSPost2010PropOp52
 70
     0
102
RTVSPost2010Prop53
 90
        2
102
RTVSPost2010PropOp53
 70
     1
102
RTVSPost2010Prop54
  1
strokes_ogs.tif
102
RTVSPost2010PropOp54
 70
     1
102
RTVSPost2010Prop55
280
     0
102
RTVSPost2010PropOp55
 70
     1
102
RTVSPost2010Prop56
140
1.0
102
RTVSPost2010PropOp56
 70
     1
102
RTVSPost2010Prop57
140
1.0
102
RTVSPost2010PropOp57
 70
     1
  0
XRECORD
  5
1E3
102
{ACAD_REACTORS
330
1E2
102
}
330
1E2
100
AcDbXrecord
280
     1
102
RTVSPost2010Prop28
280
     0
102
RTVSPost2010PropOp28
 70
     1
102
RTVSPost2010Prop29
280
     1
102
RTVSPost2010PropOp29
 70
     1
102
RTVSPost2010Prop30
280
     1
102
RTVSPost2010PropOp30
 70
     1
102
RTVSPost2010Prop31
280
     0
102
RTVSPost2010PropOp31
 70
     1
102
RTVSPost2010Prop32
280
     0
102
RTVSPost2010PropOp32
 70
     1
102
RTVSPost2010Prop33
280
     0
102
RTVSPost2010PropOp33
 70
     1
102
RTVSPost2010Prop34
280
     0
102
RTVSPost2010PropOp34
 70
     1
102
RTVSPost2010Prop35
280
     0
102
RTVSPost2010PropOp35
 70
     1
102
RTVSPost2010Prop36
280
     0
102
RTVSPost2010PropOp36
 70
     1
102
RTVSPost2010Prop37
 90
       50
102
RTVSPost2010PropOp37
 70
     1
102
RTVSPost2010Prop38
140
0.0
102
RTVSPost2010PropOp38
 70
     1
102
RTVSPost2010Prop39
140
1.0
102
RTVSPost2010PropOp39
 70
     1
102
RTVSPost2010Prop40
 90
        0
102
RTVSPost2010PropOp40
 70
     1
102
RTVSPost2010Prop41ColorIndex
 90
       18
102
RTVSPost2010Prop41ColorRGB
 90
        0
102
RTVSPost2010PropOp41
 70
     1
102
RTVSPost2010Prop42
 90
       50
102
RTVSPost2010PropOp42
 70
     1
102
RTVSPost2010Prop43
 90
        3
102
RTVSPost2010PropOp43
 70
     1
102
RTVSPost2010Prop44ColorIndex
 90
        5
102
RTVSPost2010Prop44ColorRGB
 90
      255
102
RTVSPost2010PropOp44
 70
     1
102
RTVSPost2010Prop45
280
     0
102
RTVSPost2010PropOp45
 70
     1
102
RTVSPost2010Prop46
 90
       50
102
RTVSPost2010PropOp46
 70
     1
102
RTVSPost2010Prop47
 90
       50
102
RTVSPost2010PropOp47
 70
     1
102
RTVSPost2010Prop48
 90
       50
102
RTVSPost2010PropOp48
 70
     1
102
RTVSPost2010Prop49
280
     0
102
RTVSPost2010PropOp49
 70
     1
102
RTVSPost2010Prop50
 90
       50
102
RTVSPost2010PropOp50
 70
     1
102
RTVSPost2010Prop51ColorIndex
 90
      256
102
RTVSPost2010Prop51ColorRGB
 90
-16777216
102
RTVSPost2010PropOp51
 70
     0
102
RTVSPost2010Prop52
140
1.0
102
RTVSPost2010PropOp52
 70
     0
102
RTVSPost2010Prop53
 90
        2
102
RTVSPost2010PropOp53
 70
     1
102
RTVSPost2010Prop54
  1
strokes_ogs.tif
102
RTVSPost2010PropOp54
 70
     1
102
RTVSPost2010Prop55
280
     0
102
RTVSPost2010PropOp55
 70
     1
102
RTVSPost2010Prop56
140
1.0
102
RTVSPost2010PropOp56
 70
     1
102
RTVSPost2010Prop57
140
1.0
102
RTVSPost2010PropOp57
 70
     1
  0
XRECORD
  5
1E5
102
{ACAD_REACTORS
330
1E4
102
}
330
1E4
100
AcDbXrecord
280
     1
102
RTVSPost2010Prop28
280
     0
102
RTVSPost2010PropOp28
 70
     1
102
RTVSPost2010Prop29
280
     1
102
RTVSPost2010PropOp29
 70
     1
102
RTVSPost2010Prop30
280
     1
102
RTVSPost2010PropOp30
 70
     1
102
RTVSPost2010Prop31
280
     0
102
RTVSPost2010PropOp31
 70
     1
102
RTVSPost2010Prop32
280
     0
102
RTVSPost2010PropOp32
 70
     1
102
RTVSPost2010Prop33
280
     0
102
RTVSPost2010PropOp33
 70
     1
102
RTVSPost2010Prop34
280
     0
102
RTVSPost2010PropOp34
 70
     1
102
RTVSPost2010Prop35
280
     0
102
RTVSPost2010PropOp35
 70
     1
102
RTVSPost2010Prop36
280
     0
102
RTVSPost2010PropOp36
 70
     1
102
RTVSPost2010Prop37
 90
       50
102
RTVSPost2010PropOp37
 70
     1
102
RTVSPost2010Prop38
140
0.0
102
RTVSPost2010PropOp38
 70
     1
102
RTVSPost2010Prop39
140
1.0
102
RTVSPost2010PropOp39
 70
     1
102
RTVSPost2010Prop40
 90
        0
102
RTVSPost2010PropOp40
 70
     1
102
RTVSPost2010Prop41ColorIndex
 90
       18
102
RTVSPost2010Prop41ColorRGB
 90
        0
102
RTVSPost2010PropOp41
 70
     1
102
RTVSPost2010Prop42
 90
       50
102
RTVSPost2010PropOp42
 70
     1
102
RTVSPost2010Prop43
 90
        3
102
RTVSPost2010PropOp43
 70
     1
102
RTVSPost2010Prop44ColorIndex
 90
        5
102
RTVSPost2010Prop44ColorRGB
 90
      255
102
RTVSPost2010PropOp44
 70
     1
102
RTVSPost2010Prop45
280
     0
102
RTVSPost2010PropOp45
 70
     1
102
RTVSPost2010Prop46
 90
       50
102
RTVSPost2010PropOp46
 70
     1
102
RTVSPost2010Prop47
 90
       50
102
RTVSPost2010PropOp47
 70
     1
102
RTVSPost2010Prop48
 90
       50
102
RTVSPost2010PropOp48
 70
     1
102
RTVSPost2010Prop49
280
     0
102
RTVSPost2010PropOp49
 70
     1
102
RTVSPost2010Prop50
 90
       50
102
RTVSPost2010PropOp50
 70
     1
102
RTVSPost2010Prop51ColorIndex
 90
      256
102
RTVSPost2010Prop51ColorRGB
 90
-16777216
102
RTVSPost2010PropOp51
 70
     0
102
RTVSPost2010Prop52
140
1.0
102
RTVSPost2010PropOp52
 70
     0
102
RTVSPost2010Prop53
 90
        2
102
RTVSPost2010PropOp53
 70
     1
102
RTVSPost2010Prop54
  1
strokes_ogs.tif
102
RTVSPost2010PropOp54
 70
     1
102
RTVSPost2010Prop55
280
     0
102
RTVSPost2010PropOp55
 70
     1
102
RTVSPost2010Prop56
140
1.0
102
RTVSPost2010PropOp56
 70
     1
102
RTVSPost2010Prop57
140
1.0
102
RTVSPost2010PropOp57
 70
     1
  0
XRECORD
  5
1E7
102
{ACAD_REACTORS
330
1E6
102
}
330
1E6
100
AcDbXrecord
280
     1
102
RTVSPost2010Prop28
280
     0
102
RTVSPost2010PropOp28
 70
     1
102
RTVSPost2010Prop29
280
     1
102
RTVSPost2010PropOp29
 70
     1
102
RTVSPost2010Prop30
280
     1
102
RTVSPost2010PropOp30
 70
     1
102
RTVSPost2010Prop31
280
     0
102
RTVSPost2010PropOp31
 70
     1
102
RTVSPost2010Prop32
280
     0
102
RTVSPost2010PropOp32
 70
     1
102
RTVSPost2010Prop33
280
     0
102
RTVSPost2010PropOp33
 70
     1
102
RTVSPost2010Prop34
280
     0
102
RTVSPost2010PropOp34
 70
     1
102
RTVSPost2010Prop35
280
     0
102
RTVSPost2010PropOp35
 70
     1
102
RTVSPost2010Prop36
280
     0
102
RTVSPost2010PropOp36
 70
     1
102
RTVSPost2010Prop37
 90
       50
102
RTVSPost2010PropOp37
 70
     1
102
RTVSPost2010Prop38
140
0.0
102
RTVSPost2010PropOp38
 70
     1
102
RTVSPost2010Prop39
140
1.0
102
RTVSPost2010PropOp39
 70
     1
102
RTVSPost2010Prop40
 90
        0
102
RTVSPost2010PropOp40
 70
     1
102
RTVSPost2010Prop41ColorIndex
 90
       18
102
RTVSPost2010Prop41ColorRGB
 90
        0
102
RTVSPost2010PropOp41
 70
     1
102
RTVSPost2010Prop42
 90
       50
102
RTVSPost2010PropOp42
 70
     1
102
RTVSPost2010Prop43
 90
        3
102
RTVSPost2010PropOp43
 70
     1
102
RTVSPost2010Prop44ColorIndex
 90
        5
102
RTVSPost2010Prop44ColorRGB
 90
      255
102
RTVSPost2010PropOp44
 70
     1
102
RTVSPost2010Prop45
280
     0
102
RTVSPost2010PropOp45
 70
     1
102
RTVSPost2010Prop46
 90
       50
102
RTVSPost2010PropOp46
 70
     1
102
RTVSPost2010Prop47
 90
       50
102
RTVSPost2010PropOp47
 70
     1
102
RTVSPost2010Prop48
 90
       50
102
RTVSPost2010PropOp48
 70
     1
102
RTVSPost2010Prop49
280
     0
102
RTVSPost2010PropOp49
 70
     1
102
RTVSPost2010Prop50
 90
       50
102
RTVSPost2010PropOp50
 70
     1
102
RTVSPost2010Prop51ColorIndex
 90
      256
102
RTVSPost2010Prop51ColorRGB
 90
-16777216
102
RTVSPost2010PropOp51
 70
     0
102
RTVSPost2010Prop52
140
1.0
102
RTVSPost2010PropOp52
 70
     0
102
RTVSPost2010Prop53
 90
        2
102
RTVSPost2010PropOp53
 70
     1
102
RTVSPost2010Prop54
  1
strokes_ogs.tif
102
RTVSPost2010PropOp54
 70
     1
102
RTVSPost2010Prop55
280
     0
102
RTVSPost2010PropOp55
 70
     1
102
RTVSPost2010Prop56
140
1.0
102
RTVSPost2010PropOp56
 70
     1
102
RTVSPost2010Prop57
140
1.0
102
RTVSPost2010PropOp57
 70
     1
  0
XRECORD
  5
1E9
102
{ACAD_REACTORS
330
1E8
102
}
330
1E8
100
AcDbXrecord
280
     1
102
RTVSPost2010Prop28
280
     0
102
RTVSPost2010PropOp28
 70
     1
102
RTVSPost2010Prop29
280
     1
102
RTVSPost2010PropOp29
 70
     1
102
RTVSPost2010Prop30
280
     1
102
RTVSPost2010PropOp30
 70
     1
102
RTVSPost2010Prop31
280
     0
102
RTVSPost2010PropOp31
 70
     1
102
RTVSPost2010Prop32
280
     0
102
RTVSPost2010PropOp32
 70
     1
102
RTVSPost2010Prop33
280
     0
102
RTVSPost2010PropOp33
 70
     1
102
RTVSPost2010Prop34
280
     0
102
RTVSPost2010PropOp34
 70
     1
102
RTVSPost2010Prop35
280
     0
102
RTVSPost2010PropOp35
 70
     1
102
RTVSPost2010Prop36
280
     0
102
RTVSPost2010PropOp36
 70
     1
102
RTVSPost2010Prop37
 90
       50
102
RTVSPost2010PropOp37
 70
     1
102
RTVSPost2010Prop38
140
0.0
102
RTVSPost2010PropOp38
 70
     1
102
RTVSPost2010Prop39
140
1.0
102
RTVSPost2010PropOp39
 70
     1
102
RTVSPost2010Prop40
 90
        0
102
RTVSPost2010PropOp40
 70
     1
102
RTVSPost2010Prop41ColorIndex
 90
       18
102
RTVSPost2010Prop41ColorRGB
 90
        0
102
RTVSPost2010PropOp41
 70
     1
102
RTVSPost2010Prop42
 90
       50
102
RTVSPost2010PropOp42
 70
     1
102
RTVSPost2010Prop43
 90
        3
102
RTVSPost2010PropOp43
 70
     1
102
RTVSPost2010Prop44ColorIndex
 90
        5
102
RTVSPost2010Prop44ColorRGB
 90
      255
102
RTVSPost2010PropOp44
 70
     1
102
RTVSPost2010Prop45
280
     0
102
RTVSPost2010PropOp45
 70
     1
102
RTVSPost2010Prop46
 90
       50
102
RTVSPost2010PropOp46
 70
     1
102
RTVSPost2010Prop47
 90
       50
102
RTVSPost2010PropOp47
 70
     1
102
RTVSPost2010Prop48
 90
       50
102
RTVSPost2010PropOp48
 70
     1
102
RTVSPost2010Prop49
280
     0
102
RTVSPost2010PropOp49
 70
     1
102
RTVSPost2010Prop50
 90
       50
102
RTVSPost2010PropOp50
 70
     1
102
RTVSPost2010Prop51ColorIndex
 90
      256
102
RTVSPost2010Prop51ColorRGB
 90
-16777216
102
RTVSPost2010PropOp51
 70
     0
102
RTVSPost2010Prop52
140
1.0
102
RTVSPost2010PropOp52
 70
     0
102
RTVSPost2010Prop53
 90
        2
102
RTVSPost2010PropOp53
 70
     1
102
RTVSPost2010Prop54
  1
strokes_ogs.tif
102
RTVSPost2010PropOp54
 70
     1
102
RTVSPost2010Prop55
280
     0
102
RTVSPost2010PropOp55
 70
     1
102
RTVSPost2010Prop56
140
1.0
102
RTVSPost2010PropOp56
 70
     1
102
RTVSPost2010Prop57
140
1.0
102
RTVSPost2010PropOp57
 70
     1
  0
XRECORD
  5
1F1
102
{ACAD_REACTORS
330
1F0
102
}
330
1F0
100
AcDbXrecord
280
     1
102
RTVSPost2010Prop28
280
     0
102
RTVSPost2010PropOp28
 70
     1
102
RTVSPost2010Prop29
280
     1
102
RTVSPost2010PropOp29
 70
     1
102
RTVSPost2010Prop30
280
     1
102
RTVSPost2010PropOp30
 70
     1
102
RTVSPost2010Prop31
280
     0
102
RTVSPost2010PropOp31
 70
     1
102
RTVSPost2010Prop32
280
     0
102
RTVSPost2010PropOp32
 70
     1
102
RTVSPost2010Prop33
280
     0
102
RTVSPost2010PropOp33
 70
     1
102
RTVSPost2010Prop34
280
     0
102
RTVSPost2010PropOp34
 70
     1
102
RTVSPost2010Prop35
280
     0
102
RTVSPost2010PropOp35
 70
     1
102
RTVSPost2010Prop36
280
     0
102
RTVSPost2010PropOp36
 70
     1
102
RTVSPost2010Prop37
 90
       50
102
RTVSPost2010PropOp37
 70
     1
102
RTVSPost2010Prop38
140
0.0
102
RTVSPost2010PropOp38
 70
     1
102
RTVSPost2010Prop39
140
1.0
102
RTVSPost2010PropOp39
 70
     1
102
RTVSPost2010Prop40
 90
        0
102
RTVSPost2010PropOp40
 70
     1
102
RTVSPost2010Prop41ColorIndex
 90
       18
102
RTVSPost2010Prop41ColorRGB
 90
        0
102
RTVSPost2010PropOp41
 70
     1
102
RTVSPost2010Prop42
 90
       50
102
RTVSPost2010PropOp42
 70
     1
102
RTVSPost2010Prop43
 90
        3
102
RTVSPost2010PropOp43
 70
     1
102
RTVSPost2010Prop44ColorIndex
 90
        5
102
RTVSPost2010Prop44ColorRGB
 90
      255
102
RTVSPost2010PropOp44
 70
     1
102
RTVSPost2010Prop45
280
     0
102
RTVSPost2010PropOp45
 70
     1
102
RTVSPost2010Prop46
 90
       50
102
RTVSPost2010PropOp46
 70
     1
102
RTVSPost2010Prop47
 90
       50
102
RTVSPost2010PropOp47
 70
     1
102
RTVSPost2010Prop48
 90
       50
102
RTVSPost2010PropOp48
 70
     1
102
RTVSPost2010Prop49
280
     0
102
RTVSPost2010PropOp49
 70
     1
102
RTVSPost2010Prop50
 90
       50
102
RTVSPost2010PropOp50
 70
     1
102
RTVSPost2010Prop51ColorIndex
 90
      256
102
RTVSPost2010Prop51ColorRGB
 90
-16777216
102
RTVSPost2010PropOp51
 70
     0
102
RTVSPost2010Prop52
140
1.0
102
RTVSPost2010PropOp52
 70
     0
102
RTVSPost2010Prop53
 90
        2
102
RTVSPost2010PropOp53
 70
     1
102
RTVSPost2010Prop54
  1
strokes_ogs.tif
102
RTVSPost2010PropOp54
 70
     1
102
RTVSPost2010Prop55
280
     0
102
RTVSPost2010PropOp55
 70
     1
102
RTVSPost2010Prop56
140
1.0
102
RTVSPost2010PropOp56
 70
     1
102
RTVSPost2010Prop57
140
1.0
102
RTVSPost2010PropOp57
 70
     1
  0
XRECORD
  5
20D
102
{ACAD_REACTORS
330
20C
102
}
330
20C
100
AcDbXrecord
280
     1
102
RTVSPost2010Prop28
280
     0
102
RTVSPost2010PropOp28
 70
     0
102
RTVSPost2010Prop29
280
     1
102
RTVSPost2010PropOp29
 70
     0
102
RTVSPost2010Prop30
280
     1
102
RTVSPost2010PropOp30
 70
     0
102
RTVSPost2010Prop31
280
     0
102
RTVSPost2010PropOp31
 70
     0
102
RTVSPost2010Prop32
280
     0
102
RTVSPost2010PropOp32
 70
     0
102
RTVSPost2010Prop33
280
     0
102
RTVSPost2010PropOp33
 70
     0
102
RTVSPost2010Prop34
280
     0
102
RTVSPost2010PropOp34
 70
     0
102
RTVSPost2010Prop35
280
     0
102
RTVSPost2010PropOp35
 70
     0
102
RTVSPost2010Prop36
280
     0
102
RTVSPost2010PropOp36
 70
     0
102
RTVSPost2010Prop37
 90
       50
102
RTVSPost2010PropOp37
 70
     0
102
RTVSPost2010Prop38
140
0.0
102
RTVSPost2010PropOp38
 70
     0
102
RTVSPost2010Prop39
140
1.0
102
RTVSPost2010PropOp39
 70
     0
102
RTVSPost2010Prop40
 90
        0
102
RTVSPost2010PropOp40
 70
     0
102
RTVSPost2010Prop41ColorIndex
 90
       18
102
RTVSPost2010Prop41ColorRGB
 90
        0
102
RTVSPost2010PropOp41
 70
     0
102
RTVSPost2010Prop42
 90
       50
102
RTVSPost2010PropOp42
 70
     0
102
RTVSPost2010Prop43
 90
        3
102
RTVSPost2010PropOp43
 70
     0
102
RTVSPost2010Prop44ColorIndex
 90
        5
102
RTVSPost2010Prop44ColorRGB
 90
      255
102
RTVSPost2010PropOp44
 70
     0
102
RTVSPost2010Prop45
280
     0
102
RTVSPost2010PropOp45
 70
     0
102
RTVSPost2010Prop46
 90
       50
102
RTVSPost2010PropOp46
 70
     0
102
RTVSPost2010Prop47
 90
       50
102
RTVSPost2010PropOp47
 70
     0
102
RTVSPost2010Prop48
 90
       50
102
RTVSPost2010PropOp48
 70
     0
102
RTVSPost2010Prop49
280
     0
102
RTVSPost2010PropOp49
 70
     0
102
RTVSPost2010Prop50
 90
       50
102
RTVSPost2010PropOp50
 70
     0
102
RTVSPost2010Prop51ColorIndex
 90
      256
102
RTVSPost2010Prop51ColorRGB
 90
-16777216
102
RTVSPost2010PropOp51
 70
     0
102
RTVSPost2010Prop52
140
1.0
102
RTVSPost2010PropOp52
 70
     0
102
RTVSPost2010Prop53
 90
        2
102
RTVSPost2010PropOp53
 70
     0
102
RTVSPost2010Prop54
  1
strokes_ogs.tif
102
RTVSPost2010PropOp54
 70
     0
102
RTVSPost2010Prop55
280
     0
102
RTVSPost2010PropOp55
 70
     0
102
RTVSPost2010Prop56
140
1.0
102
RTVSPost2010PropOp56
 70
     0
102
RTVSPost2010Prop57
140
1.0
102
RTVSPost2010PropOp57
 70
     0
  0
XRECORD
  5
1FD
102
{ACAD_REACTORS
330
1FC
102
}
330
1FC
100
AcDbXrecord
280
     1
102
RTVSPost2010Prop28
280
     0
102
RTVSPost2010PropOp28
 70
     1
102
RTVSPost2010Prop29
280
     1
102
RTVSPost2010PropOp29
 70
     1
102
RTVSPost2010Prop30
280
     1
102
RTVSPost2010PropOp30
 70
     1
102
RTVSPost2010Prop31
280
     0
102
RTVSPost2010PropOp31
 70
     1
102
RTVSPost2010Prop32
280
     0
102
RTVSPost2010PropOp32
 70
     1
102
RTVSPost2010Prop33
280
     0
102
RTVSPost2010PropOp33
 70
     1
102
RTVSPost2010Prop34
280
     0
102
RTVSPost2010PropOp34
 70
     1
102
RTVSPost2010Prop35
280
     0
102
RTVSPost2010PropOp35
 70
     1
102
RTVSPost2010Prop36
280
     0
102
RTVSPost2010PropOp36
 70
     1
102
RTVSPost2010Prop37
 90
       50
102
RTVSPost2010PropOp37
 70
     1
102
RTVSPost2010Prop38
140
0.0
102
RTVSPost2010PropOp38
 70
     1
102
RTVSPost2010Prop39
140
1.0
102
RTVSPost2010PropOp39
 70
     1
102
RTVSPost2010Prop40
 90
        0
102
RTVSPost2010PropOp40
 70
     1
102
RTVSPost2010Prop41ColorIndex
 90
       18
102
RTVSPost2010Prop41ColorRGB
 90
        0
102
RTVSPost2010PropOp41
 70
     1
102
RTVSPost2010Prop42
 90
       50
102
RTVSPost2010PropOp42
 70
     1
102
RTVSPost2010Prop43
 90
        3
102
RTVSPost2010PropOp43
 70
     1
102
RTVSPost2010Prop44ColorIndex
 90
        5
102
RTVSPost2010Prop44ColorRGB
 90
      255
102
RTVSPost2010PropOp44
 70
     1
102
RTVSPost2010Prop45
280
     0
102
RTVSPost2010PropOp45
 70
     1
102
RTVSPost2010Prop46
 90
       50
102
RTVSPost2010PropOp46
 70
     1
102
RTVSPost2010Prop47
 90
       50
102
RTVSPost2010PropOp47
 70
     1
102
RTVSPost2010Prop48
 90
       50
102
RTVSPost2010PropOp48
 70
     1
102
RTVSPost2010Prop49
280
     0
102
RTVSPost2010PropOp49
 70
     1
102
RTVSPost2010Prop50
 90
       50
102
RTVSPost2010PropOp50
 70
     1
102
RTVSPost2010Prop51ColorIndex
 90
      256
102
RTVSPost2010Prop51ColorRGB
 90
-16777216
102
RTVSPost2010PropOp51
 70
     0
102
RTVSPost2010Prop52
140
1.0
102
RTVSPost2010PropOp52
 70
     0
102
RTVSPost2010Prop53
 90
        2
102
RTVSPost2010PropOp53
 70
     1
102
RTVSPost2010Prop54
  1
strokes_ogs.tif
102
RTVSPost2010PropOp54
 70
     1
102
RTVSPost2010Prop55
280
     0
102
RTVSPost2010PropOp55
 70
     1
102
RTVSPost2010Prop56
140
1.0
102
RTVSPost2010PropOp56
 70
     1
102
RTVSPost2010Prop57
140
1.0
102
RTVSPost2010PropOp57
 70
     1
  0
XRECORD
  5
20F
102
{ACAD_REACTORS
330
20E
102
}
330
20E
100
AcDbXrecord
280
     1
102
RTVSPost2010Prop28
280
     0
102
RTVSPost2010PropOp28
 70
     0
102
RTVSPost2010Prop29
280
     1
102
RTVSPost2010PropOp29
 70
     0
102
RTVSPost2010Prop30
280
     1
102
RTVSPost2010PropOp30
 70
     0
102
RTVSPost2010Prop31
280
     0
102
RTVSPost2010PropOp31
 70
     0
102
RTVSPost2010Prop32
280
     0
102
RTVSPost2010PropOp32
 70
     0
102
RTVSPost2010Prop33
280
     0
102
RTVSPost2010PropOp33
 70
     0
102
RTVSPost2010Prop34
280
     0
102
RTVSPost2010PropOp34
 70
     0
102
RTVSPost2010Prop35
280
     0
102
RTVSPost2010PropOp35
 70
     0
102
RTVSPost2010Prop36
280
     0
102
RTVSPost2010PropOp36
 70
     0
102
RTVSPost2010Prop37
 90
       50
102
RTVSPost2010PropOp37
 70
     0
102
RTVSPost2010Prop38
140
0.0
102
RTVSPost2010PropOp38
 70
     0
102
RTVSPost2010Prop39
140
1.0
102
RTVSPost2010PropOp39
 70
     0
102
RTVSPost2010Prop40
 90
        0
102
RTVSPost2010PropOp40
 70
     0
102
RTVSPost2010Prop41ColorIndex
 90
       18
102
RTVSPost2010Prop41ColorRGB
 90
        0
102
RTVSPost2010PropOp41
 70
     0
102
RTVSPost2010Prop42
 90
       50
102
RTVSPost2010PropOp42
 70
     0
102
RTVSPost2010Prop43
 90
        3
102
RTVSPost2010PropOp43
 70
     0
102
RTVSPost2010Prop44ColorIndex
 90
        5
102
RTVSPost2010Prop44ColorRGB
 90
      255
102
RTVSPost2010PropOp44
 70
     0
102
RTVSPost2010Prop45
280
     0
102
RTVSPost2010PropOp45
 70
     0
102
RTVSPost2010Prop46
 90
       50
102
RTVSPost2010PropOp46
 70
     0
102
RTVSPost2010Prop47
 90
       50
102
RTVSPost2010PropOp47
 70
     0
102
RTVSPost2010Prop48
 90
       50
102
RTVSPost2010PropOp48
 70
     0
102
RTVSPost2010Prop49
280
     0
102
RTVSPost2010PropOp49
 70
     0
102
RTVSPost2010Prop50
 90
       50
102
RTVSPost2010PropOp50
 70
     0
102
RTVSPost2010Prop51ColorIndex
 90
      256
102
RTVSPost2010Prop51ColorRGB
 90
-16777216
102
RTVSPost2010PropOp51
 70
     0
102
RTVSPost2010Prop52
140
1.0
102
RTVSPost2010PropOp52
 70
     0
102
RTVSPost2010Prop53
 90
        2
102
RTVSPost2010PropOp53
 70
     0
102
RTVSPost2010Prop54
  1
strokes_ogs.tif
102
RTVSPost2010PropOp54
 70
     0
102
RTVSPost2010Prop55
280
     0
102
RTVSPost2010PropOp55
 70
     0
102
RTVSPost2010Prop56
140
1.0
102
RTVSPost2010PropOp56
 70
     0
102
RTVSPost2010Prop57
140
1.0
102
RTVSPost2010PropOp57
 70
     0
  0
XRECORD
  5
1F5
102
{ACAD_REACTORS
330
1F4
102
}
330
1F4
100
AcDbXrecord
280
     1
102
RTVSPost2010Prop28
280
     0
102
RTVSPost2010PropOp28
 70
     1
102
RTVSPost2010Prop29
280
     1
102
RTVSPost2010PropOp29
 70
     1
102
RTVSPost2010Prop30
280
     1
102
RTVSPost2010PropOp30
 70
     1
102
RTVSPost2010Prop31
280
     0
102
RTVSPost2010PropOp31
 70
     1
102
RTVSPost2010Prop32
280
     0
102
RTVSPost2010PropOp32
 70
     1
102
RTVSPost2010Prop33
280
     0
102
RTVSPost2010PropOp33
 70
     1
102
RTVSPost2010Prop34
280
     0
102
RTVSPost2010PropOp34
 70
     1
102
RTVSPost2010Prop35
280
     0
102
RTVSPost2010PropOp35
 70
     1
102
RTVSPost2010Prop36
280
     0
102
RTVSPost2010PropOp36
 70
     1
102
RTVSPost2010Prop37
 90
       50
102
RTVSPost2010PropOp37
 70
     1
102
RTVSPost2010Prop38
140
0.0
102
RTVSPost2010PropOp38
 70
     1
102
RTVSPost2010Prop39
140
1.0
102
RTVSPost2010PropOp39
 70
     1
102
RTVSPost2010Prop40
 90
        0
102
RTVSPost2010PropOp40
 70
     1
102
RTVSPost2010Prop41ColorIndex
 90
       18
102
RTVSPost2010Prop41ColorRGB
 90
        0
102
RTVSPost2010PropOp41
 70
     1
102
RTVSPost2010Prop42
 90
       50
102
RTVSPost2010PropOp42
 70
     1
102
RTVSPost2010Prop43
 90
        3
102
RTVSPost2010PropOp43
 70
     1
102
RTVSPost2010Prop44ColorIndex
 90
        5
102
RTVSPost2010Prop44ColorRGB
 90
      255
102
RTVSPost2010PropOp44
 70
     1
102
RTVSPost2010Prop45
280
     0
102
RTVSPost2010PropOp45
 70
     1
102
RTVSPost2010Prop46
 90
       50
102
RTVSPost2010PropOp46
 70
     1
102
RTVSPost2010Prop47
 90
       50
102
RTVSPost2010PropOp47
 70
     1
102
RTVSPost2010Prop48
 90
       50
102
RTVSPost2010PropOp48
 70
     1
102
RTVSPost2010Prop49
280
     0
102
RTVSPost2010PropOp49
 70
     1
102
RTVSPost2010Prop50
 90
       50
102
RTVSPost2010PropOp50
 70
     1
102
RTVSPost2010Prop51ColorIndex
 90
      256
102
RTVSPost2010Prop51ColorRGB
 90
-16777216
102
RTVSPost2010PropOp51
 70
     0
102
RTVSPost2010Prop52
140
1.0
102
RTVSPost2010PropOp52
 70
     0
102
RTVSPost2010Prop53
 90
        2
102
RTVSPost2010PropOp53
 70
     1
102
RTVSPost2010Prop54
  1
strokes_ogs.tif
102
RTVSPost2010PropOp54
 70
     1
102
RTVSPost2010Prop55
280
     0
102
RTVSPost2010PropOp55
 70
     1
102
RTVSPost2010Prop56
140
1.0
102
RTVSPost2010PropOp56
 70
     1
102
RTVSPost2010Prop57
140
1.0
102
RTVSPost2010PropOp57
 70
     1
  0
XRECORD
  5
20B
102
{ACAD_REACTORS
330
20A
102
}
330
20A
100
AcDbXrecord
280
     1
102
RTVSPost2010Prop28
280
     0
102
RTVSPost2010PropOp28
 70
     1
102
RTVSPost2010Prop29
280
     1
102
RTVSPost2010PropOp29
 70
     1
102
RTVSPost2010Prop30
280
     1
102
RTVSPost2010PropOp30
 70
     1
102
RTVSPost2010Prop31
280
     0
102
RTVSPost2010PropOp31
 70
     1
102
RTVSPost2010Prop32
280
     0
102
RTVSPost2010PropOp32
 70
     1
102
RTVSPost2010Prop33
280
     0
102
RTVSPost2010PropOp33
 70
     1
102
RTVSPost2010Prop34
280
     0
102
RTVSPost2010PropOp34
 70
     1
102
RTVSPost2010Prop35
280
     0
102
RTVSPost2010PropOp35
 70
     1
102
RTVSPost2010Prop36
280
     0
102
RTVSPost2010PropOp36
 70
     1
102
RTVSPost2010Prop37
 90
       50
102
RTVSPost2010PropOp37
 70
     1
102
RTVSPost2010Prop38
140
0.0
102
RTVSPost2010PropOp38
 70
     1
102
RTVSPost2010Prop39
140
1.0
102
RTVSPost2010PropOp39
 70
     1
102
RTVSPost2010Prop40
 90
        0
102
RTVSPost2010PropOp40
 70
     1
102
RTVSPost2010Prop41ColorIndex
 90
       18
102
RTVSPost2010Prop41ColorRGB
 90
        0
102
RTVSPost2010PropOp41
 70
     1
102
RTVSPost2010Prop42
 90
       50
102
RTVSPost2010PropOp42
 70
     1
102
RTVSPost2010Prop43
 90
        3
102
RTVSPost2010PropOp43
 70
     1
102
RTVSPost2010Prop44ColorIndex
 90
        5
102
RTVSPost2010Prop44ColorRGB
 90
      255
102
RTVSPost2010PropOp44
 70
     1
102
RTVSPost2010Prop45
280
     0
102
RTVSPost2010PropOp45
 70
     1
102
RTVSPost2010Prop46
 90
       50
102
RTVSPost2010PropOp46
 70
     1
102
RTVSPost2010Prop47
 90
       50
102
RTVSPost2010PropOp47
 70
     1
102
RTVSPost2010Prop48
 90
       50
102
RTVSPost2010PropOp48
 70
     1
102
RTVSPost2010Prop49
280
     0
102
RTVSPost2010PropOp49
 70
     1
102
RTVSPost2010Prop50
 90
       50
102
RTVSPost2010PropOp50
 70
     1
102
RTVSPost2010Prop51ColorIndex
 90
      256
102
RTVSPost2010Prop51ColorRGB
 90
-16777216
102
RTVSPost2010PropOp51
 70
     0
102
RTVSPost2010Prop52
140
1.0
102
RTVSPost2010PropOp52
 70
     0
102
RTVSPost2010Prop53
 90
        2
102
RTVSPost2010PropOp53
 70
     1
102
RTVSPost2010Prop54
  1
strokes_ogs.tif
102
RTVSPost2010PropOp54
 70
     1
102
RTVSPost2010Prop55
280
     0
102
RTVSPost2010PropOp55
 70
     1
102
RTVSPost2010Prop56
140
1.0
102
RTVSPost2010PropOp56
 70
     1
102
RTVSPost2010Prop57
140
1.0
102
RTVSPost2010PropOp57
 70
     1
  0
XRECORD
  5
209
102
{ACAD_REACTORS
330
208
102
}
330
208
100
AcDbXrecord
280
     1
102
RTVSPost2010Prop28
280
     0
102
RTVSPost2010PropOp28
 70
     1
102
RTVSPost2010Prop29
280
     1
102
RTVSPost2010PropOp29
 70
     1
102
RTVSPost2010Prop30
280
     1
102
RTVSPost2010PropOp30
 70
     1
102
RTVSPost2010Prop31
280
     0
102
RTVSPost2010PropOp31
 70
     1
102
RTVSPost2010Prop32
280
     0
102
RTVSPost2010PropOp32
 70
     1
102
RTVSPost2010Prop33
280
     0
102
RTVSPost2010PropOp33
 70
     1
102
RTVSPost2010Prop34
280
     0
102
RTVSPost2010PropOp34
 70
     1
102
RTVSPost2010Prop35
280
     0
102
RTVSPost2010PropOp35
 70
     1
102
RTVSPost2010Prop36
280
     0
102
RTVSPost2010PropOp36
 70
     1
102
RTVSPost2010Prop37
 90
       50
102
RTVSPost2010PropOp37
 70
     1
102
RTVSPost2010Prop38
140
0.0
102
RTVSPost2010PropOp38
 70
     1
102
RTVSPost2010Prop39
140
1.0
102
RTVSPost2010PropOp39
 70
     1
102
RTVSPost2010Prop40
 90
        0
102
RTVSPost2010PropOp40
 70
     1
102
RTVSPost2010Prop41ColorIndex
 90
       18
102
RTVSPost2010Prop41ColorRGB
 90
        0
102
RTVSPost2010PropOp41
 70
     1
102
RTVSPost2010Prop42
 90
       50
102
RTVSPost2010PropOp42
 70
     1
102
RTVSPost2010Prop43
 90
        3
102
RTVSPost2010PropOp43
 70
     1
102
RTVSPost2010Prop44ColorIndex
 90
        5
102
RTVSPost2010Prop44ColorRGB
 90
      255
102
RTVSPost2010PropOp44
 70
     1
102
RTVSPost2010Prop45
280
     0
102
RTVSPost2010PropOp45
 70
     1
102
RTVSPost2010Prop46
 90
       50
102
RTVSPost2010PropOp46
 70
     1
102
RTVSPost2010Prop47
 90
       50
102
RTVSPost2010PropOp47
 70
     1
102
RTVSPost2010Prop48
 90
       50
102
RTVSPost2010PropOp48
 70
     1
102
RTVSPost2010Prop49
280
     0
102
RTVSPost2010PropOp49
 70
     1
102
RTVSPost2010Prop50
 90
       50
102
RTVSPost2010PropOp50
 70
     1
102
RTVSPost2010Prop51ColorIndex
 90
      256
102
RTVSPost2010Prop51ColorRGB
 90
-16777216
102
RTVSPost2010PropOp51
 70
     0
102
RTVSPost2010Prop52
140
1.0
102
RTVSPost2010PropOp52
 70
     0
102
RTVSPost2010Prop53
 90
        2
102
RTVSPost2010PropOp53
 70
     1
102
RTVSPost2010Prop54
  1
strokes_ogs.tif
102
RTVSPost2010PropOp54
 70
     1
102
RTVSPost2010Prop55
280
     0
102
RTVSPost2010PropOp55
 70
     1
102
RTVSPost2010Prop56
140
1.0
102
RTVSPost2010PropOp56
 70
     1
102
RTVSPost2010Prop57
140
1.0
102
RTVSPost2010PropOp57
 70
     1
  0
XRECORD
  5
203
102
{ACAD_REACTORS
330
202
102
}
330
202
100
AcDbXrecord
280
     1
102
RTVSPost2010Prop28
280
     0
102
RTVSPost2010PropOp28
 70
     1
102
RTVSPost2010Prop29
280
     1
102
RTVSPost2010PropOp29
 70
     1
102
RTVSPost2010Prop30
280
     1
102
RTVSPost2010PropOp30
 70
     1
102
RTVSPost2010Prop31
280
     0
102
RTVSPost2010PropOp31
 70
     1
102
RTVSPost2010Prop32
280
     0
102
RTVSPost2010PropOp32
 70
     1
102
RTVSPost2010Prop33
280
     0
102
RTVSPost2010PropOp33
 70
     1
102
RTVSPost2010Prop34
280
     0
102
RTVSPost2010PropOp34
 70
     1
102
RTVSPost2010Prop35
280
     0
102
RTVSPost2010PropOp35
 70
     1
102
RTVSPost2010Prop36
280
     0
102
RTVSPost2010PropOp36
 70
     1
102
RTVSPost2010Prop37
 90
       50
102
RTVSPost2010PropOp37
 70
     1
102
RTVSPost2010Prop38
140
0.0
102
RTVSPost2010PropOp38
 70
     1
102
RTVSPost2010Prop39
140
1.0
102
RTVSPost2010PropOp39
 70
     1
102
RTVSPost2010Prop40
 90
        0
102
RTVSPost2010PropOp40
 70
     1
102
RTVSPost2010Prop41ColorIndex
 90
       18
102
RTVSPost2010Prop41ColorRGB
 90
        0
102
RTVSPost2010PropOp41
 70
     1
102
RTVSPost2010Prop42
 90
       50
102
RTVSPost2010PropOp42
 70
     1
102
RTVSPost2010Prop43
 90
        3
102
RTVSPost2010PropOp43
 70
     1
102
RTVSPost2010Prop44ColorIndex
 90
        5
102
RTVSPost2010Prop44ColorRGB
 90
      255
102
RTVSPost2010PropOp44
 70
     1
102
RTVSPost2010Prop45
280
     0
102
RTVSPost2010PropOp45
 70
     1
102
RTVSPost2010Prop46
 90
       50
102
RTVSPost2010PropOp46
 70
     1
102
RTVSPost2010Prop47
 90
       50
102
RTVSPost2010PropOp47
 70
     1
102
RTVSPost2010Prop48
 90
       50
102
RTVSPost2010PropOp48
 70
     1
102
RTVSPost2010Prop49
280
     0
102
RTVSPost2010PropOp49
 70
     1
102
RTVSPost2010Prop50
 90
       50
102
RTVSPost2010PropOp50
 70
     1
102
RTVSPost2010Prop51ColorIndex
 90
      256
102
RTVSPost2010Prop51ColorRGB
 90
-16777216
102
RTVSPost2010PropOp51
 70
     0
102
RTVSPost2010Prop52
140
1.0
102
RTVSPost2010PropOp52
 70
     0
102
RTVSPost2010Prop53
 90
        2
102
RTVSPost2010PropOp53
 70
     1
102
RTVSPost2010Prop54
  1
strokes_ogs.tif
102
RTVSPost2010PropOp54
 70
     1
102
RTVSPost2010Prop55
280
     0
102
RTVSPost2010PropOp55
 70
     1
102
RTVSPost2010Prop56
140
1.0
102
RTVSPost2010PropOp56
 70
     1
102
RTVSPost2010Prop57
140
1.0
102
RTVSPost2010PropOp57
 70
     1
  0
XRECORD
  5
205
102
{ACAD_REACTORS
330
204
102
}
330
204
100
AcDbXrecord
280
     1
102
RTVSPost2010Prop28
280
     0
102
RTVSPost2010PropOp28
 70
     1
102
RTVSPost2010Prop29
280
     1
102
RTVSPost2010PropOp29
 70
     1
102
RTVSPost2010Prop30
280
     1
102
RTVSPost2010PropOp30
 70
     1
102
RTVSPost2010Prop31
280
     0
102
RTVSPost2010PropOp31
 70
     1
102
RTVSPost2010Prop32
280
     0
102
RTVSPost2010PropOp32
 70
     1
102
RTVSPost2010Prop33
280
     0
102
RTVSPost2010PropOp33
 70
     1
102
RTVSPost2010Prop34
280
     0
102
RTVSPost2010PropOp34
 70
     1
102
RTVSPost2010Prop35
280
     0
102
RTVSPost2010PropOp35
 70
     1
102
RTVSPost2010Prop36
280
     0
102
RTVSPost2010PropOp36
 70
     1
102
RTVSPost2010Prop37
 90
       50
102
RTVSPost2010PropOp37
 70
     1
102
RTVSPost2010Prop38
140
0.0
102
RTVSPost2010PropOp38
 70
     1
102
RTVSPost2010Prop39
140
1.0
102
RTVSPost2010PropOp39
 70
     1
102
RTVSPost2010Prop40
 90
        0
102
RTVSPost2010PropOp40
 70
     1
102
RTVSPost2010Prop41ColorIndex
 90
       18
102
RTVSPost2010Prop41ColorRGB
 90
        0
102
RTVSPost2010PropOp41
 70
     1
102
RTVSPost2010Prop42
 90
       50
102
RTVSPost2010PropOp42
 70
     1
102
RTVSPost2010Prop43
 90
        3
102
RTVSPost2010PropOp43
 70
     1
102
RTVSPost2010Prop44ColorIndex
 90
        5
102
RTVSPost2010Prop44ColorRGB
 90
      255
102
RTVSPost2010PropOp44
 70
     1
102
RTVSPost2010Prop45
280
     0
102
RTVSPost2010PropOp45
 70
     1
102
RTVSPost2010Prop46
 90
       50
102
RTVSPost2010PropOp46
 70
     1
102
RTVSPost2010Prop47
 90
       50
102
RTVSPost2010PropOp47
 70
     1
102
RTVSPost2010Prop48
 90
       50
102
RTVSPost2010PropOp48
 70
     1
102
RTVSPost2010Prop49
280
     0
102
RTVSPost2010PropOp49
 70
     1
102
RTVSPost2010Prop50
 90
       50
102
RTVSPost2010PropOp50
 70
     1
102
RTVSPost2010Prop51ColorIndex
 90
      256
102
RTVSPost2010Prop51ColorRGB
 90
-16777216
102
RTVSPost2010PropOp51
 70
     0
102
RTVSPost2010Prop52
140
1.0
102
RTVSPost2010PropOp52
 70
     0
102
RTVSPost2010Prop53
 90
        2
102
RTVSPost2010PropOp53
 70
     1
102
RTVSPost2010Prop54
  1
strokes_ogs.tif
102
RTVSPost2010PropOp54
 70
     1
102
RTVSPost2010Prop55
280
     0
102
RTVSPost2010PropOp55
 70
     1
102
RTVSPost2010Prop56
140
1.0
102
RTVSPost2010PropOp56
 70
     1
102
RTVSPost2010Prop57
140
1.0
102
RTVSPost2010PropOp57
 70
     1
  0
XRECORD
  5
1FB
102
{ACAD_REACTORS
330
1FA
102
}
330
1FA
100
AcDbXrecord
280
     1
102
RTVSPost2010Prop28
280
     0
102
RTVSPost2010PropOp28
 70
     1
102
RTVSPost2010Prop29
280
     1
102
RTVSPost2010PropOp29
 70
     1
102
RTVSPost2010Prop30
280
     1
102
RTVSPost2010PropOp30
 70
     1
102
RTVSPost2010Prop31
280
     0
102
RTVSPost2010PropOp31
 70
     1
102
RTVSPost2010Prop32
280
     0
102
RTVSPost2010PropOp32
 70
     1
102
RTVSPost2010Prop33
280
     0
102
RTVSPost2010PropOp33
 70
     1
102
RTVSPost2010Prop34
280
     0
102
RTVSPost2010PropOp34
 70
     1
102
RTVSPost2010Prop35
280
     0
102
RTVSPost2010PropOp35
 70
     1
102
RTVSPost2010Prop36
280
     0
102
RTVSPost2010PropOp36
 70
     1
102
RTVSPost2010Prop37
 90
       50
102
RTVSPost2010PropOp37
 70
     1
102
RTVSPost2010Prop38
140
0.0
102
RTVSPost2010PropOp38
 70
     1
102
RTVSPost2010Prop39
140
1.0
102
RTVSPost2010PropOp39
 70
     1
102
RTVSPost2010Prop40
 90
        0
102
RTVSPost2010PropOp40
 70
     1
102
RTVSPost2010Prop41ColorIndex
 90
       18
102
RTVSPost2010Prop41ColorRGB
 90
        0
102
RTVSPost2010PropOp41
 70
     1
102
RTVSPost2010Prop42
 90
       50
102
RTVSPost2010PropOp42
 70
     1
102
RTVSPost2010Prop43
 90
        3
102
RTVSPost2010PropOp43
 70
     1
102
RTVSPost2010Prop44ColorIndex
 90
        5
102
RTVSPost2010Prop44ColorRGB
 90
      255
102
RTVSPost2010PropOp44
 70
     1
102
RTVSPost2010Prop45
280
     0
102
RTVSPost2010PropOp45
 70
     1
102
RTVSPost2010Prop46
 90
       50
102
RTVSPost2010PropOp46
 70
     1
102
RTVSPost2010Prop47
 90
       50
102
RTVSPost2010PropOp47
 70
     1
102
RTVSPost2010Prop48
 90
       50
102
RTVSPost2010PropOp48
 70
     1
102
RTVSPost2010Prop49
280
     0
102
RTVSPost2010PropOp49
 70
     1
102
RTVSPost2010Prop50
 90
       50
102
RTVSPost2010PropOp50
 70
     1
102
RTVSPost2010Prop51ColorIndex
 90
      256
102
RTVSPost2010Prop51ColorRGB
 90
-16777216
102
RTVSPost2010PropOp51
 70
     0
102
RTVSPost2010Prop52
140
1.0
102
RTVSPost2010PropOp52
 70
     0
102
RTVSPost2010Prop53
 90
        2
102
RTVSPost2010PropOp53
 70
     1
102
RTVSPost2010Prop54
  1
strokes_ogs.tif
102
RTVSPost2010PropOp54
 70
     1
102
RTVSPost2010Prop55
280
     0
102
RTVSPost2010PropOp55
 70
     1
102
RTVSPost2010Prop56
140
1.0
102
RTVSPost2010PropOp56
 70
     1
102
RTVSPost2010Prop57
140
1.0
102
RTVSPost2010PropOp57
 70
     1
  0
XRECORD
  5
1EF
102
{ACAD_REACTORS
330
1EE
102
}
330
1EE
100
AcDbXrecord
280
     1
102
RTVSPost2010Prop28
280
     0
102
RTVSPost2010PropOp28
 70
     1
102
RTVSPost2010Prop29
280
     1
102
RTVSPost2010PropOp29
 70
     1
102
RTVSPost2010Prop30
280
     1
102
RTVSPost2010PropOp30
 70
     1
102
RTVSPost2010Prop31
280
     0
102
RTVSPost2010PropOp31
 70
     1
102
RTVSPost2010Prop32
280
     0
102
RTVSPost2010PropOp32
 70
     1
102
RTVSPost2010Prop33
280
     0
102
RTVSPost2010PropOp33
 70
     1
102
RTVSPost2010Prop34
280
     0
102
RTVSPost2010PropOp34
 70
     1
102
RTVSPost2010Prop35
280
     0
102
RTVSPost2010PropOp35
 70
     1
102
RTVSPost2010Prop36
280
     0
102
RTVSPost2010PropOp36
 70
     1
102
RTVSPost2010Prop37
 90
       50
102
RTVSPost2010PropOp37
 70
     1
102
RTVSPost2010Prop38
140
0.0
102
RTVSPost2010PropOp38
 70
     1
102
RTVSPost2010Prop39
140
1.0
102
RTVSPost2010PropOp39
 70
     1
102
RTVSPost2010Prop40
 90
        0
102
RTVSPost2010PropOp40
 70
     1
102
RTVSPost2010Prop41ColorIndex
 90
       18
102
RTVSPost2010Prop41ColorRGB
 90
        0
102
RTVSPost2010PropOp41
 70
     1
102
RTVSPost2010Prop42
 90
       50
102
RTVSPost2010PropOp42
 70
     1
102
RTVSPost2010Prop43
 90
        3
102
RTVSPost2010PropOp43
 70
     1
102
RTVSPost2010Prop44ColorIndex
 90
        5
102
RTVSPost2010Prop44ColorRGB
 90
      255
102
RTVSPost2010PropOp44
 70
     1
102
RTVSPost2010Prop45
280
     0
102
RTVSPost2010PropOp45
 70
     1
102
RTVSPost2010Prop46
 90
       50
102
RTVSPost2010PropOp46
 70
     1
102
RTVSPost2010Prop47
 90
       50
102
RTVSPost2010PropOp47
 70
     1
102
RTVSPost2010Prop48
 90
       50
102
RTVSPost2010PropOp48
 70
     1
102
RTVSPost2010Prop49
280
     0
102
RTVSPost2010PropOp49
 70
     1
102
RTVSPost2010Prop50
 90
       50
102
RTVSPost2010PropOp50
 70
     1
102
RTVSPost2010Prop51ColorIndex
 90
      256
102
RTVSPost2010Prop51ColorRGB
 90
-16777216
102
RTVSPost2010PropOp51
 70
     0
102
RTVSPost2010Prop52
140
1.0
102
RTVSPost2010PropOp52
 70
     0
102
RTVSPost2010Prop53
 90
        2
102
RTVSPost2010PropOp53
 70
     1
102
RTVSPost2010Prop54
  1
strokes_ogs.tif
102
RTVSPost2010PropOp54
 70
     1
102
RTVSPost2010Prop55
280
     0
102
RTVSPost2010PropOp55
 70
     1
102
RTVSPost2010Prop56
140
1.0
102
RTVSPost2010PropOp56
 70
     1
102
RTVSPost2010Prop57
140
1.0
102
RTVSPost2010PropOp57
 70
     1
  0
XRECORD
  5
207
102
{ACAD_REACTORS
330
206
102
}
330
206
100
AcDbXrecord
280
     1
102
RTVSPost2010Prop28
280
     0
102
RTVSPost2010PropOp28
 70
     1
102
RTVSPost2010Prop29
280
     1
102
RTVSPost2010PropOp29
 70
     1
102
RTVSPost2010Prop30
280
     1
102
RTVSPost2010PropOp30
 70
     1
102
RTVSPost2010Prop31
280
     0
102
RTVSPost2010PropOp31
 70
     1
102
RTVSPost2010Prop32
280
     0
102
RTVSPost2010PropOp32
 70
     1
102
RTVSPost2010Prop33
280
     0
102
RTVSPost2010PropOp33
 70
     1
102
RTVSPost2010Prop34
280
     0
102
RTVSPost2010PropOp34
 70
     1
102
RTVSPost2010Prop35
280
     0
102
RTVSPost2010PropOp35
 70
     1
102
RTVSPost2010Prop36
280
     0
102
RTVSPost2010PropOp36
 70
     1
102
RTVSPost2010Prop37
 90
       50
102
RTVSPost2010PropOp37
 70
     1
102
RTVSPost2010Prop38
140
0.0
102
RTVSPost2010PropOp38
 70
     1
102
RTVSPost2010Prop39
140
1.0
102
RTVSPost2010PropOp39
 70
     1
102
RTVSPost2010Prop40
 90
        0
102
RTVSPost2010PropOp40
 70
     1
102
RTVSPost2010Prop41ColorIndex
 90
       18
102
RTVSPost2010Prop41ColorRGB
 90
        0
102
RTVSPost2010PropOp41
 70
     1
102
RTVSPost2010Prop42
 90
       50
102
RTVSPost2010PropOp42
 70
     1
102
RTVSPost2010Prop43
 90
        3
102
RTVSPost2010PropOp43
 70
     1
102
RTVSPost2010Prop44ColorIndex
 90
        5
102
RTVSPost2010Prop44ColorRGB
 90
      255
102
RTVSPost2010PropOp44
 70
     1
102
RTVSPost2010Prop45
280
     0
102
RTVSPost2010PropOp45
 70
     1
102
RTVSPost2010Prop46
 90
       50
102
RTVSPost2010PropOp46
 70
     1
102
RTVSPost2010Prop47
 90
       50
102
RTVSPost2010PropOp47
 70
     1
102
RTVSPost2010Prop48
 90
       50
102
RTVSPost2010PropOp48
 70
     1
102
RTVSPost2010Prop49
280
     0
102
RTVSPost2010PropOp49
 70
     1
102
RTVSPost2010Prop50
 90
       50
102
RTVSPost2010PropOp50
 70
     1
102
RTVSPost2010Prop51ColorIndex
 90
      256
102
RTVSPost2010Prop51ColorRGB
 90
-16777216
102
RTVSPost2010PropOp51
 70
     0
102
RTVSPost2010Prop52
140
1.0
102
RTVSPost2010PropOp52
 70
     0
102
RTVSPost2010Prop53
 90
        2
102
RTVSPost2010PropOp53
 70
     1
102
RTVSPost2010Prop54
  1
strokes_ogs.tif
102
RTVSPost2010PropOp54
 70
     1
102
RTVSPost2010Prop55
280
     0
102
RTVSPost2010PropOp55
 70
     1
102
RTVSPost2010Prop56
140
1.0
102
RTVSPost2010PropOp56
 70
     1
102
RTVSPost2010Prop57
140
1.0
102
RTVSPost2010PropOp57
 70
     1
  0
ENDSEC
  0
EOF
