  0
SECTION
  2
HEADER
  9
$ACADVER
  1
AC1032
  9
$ACADMAINTVER
 90
      251
  9
$DWGCODEPAGE
  3
ANSI_1252
  9
$REQUIREDVERSIONS
160
                 0
  9
$INSBASE
 10
0.0
 20
0.0
 30
0.0
  9
$EXTMIN
 10
1.000000000000000E+20
 20
1.000000000000000E+20
 30
1.000000000000000E+20
  9
$EXTMAX
 10
-1.000000000000000E+20
 20
-1.000000000000000E+20
 30
-1.000000000000000E+20
  9
$LIMMIN
 10
0.0
 20
0.0
  9
$LIMMAX
 10
12.0
 20
9.0
  9
$ORTHOMODE
 70
     0
  9
$REGENMODE
 70
     1
  9
$FILLMODE
 70
     1
  9
$QTEXTMODE
 70
     0
  9
$MIRRTEXT
 70
     0
  9
$LTSCALE
 40
1.0
  9
$ATTMODE
 70
     1
  9
$TEXTSIZE
 40
0.2
  9
$TRACEWID
 40
0.05
  9
$TEXTSTYLE
  7
Standard
  9
$CLAYER
  8
0
  9
$CELTYPE
  6
ByLayer
  9
$CECOLOR
 62
   256
  9
$CELTSCALE
 40
1.0
  9
$DISPSILH
 70
     0
  9
$DIMSCALE
 40
1.0
  9
$DIMASZ
 40
0.18
  9
$DIMEXO
 40
0.0625
  9
$DIMDLI
 40
0.38
  9
$DIMRND
 40
0.0
  9
$DIMDLE
 40
0.0
  9
$DIMEXE
 40
0.18
  9
$DIMTP
 40
0.0
  9
$DIMTM
 40
0.0
  9
$DIMTXT
 40
0.18
  9
$DIMCEN
 40
0.09
  9
$DIMTSZ
 40
0.0
  9
$DIMTOL
 70
     0
  9
$DIMLIM
 70
     0
  9
$DIMTIH
 70
     1
  9
$DIMTOH
 70
     1
  9
$DIMSE1
 70
     0
  9
$DIMSE2
 70
     0
  9
$DIMTAD
 70
     0
  9
$DIMZIN
 70
     0
  9
$DIMBLK
  1

  9
$DIMASO
 70
     1
  9
$DIMSHO
 70
     1
  9
$DIMPOST
  1

  9
$DIMAPOST
  1

  9
$DIMALT
 70
     0
  9
$DIMALTD
 70
     2
  9
$DIMALTF
 40
25.4
  9
$DIMLFAC
 40
1.0
  9
$DIMTOFL
 70
     0
  9
$DIMTVP
 40
0.0
  9
$DIMTIX
 70
     0
  9
$DIMSOXD
 70
     0
  9
$DIMSAH
 70
     0
  9
$DIMBLK1
  1

  9
$DIMBLK2
  1

  9
$DIMSTYLE
  2
Standard
  9
$DIMCLRD
 70
     0
  9
$DIMCLRE
 70
     0
  9
$DIMCLRT
 70
     0
  9
$DIMTFAC
 40
1.0
  9
$DIMGAP
 40
0.09
  9
$DIMJUST
 70
     0
  9
$DIMSD1
 70
     0
  9
$DIMSD2
 70
     0
  9
$DIMTOLJ
 70
     1
  9
$DIMTZIN
 70
     0
  9
$DIMALTZ
 70
     0
  9
$DIMALTTZ
 70
     0
  9
$DIMUPT
 70
     0
  9
$DIMDEC
 70
     4
  9
$DIMTDEC
 70
     4
  9
$DIMALTU
 70
     2
  9
$DIMALTTD
 70
     2
  9
$DIMTXSTY
  7
Standard
  9
$DIMAUNIT
 70
     0
  9
$DIMADEC
 70
     0
  9
$DIMALTRND
 40
0.0
  9
$DIMAZIN
 70
     0
  9
$DIMDSEP
 70
    46
  9
$DIMATFIT
 70
     3
  9
$DIMFRAC
 70
     0
  9
$DIMLDRBLK
  1

  9
$DIMLUNIT
 70
     2
  9
$DIMLWD
 70
    -2
  9
$DIMLWE
 70
    -2
  9
$DIMTMOVE
 70
     0
  9
$DIMFXL
 40
1.0
  9
$DIMFXLON
 70
     0
  9
$DIMJOGANG
 40
0.7853981633974483
  9
$DIMTFILL
 70
     0
  9
$DIMTFILLCLR
 70
     0
  9
$DIMARCSYM
 70
     0
  9
$DIMLTYPE
  6

  9
$DIMLTEX1
  6

  9
$DIMLTEX2
  6

  9
$DIMTXTDIRECTION
 70
     0
  9
$LUNITS
 70
     2
  9
$LUPREC
 70
     4
  9
$SKETCHINC
 40
0.1
  9
$FILLETRAD
 40
0.0
  9
$AUNITS
 70
     0
  9
$AUPREC
 70
     0
  9
$MENU
  1
.
  9
$ELEVATION
 40
0.0
  9
$PELEVATION
 40
0.0
  9
$THICKNESS
 40
0.0
  9
$LIMCHECK
 70
     0
  9
$CHAMFERA
 40
0.0
  9
$CHAMFERB
 40
0.0
  9
$CHAMFERC
 40
0.0
  9
$CHAMFERD
 40
0.0
  9
$SKPOLY
 70
     0
  9
$TDCREATE
 40
2460570.509803241
  9
$TDUCREATE
 40
2460570.426469907
  9
$TDUPDATE
 40
2460570.509803241
  9
$TDUUPDATE
 40
2460570.426469907
  9
$TDINDWG
 40
0.0000000000
  9
$TDUSRTIMER
 40
0.0000000000
  9
$USRTIMER
 70
     1
  9
$ANGBASE
 50
0.0
  9
$ANGDIR
 70
     0
  9
$PDMODE
 70
     0
  9
$PDSIZE
 40
0.0
  9
$PLINEWID
 40
0.0
  9
$SPLFRAME
 70
     0
  9
$SPLINETYPE
 70
     6
  9
$SPLINESEGS
 70
     8
  9
$HANDSEED
  5
26F
  9
$SURFTAB1
 70
     6
  9
$SURFTAB2
 70
     6
  9
$SURFTYPE
 70
     6
  9
$SURFU
 70
     6
  9
$SURFV
 70
     6
  9
$UCSBASE
  2

  9
$UCSNAME
  2

  9
$UCSORG
 10
0.0
 20
0.0
 30
0.0
  9
$UCSXDIR
 10
1.0
 20
0.0
 30
0.0
  9
$UCSYDIR
 10
0.0
 20
1.0
 30
0.0
  9
$UCSORTHOREF
  2

  9
$UCSORTHOVIEW
 70
     0
  9
$UCSORGTOP
 10
0.0
 20
0.0
 30
0.0
  9
$UCSORGBOTTOM
 10
0.0
 20
0.0
 30
0.0
  9
$UCSORGLEFT
 10
0.0
 20
0.0
 30
0.0
  9
$UCSORGRIGHT
 10
0.0
 20
0.0
 30
0.0
  9
$UCSORGFRONT
 10
0.0
 20
0.0
 30
0.0
  9
$UCSORGBACK
 10
0.0
 20
0.0
 30
0.0
  9
$PUCSBASE
  2

  9
$PUCSNAME
  2

  9
$PUCSORG
 10
0.0
 20
0.0
 30
0.0
  9
$PUCSXDIR
 10
1.0
 20
0.0
 30
0.0
  9
$PUCSYDIR
 10
0.0
 20
1.0
 30
0.0
  9
$PUCSORTHOREF
  2

  9
$PUCSORTHOVIEW
 70
     0
  9
$PUCSORGTOP
 10
0.0
 20
0.0
 30
0.0
  9
$PUCSORGBOTTOM
 10
0.0
 20
0.0
 30
0.0
  9
$PUCSORGLEFT
 10
0.0
 20
0.0
 30
0.0
  9
$PUCSORGRIGHT
 10
0.0
 20
0.0
 30
0.0
  9
$PUCSORGFRONT
 10
0.0
 20
0.0
 30
0.0
  9
$PUCSORGBACK
 10
0.0
 20
0.0
 30
0.0
  9
$USERI1
 70
     0
  9
$USERI2
 70
     0
  9
$USERI3
 70
     0
  9
$USERI4
 70
     0
  9
$USERI5
 70
     0
  9
$USERR1
 40
0.0
  9
$USERR2
 40
0.0
  9
$USERR3
 40
0.0
  9
$USERR4
 40
0.0
  9
$USERR5
 40
0.0
  9
$WORLDVIEW
 70
     1
  9
$SHADEDGE
 70
     3
  9
$SHADEDIF
 70
    70
  9
$TILEMODE
 70
     1
  9
$MAXACTVP
 70
    64
  9
$PINSBASE
 10
0.0
 20
0.0
 30
0.0
  9
$PLIMCHECK
 70
     0
  9
$PEXTMIN
 10
1.000000000000000E+20
 20
1.000000000000000E+20
 30
1.000000000000000E+20
  9
$PEXTMAX
 10
-1.000000000000000E+20
 20
-1.000000000000000E+20
 30
-1.000000000000000E+20
  9
$PLIMMIN
 10
0.0
 20
0.0
  9
$PLIMMAX
 10
12.0
 20
9.0
  9
$UNITMODE
 70
     0
  9
$VISRETAIN
 70
     1
  9
$PLINEGEN
 70
     0
  9
$PSLTSCALE
 70
     1
  9
$TREEDEPTH
 70
  3020
  9
$CMLSTYLE
  2
Standard
  9
$CMLJUST
 70
     0
  9
$CMLSCALE
 40
1.0
  9
$PROXYGRAPHICS
 70
     1
  9
$MEASUREMENT
 70
     0
  9
$CELWEIGHT
370
    -1
  9
$ENDCAPS
280
     0
  9
$JOINSTYLE
280
     0
  9
$LWDISPLAY
290
     1
  9
$INSUNITS
 70
     4
  9
$HYPERLINKBASE
  1

  9
$STYLESHEET
  1

  9
$XEDIT
290
     1
  9
$CEPSNTYPE
380
     0
  9
$PSTYLEMODE
290
     1
  9
$FINGERPRINTGUID
  2
{49F32D3B-7024-3F48-82C4-81D6E1DCB1F7}
  9
$VERSIONGUID
  2
{275F1D4D-50B6-E341-91E6-7FE6014F82C5}
  9
$EXTNAMES
290
     1
  9
$PSVPSCALE
 40
0.0
  9
$OLESTARTUP
290
     0
  9
$SORTENTS
280
   127
  9
$INDEXCTL
280
     0
  9
$HIDETEXT
280
     1
  9
$XCLIPFRAME
280
     2
  9
$HALOGAP
280
     0
  9
$OBSCOLOR
 70
   257
  9
$OBSLTYPE
280
     0
  9
$INTERSECTIONDISPLAY
280
     0
  9
$INTERSECTIONCOLOR
 70
   257
  9
$DIMASSOC
280
     2
  9
$PROJECTNAME
  1

  9
$CAMERADISPLAY
290
     0
  9
$LENSLENGTH
 40
50.0
  9
$CAMERAHEIGHT
 40
0.0
  9
$STEPSPERSEC
 40
2.0
  9
$STEPSIZE
 40
6.0
  9
$3DDWFPREC
 40
2.0
  9
$PSOLWIDTH
 40
0.25
  9
$PSOLHEIGHT
 40
4.0
  9
$LOFTANG1
 40
1.570796326794896
  9
$LOFTANG2
 40
1.570796326794896
  9
$LOFTMAG1
 40
0.0
  9
$LOFTMAG2
 40
0.0
  9
$LOFTPARAM
 70
     7
  9
$LOFTNORMALS
280
     1
  9
$LATITUDE
 40
37.795
  9
$LONGITUDE
 40
-122.394
  9
$NORTHDIRECTION
 40
0.0
  9
$TIMEZONE
 70
 -8000
  9
$LIGHTGLYPHDISPLAY
280
     1
  9
$TILEMODELIGHTSYNCH
280
     1
  9
$CMATERIAL
347
11
  9
$SOLIDHIST
280
     0
  9
$SHOWHIST
280
     1
  9
$DWFFRAME
280
     2
  9
$DGNFRAME
280
     0
  9
$REALWORLDSCALE
290
     1
  9
$INTERFERECOLOR
 62
     1
  9
$INTERFEREOBJVS
345
33
  9
$INTERFEREVPVS
346
30
  9
$CSHADOW
280
     0
  9
$SHADOWPLANELOCATION
 40
0.0
  0
ENDSEC
  0
SECTION
  2
CLASSES
  0
CLASS
  1
ACDBDICTIONARYWDFLT
  2
AcDbDictionaryWithDefault
  3
ObjectDBX Classes
 90
        0
 91
        1
280
     0
281
     0
  0
CLASS
  1
MATERIAL
  2
AcDbMaterial
  3
ObjectDBX Classes
 90
     1153
 91
        3
280
     0
281
     0
  0
CLASS
  1
VISUALSTYLE
  2
AcDbVisualStyle
  3
ObjectDBX Classes
 90
     4095
 91
       24
280
     0
281
     0
  0
CLASS
  1
SCALE
  2
AcDbScale
  3
ObjectDBX Classes
 90
     1153
 91
       17
280
     0
281
     0
  0
CLASS
  1
TABLESTYLE
  2
AcDbTableStyle
  3
ObjectDBX Classes
 90
     4095
 91
        1
280
     0
281
     0
  0
CLASS
  1
MLEADERSTYLE
  2
AcDbMLeaderStyle
  3
ACDB_MLEADERSTYLE_CLASS
 90
     4095
 91
        1
280
     0
281
     0
  0
CLASS
  1
ACDBSECTIONVIEWSTYLE
  2
AcDbSectionViewStyle
  3
ObjectDBX Classes
 90
     1025
 91
        1
280
     0
281
     0
  0
CLASS
  1
ACDBDETAILVIEWSTYLE
  2
AcDbDetailViewStyle
  3
ObjectDBX Classes
 90
     1025
 91
        1
280
     0
281
     0
  0
CLASS
  1
DICTIONARYVAR
  2
AcDbDictionaryVar
  3
ObjectDBX Classes
 90
        0
 91
        5
280
     0
281
     0
  0
CLASS
  1
CELLSTYLEMAP
  2
AcDbCellStyleMap
  3
ObjectDBX Classes
 90
     1152
 91
        1
280
     0
281
     0
  0
ENDSEC
  0
SECTION
  2
TABLES
  0
TABLE
  2
VPORT
  5
8
330
0
100
AcDbSymbolTable
 70
     1
  0
VPORT
  5
57
330
8
100
AcDbSymbolTableRecord
100
AcDbViewportTableRecord
  2
*Active
 70
     0
 10
0.0
 20
0.0
 11
1.0
 21
1.0
 12
0.0
 22
0.0
 13
0.0
 23
0.0
 14
1.0
 24
1.0
 15
0.0
 25
0.0
 16
0.0
 26
0.0
 36
1.0
 17
105.0007398212079
 27
148.5000555170035
 37
0.0
 40
302.9401132546872
 41
0.7070754246902298
 42
50.0
 43
0.0
 44
0.0
 50
0.0
 51
0.0
 71
     0
 72
   100
 73
     1
 74
     1
 75
     0
 76
     0
 77
     0
 78
     0
281
     0
 65
     1
110
0.0
120
0.0
130
0.0
111
1.0
121
0.0
131
0.0
112
0.0
122
1.0
132
0.0
 79
     0
146
0.0
 60
     3
 61
     5
292
     1
282
     1
141
0.0
142
0.0
 63
   250
421
  3355443
  0
ENDTAB
  0
TABLE
  2
LTYPE
  5
5
330
0
100
AcDbSymbolTable
 70
     1
  0
LTYPE
  5
5B
330
5
100
AcDbSymbolTableRecord
100
AcDbLinetypeTableRecord
  2
ByBlock
 70
     0
  3

 72
    65
 73
     0
 40
0.0
  0
LTYPE
  5
5C
330
5
100
AcDbSymbolTableRecord
100
AcDbLinetypeTableRecord
  2
ByLayer
 70
     0
  3

 72
    65
 73
     0
 40
0.0
  0
LTYPE
  5
5D
330
5
100
AcDbSymbolTableRecord
100
AcDbLinetypeTableRecord
  2
Continuous
 70
     0
  3
Solid line
 72
    65
 73
     0
 40
0.0
  0
ENDTAB
  0
TABLE
  2
LAYER
  5
2
330
0
100
AcDbSymbolTable
 70
     6
  0
LAYER
  5
54
330
2
100
AcDbSymbolTableRecord
100
AcDbLayerTableRecord
  2
0
 70
     0
 62
     7
  6
Continuous
370
    -3
390
F
347
21
348
0
  0
LAYER
  5
78
330
2
100
AcDbSymbolTableRecord
100
AcDbLayerTableRecord
  2
CAJETIN
 70
     0
 62
     7
  6
Continuous
370
     0
390
F
347
21
348
0
  0
LAYER
  5
7F
330
2
100
AcDbSymbolTableRecord
100
AcDbLayerTableRecord
  2
TEXTO-NOMBRE
 70
     0
 62
     7
  6
Continuous
370
     0
390
F
347
21
348
0
  0
LAYER
  5
80
330
2
100
AcDbSymbolTableRecord
100
AcDbLayerTableRecord
  2
PIEZA
 70
     0
 62
     7
  6
Continuous
370
     0
390
F
347
21
348
0
  0
LAYER
  5
1E0
330
2
100
AcDbSymbolTableRecord
100
AcDbLayerTableRecord
  2
COTAS
 70
     0
 62
     7
  6
Continuous
370
     0
390
F
347
21
348
0
  0
LAYER
  5
241
330
2
100
AcDbSymbolTableRecord
100
AcDbLayerTableRecord
  2
010
 70
     0
 62
     7
  6
Continuous
370
     0
390
F
347
21
348
0
  0
ENDTAB
  0
TABLE
  2
STYLE
  5
3
330
0
100
AcDbSymbolTable
 70
     2
  0
STYLE
  5
55
330
3
100
AcDbSymbolTableRecord
100
AcDbTextStyleTableRecord
  2
Standard
 70
     0
 40
0.0
 41
1.0
 50
0.0
 71
     0
 42
0.2
  3
txt
  4

  0
STYLE
  5
5A
330
3
100
AcDbSymbolTableRecord
100
AcDbTextStyleTableRecord
  2
Annotative
 70
     0
 40
0.0
 41
1.0
 50
0.0
 71
     0
 42
0.2
  3
txt
  4

1001
AcadAnnotative
1000
AnnotativeData
1002
{
1070
     1
1070
     1
1002
}
  0
ENDTAB
  0
TABLE
  2
VIEW
  5
6
330
0
100
AcDbSymbolTable
 70
     0
  0
ENDTAB
  0
TABLE
  2
UCS
  5
7
330
0
100
AcDbSymbolTable
 70
     0
  0
ENDTAB
  0
TABLE
  2
APPID
  5
9
330
0
100
AcDbSymbolTable
 70
     2
  0
APPID
  5
56
330
9
100
AcDbSymbolTableRecord
100
AcDbRegAppTableRecord
  2
ACAD
 70
     0
  0
APPID
  5
5E
330
9
100
AcDbSymbolTableRecord
100
AcDbRegAppTableRecord
  2
AcadAnnotative
 70
     0
  0
ENDTAB
  0
TABLE
  2
DIMSTYLE
  5
A
330
0
100
AcDbSymbolTable
 70
     2
100
AcDbDimStyleTable
 71
     0
  0
DIMSTYLE
105
58
330
A
100
AcDbSymbolTableRecord
100
AcDbDimStyleTableRecord
  2
Standard
 70
     0
340
55
  0
DIMSTYLE
105
59
330
A
100
AcDbSymbolTableRecord
100
AcDbDimStyleTableRecord
  2
Annotative
 70
     0
340
55
1001
AcadAnnotative
1000
AnnotativeData
1002
{
1070
     1
1070
     1
1002
}
  0
ENDTAB
  0
TABLE
  2
BLOCK_RECORD
  5
1
330
0
100
AcDbSymbolTable
 70
     8
  0
BLOCK_RECORD
  5
70
330
1
100
AcDbSymbolTableRecord
100
AcDbBlockTableRecord
  2
*Model_Space
340
73
 70
     0
280
     1
281
     0
  0
BLOCK_RECORD
  5
6C
330
1
100
AcDbSymbolTableRecord
100
AcDbBlockTableRecord
  2
*Paper_Space
340
6F
 70
     0
280
     1
281
     0
  0
BLOCK_RECORD
  5
74
330
1
100
AcDbSymbolTableRecord
100
AcDbBlockTableRecord
  2
*Paper_Space0
340
77
 70
     0
280
     1
281
     0
  0
BLOCK_RECORD
  5
79
330
1
100
AcDbSymbolTableRecord
100
AcDbBlockTableRecord
  2
Block_0
340
0
102
{BLKREFS
331
7A
102
}
 70
     0
280
     1
281
     0
  0
BLOCK_RECORD
  5
1E1
330
1
100
AcDbSymbolTableRecord
100
AcDbBlockTableRecord
  2
Block_1
340
0
102
{BLKREFS
331
1E2
102
}
 70
     0
280
     1
281
     0
  0
BLOCK_RECORD
  5
1F0
330
1
100
AcDbSymbolTableRecord
100
AcDbBlockTableRecord
  2
Block_2
340
0
102
{BLKREFS
331
1F1
102
}
 70
     0
280
     1
281
     0
  0
BLOCK_RECORD
  5
1FF
330
1
100
AcDbSymbolTableRecord
100
AcDbBlockTableRecord
  2
Block_3
340
0
102
{BLKREFS
331
200
102
}
 70
     0
280
     1
281
     0
  0
BLOCK_RECORD
  5
20E
330
1
100
AcDbSymbolTableRecord
100
AcDbBlockTableRecord
  2
Block_4
340
0
102
{BLKREFS
331
20F
102
}
 70
     0
280
     1
281
     0
  0
BLOCK_RECORD
  5
221
330
1
100
AcDbSymbolTableRecord
100
AcDbBlockTableRecord
  2
Block_5
340
0
102
{BLKREFS
331
222
102
}
 70
     0
280
     1
281
     0
  0
BLOCK_RECORD
  5
230
330
1
100
AcDbSymbolTableRecord
100
AcDbBlockTableRecord
  2
Block_6
340
0
102
{BLKREFS
331
231
102
}
 70
     0
280
     1
281
     0
  0
ENDTAB
  0
ENDSEC
  0
SECTION
  2
BLOCKS
  0
BLOCK
  5
71
330
70
100
AcDbEntity
  8
0
100
AcDbBlockBegin
  2
*Model_Space
 70
     0
 10
0.0
 20
0.0
 30
0.0
  3
*Model_Space
  1

  0
ENDBLK
  5
72
330
70
100
AcDbEntity
  8
0
100
AcDbBlockEnd
  0
BLOCK
  5
6D
330
6C
100
AcDbEntity
 67
     1
  8
0
100
AcDbBlockBegin
  2
*Paper_Space
 70
     0
 10
0.0
 20
0.0
 30
0.0
  3
*Paper_Space
  1

  0
ENDBLK
  5
6E
330
6C
100
AcDbEntity
 67
     1
  8
0
100
AcDbBlockEnd
  0
BLOCK
  5
75
330
74
100
AcDbEntity
 67
     1
  8
0
100
AcDbBlockBegin
  2
*Paper_Space0
 70
     0
 10
0.0
 20
0.0
 30
0.0
  3
*Paper_Space0
  1

  0
ENDBLK
  5
76
330
74
100
AcDbEntity
 67
     1
  8
0
100
AcDbBlockEnd
  0
BLOCK
  5
7B
330
79
100
AcDbEntity
  8
0
100
AcDbBlockBegin
  2
Block_0
 70
     0
 10
0.0
 20
0.0
 30
0.0
  3
Block_0
  1

  0
LWPOLYLINE
  5
7D
330
79
100
AcDbEntity
  8
CAJETIN
 62
    18
420
        0
370
     9
100
AcDbPolyline
 90
        1
 70
     0
 43
0.0
 10
0.0403076833231184
 20
0.1453828971861526
  0
LWPOLYLINE
  5
7E
330
79
100
AcDbEntity
  8
CAJETIN
 62
    18
420
        0
370
     9
100
AcDbPolyline
 90
        1
 70
     0
 43
0.0
 10
0.0403076833231184
 20
0.1453828971861526
  0
ENDBLK
  5
7C
330
79
100
AcDbEntity
  8
0
100
AcDbBlockEnd
  0
BLOCK
  5
1E3
330
1E1
100
AcDbEntity
  8
0
100
AcDbBlockBegin
  2
Block_1
 70
     0
 10
0.0
 20
0.0
 30
0.0
  3
Block_1
  1

  0
LINE
  5
1E5
330
1E1
100
AcDbEntity
  8
COTAS
100
AcDbLine
 10
98.94608553123093
 20
198.3229479959156
 30
0.0
 11
57.42283686835471
 21
198.3229479959156
 31
0.0
  0
LINE
  5
1E6
330
1E1
100
AcDbEntity
  8
COTAS
100
AcDbLine
 10
72.45311009601161
 20
152.0472221842104
 30
0.0
 11
57.42283686835471
 21
152.0472221842104
 31
0.0
  0
LINE
  5
1E7
330
1E1
100
AcDbEntity
  8
COTAS
100
AcDbLine
 10
58.92164998526957
 20
194.8260030851301
 30
0.0
 11
58.92164998526957
 21
155.5443396428444
 31
0.0
  0
LWPOLYLINE
  5
1E8
330
1E1
100
AcDbEntity
  8
COTAS
100
AcDbPolyline
 90
        3
 70
     1
 43
0.0
 10
58.33871851165561
 20
194.8260030851301
 10
59.50436681525046
 20
194.8260030851301
 10
58.92164998526957
 20
198.3229479959156
  0
HATCH
  5
1E9
330
1E1
100
AcDbEntity
  8
COTAS
 62
    18
420
        0
440
 33554687
100
AcDbHatch
 10
0.0
 20
0.0
 30
0.0
210
0.0
220
0.0
230
1.0
  2
SOLID
 70
     1
 71
     1
 91
        1
 92
        1
 93
        3
 72
     1
 10
58.33871851165561
 20
194.8260030851301
 11
59.50436681525046
 21
194.8260030851301
 72
     1
 10
59.50436681525046
 20
194.8260030851301
 11
58.92164998526957
 21
198.3229479959156
 72
     1
 10
58.92164998526957
 20
198.3229479959156
 11
58.33871851165561
 21
194.8260030851301
 97
        1
330
1E8
 75
     2
 76
     1
 98
        1
 10
0.0
 20
0.0
450
        0
451
        0
460
0.0
461
0.0
452
        0
462
0.0
453
        0
470

  0
LWPOLYLINE
  5
1EA
330
1E1
100
AcDbEntity
  8
COTAS
100
AcDbPolyline
 90
        3
 70
     1
 43
0.0
 10
58.33871851165561
 20
155.5443396428444
 10
59.50436681525046
 20
155.5443396428444
 10
58.92164998526957
 20
152.0472221842104
  0
HATCH
  5
1EB
330
1E1
100
AcDbEntity
  8
COTAS
 62
    18
420
        0
440
 33554687
100
AcDbHatch
 10
0.0
 20
0.0
 30
0.0
210
0.0
220
0.0
230
1.0
  2
SOLID
 70
     1
 71
     1
 91
        1
 92
        1
 93
        3
 72
     1
 10
58.33871851165561
 20
155.5443396428444
 11
59.50436681525046
 21
155.5443396428444
 72
     1
 10
59.50436681525046
 20
155.5443396428444
 11
58.92164998526957
 21
152.0472221842104
 72
     1
 10
58.92164998526957
 20
152.0472221842104
 11
58.33871851165561
 21
155.5443396428444
 97
        1
330
1EA
 75
     2
 76
     1
 98
        1
 10
0.0
 20
0.0
450
        0
451
        0
460
0.0
461
0.0
452
        0
462
0.0
453
        0
470

  0
MTEXT
  5
1EC
330
1E1
100
AcDbEntity
  8
COTAS
100
AcDbMText
 10
57.87310992196378
 20
172.1281588422574
 30
0.0
 40
0.2
 41
0.0
 46
0.0
 71
     7
 72
     1
  1
\C18;\c0;\FArial Bold|b1|i0|c1;\H2.600735;\W1.000000;139
 11
0.0000000000000001
 21
1.0
 31
0.0
 73
     1
 44
1.0
  0
LINE
  5
1ED
330
1E1
100
AcDbEntity
  8
COTAS
100
AcDbLine
 10
98.94608553123093
 20
198.3229479959156
 30
0.0
 11
98.94608553123093
 21
198.3229479959156
 31
0.0
  0
LINE
  5
1EE
330
1E1
100
AcDbEntity
  8
COTAS
100
AcDbLine
 10
72.45311009601161
 20
152.0472221842104
 30
0.0
 11
72.45311009601161
 21
152.0472221842104
 31
0.0
  0
LINE
  5
1EF
330
1E1
100
AcDbEntity
  8
COTAS
100
AcDbLine
 10
58.92164998526957
 20
152.0472221842104
 30
0.0
 11
58.92164998526957
 21
152.0472221842104
 31
0.0
  0
ENDBLK
  5
1E4
330
1E1
100
AcDbEntity
  8
0
100
AcDbBlockEnd
  0
BLOCK
  5
1F2
330
1F0
100
AcDbEntity
  8
0
100
AcDbBlockBegin
  2
Block_2
 70
     0
 10
0.0
 20
0.0
 30
0.0
  3
Block_2
  1

  0
LINE
  5
1F4
330
1F0
100
AcDbEntity
  8
COTAS
100
AcDbLine
 10
82.44458789666333
 20
184.7859477857177
 30
0.0
 11
82.44458789666333
 21
209.8815704788084
 31
0.0
  0
LINE
  5
1F5
330
1F0
100
AcDbEntity
  8
COTAS
100
AcDbLine
 10
119.0802416842321
 20
185.3523324934902
 30
0.0
 11
119.0802416842321
 21
209.8815704788084
 31
0.0
  0
LINE
  5
1F6
330
1F0
100
AcDbEntity
  8
COTAS
100
AcDbLine
 10
85.94170919633322
 20
208.3829705170411
 30
0.0
 11
115.5831203845622
 21
208.3829705170411
 31
0.0
  0
LWPOLYLINE
  5
1F7
330
1F0
100
AcDbEntity
  8
COTAS
100
AcDbPolyline
 90
        3
 70
     1
 43
0.0
 10
85.94170919633322
 20
208.9657241132847
 10
85.94170919633322
 20
207.8000758096895
 10
82.44458789666333
 20
208.3829705170411
  0
HATCH
  5
1F8
330
1F0
100
AcDbEntity
  8
COTAS
 62
    18
420
        0
440
 33554687
100
AcDbHatch
 10
0.0
 20
0.0
 30
0.0
210
0.0
220
0.0
230
1.0
  2
SOLID
 70
     1
 71
     1
 91
        1
 92
        1
 93
        3
 72
     1
 10
85.94170919633322
 20
208.9657241132847
 11
85.94170919633322
 21
207.8000758096895
 72
     1
 10
85.94170919633322
 20
207.8000758096895
 11
82.44458789666333
 21
208.3829705170411
 72
     1
 10
82.44458789666333
 20
208.3829705170411
 11
85.94170919633322
 21
208.9657241132847
 97
        1
330
1F7
 75
     2
 76
     1
 98
        1
 10
0.0
 20
0.0
450
        0
451
        0
460
0.0
461
0.0
452
        0
462
0.0
453
        0
470

  0
LWPOLYLINE
  5
1F9
330
1F0
100
AcDbEntity
  8
COTAS
100
AcDbPolyline
 90
        3
 70
     1
 43
0.0
 10
115.5831203845622
 20
208.9657241132847
 10
115.5831203845622
 20
207.8000758096895
 10
119.0802416842321
 20
208.3829705170411
  0
HATCH
  5
1FA
330
1F0
100
AcDbEntity
  8
COTAS
 62
    18
420
        0
440
 33554687
100
AcDbHatch
 10
0.0
 20
0.0
 30
0.0
210
0.0
220
0.0
230
1.0
  2
SOLID
 70
     1
 71
     1
 91
        1
 92
        1
 93
        3
 72
     1
 10
115.5831203845622
 20
208.9657241132847
 11
115.5831203845622
 21
207.8000758096895
 72
     1
 10
115.5831203845622
 20
207.8000758096895
 11
119.0802416842321
 21
208.3829705170411
 72
     1
 10
119.0802416842321
 20
208.3829705170411
 11
115.5831203845622
 21
208.9657241132847
 97
        1
330
1F9
 75
     2
 76
     1
 98
        1
 10
0.0
 20
0.0
450
        0
451
        0
460
0.0
461
0.0
452
        0
462
0.0
453
        0
470

  0
MTEXT
  5
1FB
330
1F0
100
AcDbEntity
  8
COTAS
100
AcDbMText
 10
97.71408891590979
 20
209.4290689349287
 30
0.0
 40
0.2
 41
0.0
 46
0.0
 71
     7
 72
     1
  1
\C18;\c0;\FArial Bold|b1|i0|c1;\H2.600735;\W1.000000;110
 73
     1
 44
1.0
  0
LINE
  5
1FC
330
1F0
100
AcDbEntity
  8
COTAS
100
AcDbLine
 10
82.44458789666333
 20
184.7859477857177
 30
0.0
 11
82.44458789666333
 21
184.7859477857177
 31
0.0
  0
LINE
  5
1FD
330
1F0
100
AcDbEntity
  8
COTAS
100
AcDbLine
 10
119.0802416842321
 20
185.3523324934902
 30
0.0
 11
119.0802416842321
 21
185.3523324934902
 31
0.0
  0
LINE
  5
1FE
330
1F0
100
AcDbEntity
  8
COTAS
100
AcDbLine
 10
119.0802416842321
 20
208.3829705170411
 30
0.0
 11
119.0802416842321
 21
208.3829705170411
 31
0.0
  0
ENDBLK
  5
1F3
330
1F0
100
AcDbEntity
  8
0
100
AcDbBlockEnd
  0
BLOCK
  5
201
330
1FF
100
AcDbEntity
  8
0
100
AcDbBlockBegin
  2
Block_3
 70
     0
 10
0.0
 20
0.0
 30
0.0
  3
Block_3
  1

  0
LINE
  5
203
330
1FF
100
AcDbEntity
  8
COTAS
100
AcDbLine
 10
92.43620680842257
 20
152.0472221842104
 30
0.0
 11
134.3310010173751
 21
152.0472221842104
 31
0.0
  0
LINE
  5
204
330
1FF
100
AcDbEntity
  8
COTAS
100
AcDbLine
 10
119.0802416842321
 20
185.3523324934902
 30
0.0
 11
134.3310010173751
 21
185.3523324934902
 31
0.0
  0
LINE
  5
205
330
1FF
100
AcDbEntity
  8
COTAS
100
AcDbLine
 10
132.8323657778307
 20
155.5443396428444
 30
0.0
 11
132.8323657778307
 21
181.8552111938203
 31
0.0
  0
LWPOLYLINE
  5
206
330
1FF
100
AcDbEntity
  8
COTAS
100
AcDbPolyline
 90
        3
 70
     1
 43
0.0
 10
132.2494710704793
 20
155.5443396428444
 10
133.4149429851901
 20
155.5443396428444
 10
132.8323657778307
 20
152.0472221842104
  0
HATCH
  5
207
330
1FF
100
AcDbEntity
  8
COTAS
 62
    18
420
        0
440
 33554687
100
AcDbHatch
 10
0.0
 20
0.0
 30
0.0
210
0.0
220
0.0
230
1.0
  2
SOLID
 70
     1
 71
     1
 91
        1
 92
        1
 93
        3
 72
     1
 10
132.2494710704793
 20
155.5443396428444
 11
133.4149429851901
 21
155.5443396428444
 72
     1
 10
133.4149429851901
 20
155.5443396428444
 11
132.8323657778307
 21
152.0472221842104
 72
     1
 10
132.8323657778307
 20
152.0472221842104
 11
132.2494710704793
 21
155.5443396428444
 97
        1
330
206
 75
     2
 76
     1
 98
        1
 10
0.0
 20
0.0
450
        0
451
        0
460
0.0
461
0.0
452
        0
462
0.0
453
        0
470

  0
LWPOLYLINE
  5
208
330
1FF
100
AcDbEntity
  8
COTAS
100
AcDbPolyline
 90
        3
 70
     1
 43
0.0
 10
132.2494710704793
 20
181.8552111938203
 10
133.4149429851901
 20
181.8552111938203
 10
132.8323657778307
 20
185.3523324934902
  0
HATCH
  5
209
330
1FF
100
AcDbEntity
  8
COTAS
 62
    18
420
        0
440
 33554687
100
AcDbHatch
 10
0.0
 20
0.0
 30
0.0
210
0.0
220
0.0
230
1.0
  2
SOLID
 70
     1
 71
     1
 91
        1
 92
        1
 93
        3
 72
     1
 10
132.2494710704793
 20
181.8552111938203
 11
133.4149429851901
 21
181.8552111938203
 72
     1
 10
133.4149429851901
 20
181.8552111938203
 11
132.8323657778307
 21
185.3523324934902
 72
     1
 10
132.8323657778307
 20
185.3523324934902
 11
132.2494710704793
 21
181.8552111938203
 97
        1
330
208
 75
     2
 76
     1
 98
        1
 10
0.0
 20
0.0
450
        0
451
        0
460
0.0
461
0.0
452
        0
462
0.0
453
        0
470

  0
MTEXT
  5
20A
330
1FF
100
AcDbEntity
  8
COTAS
100
AcDbMText
 10
131.7862555198049
 20
165.6513793299877
 30
0.0
 40
0.2
 41
0.0
 46
0.0
 71
     7
 72
     1
  1
\C18;\c0;\FArial Bold|b1|i0|c1;\H2.600735;\W1.000000;100
 11
0.0000000000000001
 21
1.0
 31
0.0
 73
     1
 44
1.0
  0
LINE
  5
20B
330
1FF
100
AcDbEntity
  8
COTAS
100
AcDbLine
 10
92.43620680842257
 20
152.0472221842104
 30
0.0
 11
92.43620680842257
 21
152.0472221842104
 31
0.0
  0
LINE
  5
20C
330
1FF
100
AcDbEntity
  8
COTAS
100
AcDbLine
 10
119.0802416842321
 20
185.3523324934902
 30
0.0
 11
119.0802416842321
 21
185.3523324934902
 31
0.0
  0
LINE
  5
20D
330
1FF
100
AcDbEntity
  8
COTAS
100
AcDbLine
 10
132.8323657778307
 20
185.3523324934902
 30
0.0
 11
132.8323657778307
 21
185.3523324934902
 31
0.0
  0
ENDBLK
  5
202
330
1FF
100
AcDbEntity
  8
0
100
AcDbBlockEnd
  0
BLOCK
  5
210
330
20E
100
AcDbEntity
  8
0
100
AcDbBlockBegin
  2
Block_4
 70
     0
 10
0.0
 20
0.0
 30
0.0
  3
Block_4
  1

  0
LINE
  5
212
330
20E
100
AcDbEntity
  8
COTAS
100
AcDbLine
 10
89.43865410711872
 20
152.0472221842104
 30
0.0
 11
107.5932683661781
 21
152.0472221842104
 31
0.0
  0
LINE
  5
213
330
20E
100
AcDbEntity
  8
COTAS
 62
    18
420
        0
370
     9
100
AcDbLine
 10
86.05572697120216
 20
141.132133066086
 30
0.0
 11
107.5932683661781
 21
141.132133066086
 31
0.0
  0
LINE
  5
214
330
20E
100
AcDbEntity
  8
COTAS
100
AcDbLine
 10
106.0942803488649
 20
148.550273432389
 30
0.0
 11
106.0942803488649
 21
144.6289015879871
 31
0.0
  0
LWPOLYLINE
  5
215
330
20E
100
AcDbEntity
  8
COTAS
100
AcDbPolyline
 90
        3
 70
     1
 43
0.0
 10
105.5117384192824
 20
155.5443396428444
 10
106.6772103339932
 20
155.5443396428444
 10
106.0942803488649
 20
152.0472221842104
  0
HATCH
  5
216
330
20E
100
AcDbEntity
  8
COTAS
 62
    18
420
        0
440
 33554687
100
AcDbHatch
 10
0.0
 20
0.0
 30
0.0
210
0.0
220
0.0
230
1.0
  2
SOLID
 70
     1
 71
     1
 91
        1
 92
        1
 93
        3
 72
     1
 10
105.5117384192824
 20
155.5443396428444
 11
106.6772103339932
 21
155.5443396428444
 72
     1
 10
106.6772103339932
 20
155.5443396428444
 11
106.0942803488649
 21
152.0472221842104
 72
     1
 10
106.0942803488649
 20
152.0472221842104
 11
105.5117384192824
 21
155.5443396428444
 97
        1
330
215
 75
     2
 76
     1
 98
        1
 10
0.0
 20
0.0
450
        0
451
        0
460
0.0
461
0.0
452
        0
462
0.0
453
        0
470

  0
LINE
  5
217
330
20E
100
AcDbEntity
  8
COTAS
100
AcDbLine
 10
106.0942803488649
 20
155.5443396428444
 30
0.0
 11
106.0942803488649
 21
159.0412845536299
 31
0.0
  0
LINE
  5
218
330
20E
100
AcDbEntity
  8
COTAS
100
AcDbLine
 10
106.0942803488649
 20
152.0472221842104
 30
0.0
 11
106.0942803488649
 21
148.550273432389
 31
0.0
  0
LWPOLYLINE
  5
219
330
20E
100
AcDbEntity
  8
COTAS
100
AcDbPolyline
 90
        3
 70
     1
 43
0.0
 10
105.5117384192824
 20
137.6350117664161
 10
106.6772103339932
 20
137.6350117664161
 10
106.0942803488649
 20
141.132133066086
  0
HATCH
  5
21A
330
20E
100
AcDbEntity
  8
COTAS
 62
    18
420
        0
440
 33554687
100
AcDbHatch
 10
0.0
 20
0.0
 30
0.0
210
0.0
220
0.0
230
1.0
  2
SOLID
 70
     1
 71
     1
 91
        1
 92
        1
 93
        3
 72
     1
 10
105.5117384192824
 20
137.6350117664161
 11
106.6772103339932
 21
137.6350117664161
 72
     1
 10
106.6772103339932
 20
137.6350117664161
 11
106.0942803488649
 21
141.132133066086
 72
     1
 10
106.0942803488649
 20
141.132133066086
 11
105.5117384192824
 21
137.6350117664161
 97
        1
330
219
 75
     2
 76
     1
 98
        1
 10
0.0
 20
0.0
450
        0
451
        0
460
0.0
461
0.0
452
        0
462
0.0
453
        0
470

  0
LINE
  5
21B
330
20E
100
AcDbEntity
  8
COTAS
100
AcDbLine
 10
106.0942803488649
 20
137.6350117664161
 30
0.0
 11
106.0942803488649
 21
134.1378904667462
 31
0.0
  0
LINE
  5
21C
330
20E
100
AcDbEntity
  8
COTAS
100
AcDbLine
 10
106.0942803488649
 20
141.132133066086
 30
0.0
 11
106.0942803488649
 21
144.6289015879871
 31
0.0
  0
MTEXT
  5
21D
330
20E
100
AcDbEntity
  8
COTAS
100
AcDbMText
 10
105.0533480829118
 20
139.6774264284951
 30
0.0
 40
0.2
 41
0.0
 46
0.0
 71
     7
 72
     1
  1
\C18;\c0;\FArial Bold|b1|i0|c1;\H2.600735;\W1.000000;max.45
 11
0.0000000000000001
 21
1.0
 31
0.0
 73
     1
 44
1.0
  0
LINE
  5
21E
330
20E
100
AcDbEntity
  8
COTAS
100
AcDbLine
 10
89.43865410711872
 20
152.0472221842104
 30
0.0
 11
89.43865410711872
 21
152.0472221842104
 31
0.0
  0
LINE
  5
21F
330
20E
100
AcDbEntity
  8
COTAS
 62
    18
420
        0
370
     9
100
AcDbLine
 10
86.05572697120216
 20
141.132133066086
 30
0.0
 11
86.05572697120216
 21
141.132133066086
 31
0.0
  0
LINE
  5
220
330
20E
100
AcDbEntity
  8
COTAS
100
AcDbLine
 10
106.0942803488649
 20
141.132133066086
 30
0.0
 11
106.0942803488649
 21
141.132133066086
 31
0.0
  0
ENDBLK
  5
211
330
20E
100
AcDbEntity
  8
0
100
AcDbBlockEnd
  0
BLOCK
  5
223
330
221
100
AcDbEntity
  8
0
100
AcDbBlockBegin
  2
Block_5
 70
     0
 10
0.0
 20
0.0
 30
0.0
  3
Block_5
  1

  0
LINE
  5
225
330
221
100
AcDbEntity
  8
COTAS
100
AcDbLine
 10
72.45311009601161
 20
152.0472221842104
 30
0.0
 11
57.42283686835471
 21
152.0472221842104
 31
0.0
  0
LINE
  5
226
330
221
100
AcDbEntity
  8
COTAS
100
AcDbLine
 10
78.51683077464653
 20
98.29443443674451
 30
0.0
 11
57.42283686835471
 21
98.29443443674451
 31
0.0
  0
LINE
  5
227
330
221
100
AcDbEntity
  8
COTAS
100
AcDbLine
 10
58.92164998526957
 20
148.550273432389
 30
0.0
 11
58.92164998526957
 21
101.7915583078853
 31
0.0
  0
LWPOLYLINE
  5
228
330
221
100
AcDbEntity
  8
COTAS
100
AcDbPolyline
 90
        3
 70
     1
 43
0.0
 10
58.33871851165561
 20
148.550273432389
 10
59.50436681525046
 20
148.550273432389
 10
58.92164998526957
 20
152.0472221842104
  0
HATCH
  5
229
330
221
100
AcDbEntity
  8
COTAS
 62
    18
420
        0
440
 33554687
100
AcDbHatch
 10
0.0
 20
0.0
 30
0.0
210
0.0
220
0.0
230
1.0
  2
SOLID
 70
     1
 71
     1
 91
        1
 92
        1
 93
        3
 72
     1
 10
58.33871851165561
 20
148.550273432389
 11
59.50436681525046
 21
148.550273432389
 72
     1
 10
59.50436681525046
 20
148.550273432389
 11
58.92164998526957
 21
152.0472221842104
 72
     1
 10
58.92164998526957
 20
152.0472221842104
 11
58.33871851165561
 21
148.550273432389
 97
        1
330
228
 75
     2
 76
     1
 98
        1
 10
0.0
 20
0.0
450
        0
451
        0
460
0.0
461
0.0
452
        0
462
0.0
453
        0
470

  0
LWPOLYLINE
  5
22A
330
221
100
AcDbEntity
  8
COTAS
100
AcDbPolyline
 90
        3
 70
     1
 43
0.0
 10
58.33871851165561
 20
101.7915583078853
 10
59.50436681525046
 20
101.7915583078853
 10
58.92164998526957
 20
98.29443443674451
  0
HATCH
  5
22B
330
221
100
AcDbEntity
  8
COTAS
 62
    18
420
        0
440
 33554687
100
AcDbHatch
 10
0.0
 20
0.0
 30
0.0
210
0.0
220
0.0
230
1.0
  2
SOLID
 70
     1
 71
     1
 91
        1
 92
        1
 93
        3
 72
     1
 10
58.33871851165561
 20
101.7915583078853
 11
59.50436681525046
 21
101.7915583078853
 72
     1
 10
59.50436681525046
 20
101.7915583078853
 11
58.92164998526957
 21
98.29443443674451
 72
     1
 10
58.92164998526957
 20
98.29443443674451
 11
58.33871851165561
 21
101.7915583078853
 97
        1
330
22A
 75
     2
 76
     1
 98
        1
 10
0.0
 20
0.0
450
        0
451
        0
460
0.0
461
0.0
452
        0
462
0.0
453
        0
470

  0
MTEXT
  5
22C
330
221
100
AcDbEntity
  8
COTAS
100
AcDbMText
 10
57.87310992196378
 20
122.2369750439663
 30
0.0
 40
0.2
 41
0.0
 46
0.0
 71
     7
 72
     1
  1
\C18;\c0;\FArial Bold|b1|i0|c1;\H2.600735;\W1.000000;370
 11
0.0000000000000001
 21
1.0
 31
0.0
 73
     1
 44
1.0
  0
LINE
  5
22D
330
221
100
AcDbEntity
  8
COTAS
100
AcDbLine
 10
72.45311009601161
 20
152.0472221842104
 30
0.0
 11
72.45311009601161
 21
152.0472221842104
 31
0.0
  0
LINE
  5
22E
330
221
100
AcDbEntity
  8
COTAS
100
AcDbLine
 10
78.51683077464653
 20
98.29443443674451
 30
0.0
 11
78.51683077464653
 21
98.29443443674451
 31
0.0
  0
LINE
  5
22F
330
221
100
AcDbEntity
  8
COTAS
100
AcDbLine
 10
58.92164998526957
 20
98.29443443674451
 30
0.0
 11
58.92164998526957
 21
98.29443443674451
 31
0.0
  0
ENDBLK
  5
224
330
221
100
AcDbEntity
  8
0
100
AcDbBlockEnd
  0
BLOCK
  5
232
330
230
100
AcDbEntity
  8
0
100
AcDbBlockBegin
  2
Block_6
 70
     0
 10
0.0
 20
0.0
 30
0.0
  3
Block_6
  1

  0
LINE
  5
234
330
230
100
AcDbEntity
  8
COTAS
100
AcDbLine
 10
78.51683077464653
 20
98.46083971027693
 30
0.0
 11
78.51683077464653
 21
80.13188267788757
 31
0.0
  0
LINE
  5
235
330
230
100
AcDbEntity
  8
COTAS
100
AcDbLine
 10
85.50691059631475
 20
98.46083971027693
 30
0.0
 11
85.50691059631475
 21
80.13188267788757
 31
0.0
  0
LINE
  5
236
330
230
100
AcDbEntity
  8
COTAS
100
AcDbLine
 10
89.00385550710025
 20
81.63083541742388
 30
0.0
 11
92.50097680677013
 21
81.63083541742388
 31
0.0
  0
LINE
  5
237
330
230
100
AcDbEntity
  8
COTAS
100
AcDbLine
 10
75.01988586386103
 20
81.63083541742388
 30
0.0
 11
61.35267537920729
 21
81.63083541742388
 31
0.0
  0
LWPOLYLINE
  5
238
330
230
100
AcDbEntity
  8
COTAS
100
AcDbPolyline
 90
        3
 70
     1
 43
0.0
 10
89.00385550710025
 20
82.21341262478333
 10
89.00385550710025
 20
81.04794071007255
 10
85.50691059631475
 20
81.63083541742388
  0
HATCH
  5
239
330
230
100
AcDbEntity
  8
COTAS
 62
    18
420
        0
440
 33554687
100
AcDbHatch
 10
0.0
 20
0.0
 30
0.0
210
0.0
220
0.0
230
1.0
  2
SOLID
 70
     1
 71
     1
 91
        1
 92
        1
 93
        3
 72
     1
 10
89.00385550710025
 20
82.21341262478333
 11
89.00385550710025
 21
81.04794071007255
 72
     1
 10
89.00385550710025
 20
81.04794071007255
 11
85.50691059631475
 21
81.63083541742388
 72
     1
 10
85.50691059631475
 20
81.63083541742388
 11
89.00385550710025
 21
82.21341262478333
 97
        1
330
238
 75
     2
 76
     1
 98
        1
 10
0.0
 20
0.0
450
        0
451
        0
460
0.0
461
0.0
452
        0
462
0.0
453
        0
470

  0
LWPOLYLINE
  5
23A
330
230
100
AcDbEntity
  8
COTAS
100
AcDbPolyline
 90
        3
 70
     1
 43
0.0
 10
75.01988586386103
 20
82.21341262478333
 10
75.01988586386103
 20
81.04794071007255
 10
78.51683077464653
 20
81.63083541742388
  0
HATCH
  5
23B
330
230
100
AcDbEntity
  8
COTAS
 62
    18
420
        0
440
 33554687
100
AcDbHatch
 10
0.0
 20
0.0
 30
0.0
210
0.0
220
0.0
230
1.0
  2
SOLID
 70
     1
 71
     1
 91
        1
 92
        1
 93
        3
 72
     1
 10
75.01988586386103
 20
82.21341262478333
 11
75.01988586386103
 21
81.04794071007255
 72
     1
 10
75.01988586386103
 20
81.04794071007255
 11
78.51683077464653
 21
81.63083541742388
 72
     1
 10
78.51683077464653
 20
81.63083541742388
 11
75.01988586386103
 21
82.21341262478333
 97
        1
330
23A
 75
     2
 76
     1
 98
        1
 10
0.0
 20
0.0
450
        0
451
        0
460
0.0
461
0.0
452
        0
462
0.0
453
        0
470

  0
MTEXT
  5
23C
330
230
100
AcDbEntity
  8
COTAS
100
AcDbMText
 10
62.0433980068587
 20
82.69538023065026
 30
0.0
 40
0.2
 41
0.0
 46
0.0
 71
     7
 72
     1
  1
\C18;\c0;\FArial Bold|b1|i0|c1;\H2.600735;\W1.000000;R3/8"
 73
     1
 44
1.0
  0
LINE
  5
23D
330
230
100
AcDbEntity
  8
COTAS
100
AcDbLine
 10
78.51683077464653
 20
98.46083971027693
 30
0.0
 11
78.51683077464653
 21
98.46083971027693
 31
0.0
  0
LINE
  5
23E
330
230
100
AcDbEntity
  8
COTAS
100
AcDbLine
 10
85.50691059631475
 20
98.46083971027693
 30
0.0
 11
85.50691059631475
 21
98.46083971027693
 31
0.0
  0
LINE
  5
23F
330
230
100
AcDbEntity
  8
COTAS
100
AcDbLine
 10
85.50691059631475
 20
81.63083541742388
 30
0.0
 11
85.50691059631475
 21
81.63083541742388
 31
0.0
  0
ENDBLK
  5
233
330
230
100
AcDbEntity
  8
0
100
AcDbBlockEnd
  0
ENDSEC
  0
SECTION
  2
ENTITIES
  0
INSERT
  5
7A
330
70
100
AcDbEntity
  8
CAJETIN
100
AcDbBlockReference
  2
Block_0
 10
0.0
 20
0.0
 30
0.0
  0
LINE
  5
81
330
70
100
AcDbEntity
  8
PIEZA
 62
    18
420
        0
370
     9
100
AcDbLine
 10
92.43620680842257
 20
152.0472221842104
 30
0.0
 11
72.45311009601161
 21
152.0472221842104
 31
0.0
  0
LINE
  5
82
330
70
100
AcDbEntity
  8
PIEZA
 62
    18
420
        0
370
     9
100
AcDbLine
 10
72.45311009601161
 20
152.0472221842104
 30
0.0
 11
72.45311009601161
 21
152.9436305173197
 31
0.0
  0
LINE
  5
83
330
70
100
AcDbEntity
  8
PIEZA
 62
    18
420
        0
370
     9
100
AcDbLine
 10
92.43620680842257
 20
152.0472221842104
 30
0.0
 11
92.43620680842257
 21
152.9563619310914
 31
0.0
  0
LINE
  5
84
330
70
100
AcDbEntity
  8
PIEZA
 62
    18
420
        0
370
     9
100
AcDbLine
 10
75.28203502383973
 20
156.3074332344873
 30
0.0
 11
76.2900974981219
 21
168.3180698725149
 31
0.0
  0
LINE
  5
85
330
70
100
AcDbEntity
  8
PIEZA
 62
    18
420
        0
370
     9
100
AcDbLine
 10
91.82851182392615
 20
153.3794483091865
 30
0.0
 11
73.08027841334454
 21
153.3794483091865
 31
0.0
  0
SPLINE
  5
86
330
70
100
AcDbEntity
  8
PIEZA
 62
    18
420
        0
370
     9
100
AcDbSpline
210
0.0
220
0.0
230
1.0
 70
     8
 71
     3
 72
     8
 73
     4
 74
     0
 42
0.0000000001
 43
0.0000000001
 40
0.0
 40
0.0
 40
0.0
 40
0.0
 40
1.0
 40
1.0
 40
1.0
 40
1.0
 10
72.82776008645349
 20
153.5425727494693
 30
0.0
 10
73.8640447822379
 20
153.9733888503955
 30
0.0
 10
74.97734086494677
 20
155.2272277064902
 30
0.0
 10
75.28203502383973
 20
156.3074332344873
 30
0.0
  0
SPLINE
  5
87
330
70
100
AcDbEntity
  8
PIEZA
 62
    18
420
        0
370
     9
100
AcDbSpline
210
0.0
220
0.0
230
1.0
 70
     8
 71
     3
 72
     8
 73
     4
 74
     0
 42
0.0000000001
 43
0.0000000001
 40
0.0
 40
0.0
 40
0.0
 40
0.0
 40
1.0
 40
1.0
 40
1.0
 40
1.0
 10
90.25011353086112
 20
155.450641867457
 30
0.0
 10
90.53935831069848
 20
154.737858294649
 30
0.0
 10
91.37960211315657
 20
153.8632830190651
 30
0.0
 10
92.08014820639526
 20
153.5458221838356
 30
0.0
  0
SPLINE
  5
88
330
70
100
AcDbEntity
  8
PIEZA
 62
    18
420
        0
370
     9
100
AcDbSpline
210
0.0
220
0.0
230
1.0
 70
     8
 71
     3
 72
     8
 73
     4
 74
     0
 42
0.0000000001
 43
0.0000000001
 40
0.0
 40
0.0
 40
0.0
 40
0.0
 40
1.0
 40
1.0
 40
1.0
 40
1.0
 10
90.73225490744956
 20
161.1944636653647
 30
0.0
 10
90.04617497748839
 20
159.6963575924731
 30
0.0
 10
89.82346409730141
 20
157.0419165490825
 30
0.0
 10
90.25011353086112
 20
155.450641867457
 30
0.0
  0
LINE
  5
89
330
70
100
AcDbEntity
  8
PIEZA
 62
    18
420
        0
370
     9
100
AcDbLine
 10
122.4137093769661
 20
187.238176612045
 30
0.0
 11
115.7467739914982
 21
183.4663166208
 31
0.0
  0
LINE
  5
8A
330
70
100
AcDbEntity
  8
PIEZA
 62
    18
420
        0
370
     9
100
AcDbLine
 10
122.5198249298144
 20
190.7569937444947
 30
0.0
 11
112.6768312920412
 21
185.1587280539851
 31
0.0
  0
LINE
  5
8B
330
70
100
AcDbEntity
  8
PIEZA
 62
    18
420
        0
370
     9
100
AcDbLine
 10
122.476080486486
 20
187.4653654951378
 30
0.0
 11
121.0766816332987
 21
189.9260305080739
 31
0.0
  0
LINE
  5
8C
330
70
100
AcDbEntity
  8
PIEZA
 62
    18
420
        0
370
     9
100
AcDbLine
 10
115.5197262195129
 20
183.5286830955709
 30
0.0
 11
114.1203273663256
 21
185.9895196994564
 31
0.0
  0
LINE
  5
8D
330
70
100
AcDbEntity
  8
PIEZA
 62
    18
420
        0
370
     9
100
AcDbLine
 10
122.5821960393343
 20
190.9840415164801
 30
0.0
 11
122.4998577081016
 21
191.1288920683402
 31
0.0
  0
LINE
  5
8E
330
70
100
AcDbEntity
  8
PIEZA
 62
    18
420
        0
370
     9
100
AcDbLine
 10
112.4498187978328
 20
185.2212402746125
 30
0.0
 11
112.3674833052417
 21
185.3659497153651
 31
0.0
  0
SPLINE
  5
8F
330
70
100
AcDbEntity
  8
PIEZA
 62
    18
420
        0
370
     9
100
AcDbSpline
210
0.0
220
0.0
230
1.0
 70
     8
 71
     3
 72
     8
 73
     4
 74
     0
 42
0.0000000001
 43
0.0000000001
 40
0.0
 40
0.0
 40
0.0
 40
0.0
 40
1.0
 40
1.0
 40
1.0
 40
1.0
 10
122.4998577081016
 20
191.1288920683402
 30
0.0
 10
121.9827207768504
 20
191.9672684358403
 30
0.0
 10
120.7435183084651
 20
193.042993686174
 30
0.0
 10
119.8405836092786
 20
193.4371170094524
 30
0.0
  0
SPLINE
  5
90
330
70
100
AcDbEntity
  8
PIEZA
 62
    18
420
        0
370
     9
100
AcDbSpline
210
0.0
220
0.0
230
1.0
 70
     8
 71
     3
 72
     8
 73
     4
 74
     0
 42
0.0000000001
 43
0.0000000001
 40
0.0
 40
0.0
 40
0.0
 40
0.0
 40
1.0
 40
1.0
 40
1.0
 40
1.0
 10
119.8405836092786
 20
193.4371170094524
 30
0.0
 10
117.5698971928298
 20
195.6705530635838
 30
0.0
 10
112.8676840649499
 20
197.9588107829833
 30
0.0
 10
109.7092294233066
 20
198.367574383666
 30
0.0
  0
SPLINE
  5
91
330
70
100
AcDbEntity
  8
PIEZA
 62
    18
420
        0
370
     9
100
AcDbSpline
210
0.0
220
0.0
230
1.0
 70
     8
 71
     3
 72
     8
 73
     4
 74
     0
 42
0.0000000001
 43
0.0000000001
 40
0.0
 40
0.0
 40
0.0
 40
0.0
 40
1.0
 40
1.0
 40
1.0
 40
1.0
 10
105.6953592479312
 20
198.5003599358339
 30
0.0
 10
90.41016880455554
 20
197.0565110837807
 30
0.0
 10
77.3348135825801
 20
183.6358217039488
 30
0.0
 10
76.2900974981219
 20
168.3180698725149
 30
0.0
  0
SPLINE
  5
92
330
70
100
AcDbEntity
  8
PIEZA
 62
    18
420
        0
370
     9
100
AcDbSpline
210
0.0
220
0.0
230
1.0
 70
     8
 71
     3
 72
     8
 73
     4
 74
     0
 42
0.0000000001
 43
0.0000000001
 40
0.0
 40
0.0
 40
0.0
 40
0.0
 40
1.0
 40
1.0
 40
1.0
 40
1.0
 10
111.6398763184961
 20
187.8026610641605
 30
0.0
 10
111.7470149268739
 20
187.1510052253801
 30
0.0
 10
112.0997926956516
 20
185.9696935888512
 30
0.0
 10
112.3674833052417
 20
185.3659497153651
 30
0.0
  0
SPLINE
  5
93
330
70
100
AcDbEntity
  8
PIEZA
 62
    18
420
        0
370
     9
100
AcDbSpline
210
0.0
220
0.0
230
1.0
 70
     8
 71
     3
 72
     8
 73
     4
 74
     0
 42
0.0000000001
 43
0.0000000001
 40
0.0
 40
0.0
 40
0.0
 40
0.0
 40
1.0
 40
1.0
 40
1.0
 40
1.0
 10
104.9486345447595
 20
191.8863059379058
 30
0.0
 10
98.97861164151192
 20
190.6774070798585
 30
0.0
 10
93.33296789665538
 20
184.8815505610564
 30
0.0
 10
92.28119625682166
 20
178.8819296030084
 30
0.0
  0
SPLINE
  5
94
330
70
100
AcDbEntity
  8
PIEZA
 62
    18
420
        0
370
     9
100
AcDbSpline
210
0.0
220
0.0
230
1.0
 70
     8
 71
     3
 72
   104
 73
   100
 74
     0
 42
0.0000000001
 43
0.0000000001
 40
0.0
 40
0.0
 40
0.0
 40
0.0
 40
1.0
 40
1.0
 40
1.0
 40
2.0
 40
2.0
 40
2.0
 40
3.0
 40
3.0
 40
3.0
 40
4.0
 40
4.0
 40
4.0
 40
5.0
 40
5.0
 40
5.0
 40
6.0
 40
6.0
 40
6.0
 40
7.0
 40
7.0
 40
7.0
 40
8.0
 40
8.0
 40
8.0
 40
9.0
 40
9.0
 40
9.0
 40
10.0
 40
10.0
 40
10.0
 40
11.0
 40
11.0
 40
11.0
 40
12.0
 40
12.0
 40
12.0
 40
13.0
 40
13.0
 40
13.0
 40
14.0
 40
14.0
 40
14.0
 40
15.0
 40
15.0
 40
15.0
 40
16.0
 40
16.0
 40
16.0
 40
17.0
 40
17.0
 40
17.0
 40
18.0
 40
18.0
 40
18.0
 40
19.0
 40
19.0
 40
19.0
 40
20.0
 40
20.0
 40
20.0
 40
21.0
 40
21.0
 40
21.0
 40
22.0
 40
22.0
 40
22.0
 40
23.0
 40
23.0
 40
23.0
 40
24.0
 40
24.0
 40
24.0
 40
25.0
 40
25.0
 40
25.0
 40
26.0
 40
26.0
 40
26.0
 40
27.0
 40
27.0
 40
27.0
 40
28.0
 40
28.0
 40
28.0
 40
29.0
 40
29.0
 40
29.0
 40
30.0
 40
30.0
 40
30.0
 40
31.0
 40
31.0
 40
31.0
 40
32.0
 40
32.0
 40
32.0
 40
33.0
 40
33.0
 40
33.0
 40
33.0
 10
94.8920692457683
 20
174.5335202695011
 30
0.0
 10
94.95973202181984
 20
174.4630749563843
 30
0.0
 10
95.03191035331175
 20
174.3971055119564
 30
0.0
 10
95.10839257358307
 20
174.3364586078619
 30
0.0
 10
95.10839257358307
 20
174.3364586078619
 30
0.0
 10
95.10839257358307
 20
174.3364586078619
 30
0.0
 10
95.10839257358307
 20
174.3364586078619
 30
0.0
 10
95.26499062514316
 20
174.2122808332522
 30
0.0
 10
95.43827506516675
 20
174.1102971786947
 30
0.0
 10
95.62517672706517
 20
174.0372721787128
 30
0.0
 10
95.62517672706517
 20
174.0372721787128
 30
0.0
 10
95.62517672706517
 20
174.0372721787128
 30
0.0
 10
95.62517672706517
 20
174.0372721787128
 30
0.0
 10
95.81190200007918
 20
173.9642471787313
 30
0.0
 10
96.00914005060278
 20
173.9211686184568
 30
0.0
 10
96.20927087883035
 20
173.9116832898554
 30
0.0
 10
96.20927087883035
 20
173.9116832898554
 30
0.0
 10
96.20927087883035
 20
173.9116832898554
 30
0.0
 10
96.20927087883035
 20
173.9116832898554
 30
0.0
 10
96.34382031984216
 20
173.905333289857
 30
0.0
 10
96.4795692052678
 20
173.9142894519657
 30
0.0
 10
96.6125311463201
 20
173.9389133402264
 30
0.0
 10
96.6125311463201
 20
173.9389133402264
 30
0.0
 10
96.6125311463201
 20
173.9389133402264
 30
0.0
 10
96.6125311463201
 20
173.9389133402264
 30
0.0
 10
96.77840725319937
 20
173.9697461172175
 30
0.0
 10
96.93895641577007
 20
174.0243561158246
 30
0.0
 10
97.0891691897156
 20
174.1003091694422
 30
0.0
 10
97.0891691897156
 20
174.1003091694422
 30
0.0
 10
97.0891691897156
 20
174.1003091694422
 30
0.0
 10
97.0891691897156
 20
174.1003091694422
 30
0.0
 10
97.33512585010739
 20
174.2248397218207
 30
0.0
 10
97.54908556687137
 20
174.4052194008433
 30
0.0
 10
97.71926556252941
 20
174.6213619339268
 30
0.0
 10
97.71926556252941
 20
174.6213619339268
 30
0.0
 10
97.71926556252941
 20
174.6213619339268
 30
0.0
 10
97.71926556252941
 20
174.6213619339268
 30
0.0
 10
97.88926916930336
 20
174.8375441506337
 30
0.0
 10
98.01401386438541
 20
175.0866405331676
 30
0.0
 10
98.09236333078866
 20
175.3515766375197
 30
0.0
 10
98.09236333078866
 20
175.3515766375197
 30
0.0
 10
98.09236333078866
 20
175.3515766375197
 30
0.0
 10
98.09236333078866
 20
175.3515766375197
 30
0.0
 10
98.17075055101106
 20
175.6164774640948
 30
0.0
 10
98.20211249465538
 20
175.8953835680904
 30
0.0
 10
98.18831888389619
 20
176.1732313387797
 30
0.0
 10
98.18831888389619
 20
176.1732313387797
 30
0.0
 10
98.18831888389619
 20
176.1732313387797
 30
0.0
 10
98.18831888389619
 20
176.1732313387797
 30
0.0
 10
98.17438416202946
 20
176.451079109469
 30
0.0
 10
98.11494110799044
 20
176.7266691024381
 30
0.0
 10
98.01312944392119
 20
176.9853963180597
 30
0.0
 10
98.01312944392119
 20
176.9853963180597
 30
0.0
 10
98.01312944392119
 20
176.9853963180597
 30
0.0
 10
98.01312944392119
 20
176.9853963180597
 30
0.0
 10
97.91149416873635
 20
177.2439471447968
 30
0.0
 10
97.76731389463691
 20
177.4846166222954
 30
0.0
 10
97.58595084370831
 20
177.6923276889132
 30
0.0
 10
97.58595084370831
 20
177.6923276889132
 30
0.0
 10
97.58595084370831
 20
177.6923276889132
 30
0.0
 10
97.58595084370831
 20
177.6923276889132
 30
0.0
 10
97.40472890388723
 20
177.899902128062
 30
0.0
 10
97.18597140946819
 20
178.0735393458544
 30
0.0
 10
96.94051108687611
 20
178.1963412871659
 30
0.0
 10
96.94051108687611
 20
178.1963412871659
 30
0.0
 10
96.94051108687611
 20
178.1963412871659
 30
0.0
 10
96.94051108687611
 20
178.1963412871659
 30
0.0
 10
96.6950458664372
 20
178.3191785062543
 30
0.0
 10
96.42287781782522
 20
178.3896282266792
 30
0.0
 10
96.14728782485611
 20
178.3951360665123
 30
0.0
 10
96.14728782485611
 20
178.3951360665123
 30
0.0
 10
96.14728782485611
 20
178.3951360665123
 30
0.0
 10
96.14728782485611
 20
178.3951360665123
 30
0.0
 10
95.9846572734496
 20
178.3984123931217
 30
0.0
 10
95.82118005539802
 20
178.378409893632
 30
0.0
 10
95.66426450384573
 20
178.3370996169085
 30
0.0
 10
95.66426450384573
 20
178.3370996169085
 30
0.0
 10
95.66426450384573
 20
178.3370996169085
 30
0.0
 10
95.66426450384573
 20
178.3370996169085
 30
0.0
 10
95.50752775390074
 20
178.295577673523
 30
0.0
 10
95.35593673393405
 20
178.2323598973581
 30
0.0
 10
95.21588395972932
 20
178.149845177241
 30
0.0
 10
95.21588395972932
 20
178.149845177241
 30
0.0
 10
95.21588395972932
 20
178.149845177241
 30
0.0
 10
95.21588395972932
 20
178.149845177241
 30
0.0
 10
95.07583118552458
 20
178.0673304571239
 30
0.0
 10
94.94787868878892
 20
177.966577126361
 30
0.0
 10
94.83417841391187
 20
177.8515055110926
 30
0.0
 10
94.83417841391187
 20
177.8515055110926
 30
0.0
 10
94.83417841391187
 20
177.8515055110926
 30
0.0
 10
94.83417841391187
 20
177.8515055110926
 30
0.0
 10
94.68498869549581
 20
177.7007943553639
 30
0.0
 10
94.56045814311728
 20
177.5250757487358
 30
0.0
 10
94.46432620112537
 20
177.3355988091253
 30
0.0
 10
94.46432620112537
 20
177.3355988091253
 30
0.0
 10
94.46432620112537
 20
177.3355988091253
 30
0.0
 10
94.46432620112537
 20
177.3355988091253
 30
0.0
 10
94.45296675697072
 20
177.3131974208079
 30
0.0
 10
94.44213886527837
 20
177.2907960324905
 30
0.0
 10
94.43162370195969
 20
177.2680771441812
 30
0.0
  0
SPLINE
  5
95
330
70
100
AcDbEntity
  8
PIEZA
 62
    18
420
        0
370
     9
100
AcDbSpline
210
0.0
220
0.0
230
1.0
 70
     8
 71
     3
 72
   104
 73
   100
 74
     0
 42
0.0000000001
 43
0.0000000001
 40
0.0
 40
0.0
 40
0.0
 40
0.0
 40
1.0
 40
1.0
 40
1.0
 40
2.0
 40
2.0
 40
2.0
 40
3.0
 40
3.0
 40
3.0
 40
4.0
 40
4.0
 40
4.0
 40
5.0
 40
5.0
 40
5.0
 40
6.0
 40
6.0
 40
6.0
 40
7.0
 40
7.0
 40
7.0
 40
8.0
 40
8.0
 40
8.0
 40
9.0
 40
9.0
 40
9.0
 40
10.0
 40
10.0
 40
10.0
 40
11.0
 40
11.0
 40
11.0
 40
12.0
 40
12.0
 40
12.0
 40
13.0
 40
13.0
 40
13.0
 40
14.0
 40
14.0
 40
14.0
 40
15.0
 40
15.0
 40
15.0
 40
16.0
 40
16.0
 40
16.0
 40
17.0
 40
17.0
 40
17.0
 40
18.0
 40
18.0
 40
18.0
 40
19.0
 40
19.0
 40
19.0
 40
20.0
 40
20.0
 40
20.0
 40
21.0
 40
21.0
 40
21.0
 40
22.0
 40
22.0
 40
22.0
 40
23.0
 40
23.0
 40
23.0
 40
24.0
 40
24.0
 40
24.0
 40
25.0
 40
25.0
 40
25.0
 40
26.0
 40
26.0
 40
26.0
 40
27.0
 40
27.0
 40
27.0
 40
28.0
 40
28.0
 40
28.0
 40
29.0
 40
29.0
 40
29.0
 40
30.0
 40
30.0
 40
30.0
 40
31.0
 40
31.0
 40
31.0
 40
32.0
 40
32.0
 40
32.0
 40
33.0
 40
33.0
 40
33.0
 40
33.0
 10
84.12458618713634
 20
178.2409721776619
 30
0.0
 10
84.02778609010427
 20
178.2271740641571
 30
0.0
 10
83.93027619209361
 20
178.2196246199052
 30
0.0
 10
83.83276841680345
 20
178.2189190643677
 30
0.0
 10
83.83276841680345
 20
178.2189190643677
 30
0.0
 10
83.83276841680345
 20
178.2189190643677
 30
0.0
 10
83.83276841680345
 20
178.2189190643677
 30
0.0
 10
83.6327786996834
 20
178.2175432310694
 30
0.0
 10
83.43349453810089
 20
178.2438957303971
 30
0.0
 10
83.2414444236341
 20
178.3012573956004
 30
0.0
 10
83.2414444236341
 20
178.3012573956004
 30
0.0
 10
83.2414444236341
 20
178.3012573956004
 30
0.0
 10
83.2414444236341
 20
178.3012573956004
 30
0.0
 10
83.04918053479324
 20
178.3586190608039
 30
0.0
 10
82.86710983032834
 20
178.4462888442774
 30
0.0
 10
82.70363261227677
 20
178.5620660000577
 30
0.0
 10
82.70363261227677
 20
178.5620660000577
 30
0.0
 10
82.70363261227677
 20
178.5620660000577
 30
0.0
 10
82.70363261227677
 20
178.5620660000577
 30
0.0
 10
82.59374442379593
 20
178.6397476647425
 30
0.0
 10
82.49245983988647
 20
178.730517384649
 30
0.0
 10
82.40271317550941
 20
178.8317998820651
 30
0.0
 10
82.40271317550941
 20
178.8317998820651
 30
0.0
 10
82.40271317550941
 20
178.8317998820651
 30
0.0
 10
82.40271317550941
 20
178.8317998820651
 30
0.0
 10
82.29091790058378
 20
178.9580590455106
 30
0.0
 10
82.1980667918415
 20
179.1000168196668
 30
0.0
 10
82.12659401588714
 20
179.2524520935556
 30
0.0
 10
82.12659401588714
 20
179.2524520935556
 30
0.0
 10
82.12659401588714
 20
179.2524520935556
 30
0.0
 10
82.12659401588714
 20
179.2524520935556
 30
0.0
 10
82.00947179665297
 20
179.5018659760814
 30
0.0
 10
81.95175735368094
 20
179.7757626357604
 30
0.0
 10
81.95073429815147
 20
180.0508587398532
 30
0.0
 10
81.95073429815147
 20
180.0508587398532
 30
0.0
 10
81.95073429815147
 20
180.0508587398532
 30
0.0
 10
81.95073429815147
 20
180.0508587398532
 30
0.0
 10
81.94967596484515
 20
180.3259548439461
 30
0.0
 10
82.00499151898949
 20
180.5989695592031
 30
0.0
 10
82.10627401640588
 20
180.8559681637576
 30
0.0
 10
82.10627401640588
 20
180.8559681637576
 30
0.0
 10
82.10627401640588
 20
180.8559681637576
 30
0.0
 10
82.10627401640588
 20
180.8559681637576
 30
0.0
 10
82.20755651382161
 20
181.1129667683121
 30
0.0
 10
82.35466484340191
 20
181.3522206510972
 30
0.0
 10
82.53655706098367
 20
181.5625467568424
 30
0.0
 10
82.53655706098367
 20
181.5625467568424
 30
0.0
 10
82.53655706098367
 20
181.5625467568424
 30
0.0
 10
82.53655706098367
 20
181.5625467568424
 30
0.0
 10
82.71862775709815
 20
181.7728728625876
 30
0.0
 10
82.93516066192555
 20
181.9535656357555
 30
0.0
 10
83.17441664587322
 20
182.0946414654898
 30
0.0
 10
83.17441664587322
 20
182.0946414654898
 30
0.0
 10
83.17441664587322
 20
182.0946414654898
 30
0.0
 10
83.17441664587322
 20
182.0946414654898
 30
0.0
 10
83.41384481637998
 20
182.2358936841084
 30
0.0
 10
83.67567647636676
 20
182.3368586815325
 30
0.0
 10
83.94646869168049
 20
182.3886817357659
 30
0.0
 10
83.94646869168049
 20
182.3886817357659
 30
0.0
 10
83.94646869168049
 20
182.3886817357659
 30
0.0
 10
83.94646869168049
 20
182.3886817357659
 30
0.0
 10
84.21708451810983
 20
182.4407164566607
 30
0.0
 10
84.49630812209736
 20
182.4429389566039
 30
0.0
 10
84.7653717263441
 20
182.3885053468815
 30
0.0
 10
84.7653717263441
 20
182.3885053468815
 30
0.0
 10
84.7653717263441
 20
182.3885053468815
 30
0.0
 10
84.7653717263441
 20
182.3885053468815
 30
0.0
 10
85.03461386763012
 20
182.3342527321942
 30
0.0
 10
85.29210421290603
 20
182.222135351126
 30
0.0
 10
85.51276670727645
 20
182.056753133123
 30
0.0
 10
85.51276670727645
 20
182.056753133123
 30
0.0
 10
85.51276670727645
 20
182.056753133123
 30
0.0
 10
85.51276670727645
 20
182.056753133123
 30
0.0
 10
85.64301225950918
 20
181.9592499545102
 30
0.0
 10
85.75960531209018
 20
181.8429698052438
 30
0.0
 10
85.85764442298012
 20
181.7137825863174
 30
0.0
 10
85.85764442298012
 20
181.7137825863174
 30
0.0
 10
85.85764442298012
 20
181.7137825863174
 30
0.0
 10
85.85764442298012
 20
181.7137825863174
 30
0.0
 10
85.95582030708433
 20
181.5844189785066
 30
0.0
 10
86.03625363836563
 20
181.4414734265979
 30
0.0
 10
86.09587308128906
 20
181.2902375971229
 30
0.0
 10
86.09587308128906
 20
181.2902375971229
 30
0.0
 10
86.09587308128906
 20
181.2902375971229
 30
0.0
 10
86.09587308128906
 20
181.2902375971229
 30
0.0
 10
86.15545724643562
 20
181.1389664898711
 30
0.0
 10
86.19405113433989
 20
180.9806751050205
 30
0.0
 10
86.21299530052324
 20
180.8199495535654
 30
0.0
 10
86.21299530052324
 20
180.8199495535654
 30
0.0
 10
86.21299530052324
 20
180.8199495535654
 30
0.0
 10
86.21299530052324
 20
180.8199495535654
 30
0.0
 10
86.23761918878392
 20
180.6094823367127
 30
0.0
 10
86.22763557792753
 20
180.3943277326793
 30
0.0
 10
86.18664280119556
 20
180.1859020697413
 30
0.0
 10
86.18664280119556
 20
180.1859020697413
 30
0.0
 10
86.18664280119556
 20
180.1859020697413
 30
0.0
 10
86.18664280119556
 20
180.1859020697413
 30
0.0
 10
86.18180974576331
 20
180.1612781814806
 30
0.0
 10
86.17665919033916
 20
180.1367999549657
 30
0.0
 10
86.17097946826183
 20
180.1125242938356
 30
0.0
  0
SPLINE
  5
96
330
70
100
AcDbEntity
  8
PIEZA
 62
    18
420
        0
370
     9
100
AcDbSpline
210
0.0
220
0.0
230
1.0
 70
     8
 71
     3
 72
     8
 73
     4
 74
     0
 42
0.0000000001
 43
0.0000000001
 40
0.0
 40
0.0
 40
0.0
 40
0.0
 40
1.0
 40
1.0
 40
1.0
 40
1.0
 10
84.47390673377999
 20
174.0365666231576
 30
0.0
 10
84.45394164555315
 20
174.2846355536285
 30
0.0
 10
84.51747478822403
 20
174.7171410981499
 30
0.0
 10
84.60708034149355
 20
174.9403832895983
 30
0.0
  0
SPLINE
  5
97
330
70
100
AcDbEntity
  8
PIEZA
 62
    18
420
        0
370
     9
100
AcDbSpline
210
0.0
220
0.0
230
1.0
 70
     9
 71
     3
 72
   116
 73
   112
 74
     0
 42
0.0000000001
 43
0.0000000001
 40
0.0
 40
0.0
 40
0.0
 40
0.0
 40
1.0
 40
1.0
 40
1.0
 40
2.0
 40
2.0
 40
2.0
 40
3.0
 40
3.0
 40
3.0
 40
4.0
 40
4.0
 40
4.0
 40
5.0
 40
5.0
 40
5.0
 40
6.0
 40
6.0
 40
6.0
 40
7.0
 40
7.0
 40
7.0
 40
8.0
 40
8.0
 40
8.0
 40
9.0
 40
9.0
 40
9.0
 40
10.0
 40
10.0
 40
10.0
 40
11.0
 40
11.0
 40
11.0
 40
12.0
 40
12.0
 40
12.0
 40
13.0
 40
13.0
 40
13.0
 40
14.0
 40
14.0
 40
14.0
 40
15.0
 40
15.0
 40
15.0
 40
16.0
 40
16.0
 40
16.0
 40
17.0
 40
17.0
 40
17.0
 40
18.0
 40
18.0
 40
18.0
 40
19.0
 40
19.0
 40
19.0
 40
20.0
 40
20.0
 40
20.0
 40
21.0
 40
21.0
 40
21.0
 40
22.0
 40
22.0
 40
22.0
 40
23.0
 40
23.0
 40
23.0
 40
24.0
 40
24.0
 40
24.0
 40
25.0
 40
25.0
 40
25.0
 40
26.0
 40
26.0
 40
26.0
 40
27.0
 40
27.0
 40
27.0
 40
28.0
 40
28.0
 40
28.0
 40
29.0
 40
29.0
 40
29.0
 40
30.0
 40
30.0
 40
30.0
 40
31.0
 40
31.0
 40
31.0
 40
32.0
 40
32.0
 40
32.0
 40
33.0
 40
33.0
 40
33.0
 40
34.0
 40
34.0
 40
34.0
 40
35.0
 40
35.0
 40
35.0
 40
36.0
 40
36.0
 40
36.0
 40
37.0
 40
37.0
 40
37.0
 40
37.0
 10
80.69241127469842
 20
174.8981866490866
 30
0.0
 10
80.52653516781916
 20
174.8673582896165
 30
0.0
 10
80.36598600524845
 20
174.8127438734887
 30
0.0
 10
80.21577323130291
 20
174.7366144309864
 30
0.0
 10
80.21577323130291
 20
174.7366144309864
 30
0.0
 10
80.21577323130291
 20
174.7366144309864
 30
0.0
 10
80.21577323130291
 20
174.7366144309864
 30
0.0
 10
79.96978331334078
 20
174.6122602674923
 30
0.0
 10
79.75568046526307
 20
174.4318849943163
 30
0.0
 10
79.58567685848912
 20
174.2157027776093
 30
0.0
 10
79.58567685848912
 20
174.2157027776093
 30
0.0
 10
79.58567685848912
 20
174.2157027776093
 30
0.0
 10
79.58567685848912
 20
174.2157027776093
 30
0.0
 10
79.41546158505389
 20
173.9995558386793
 30
0.0
 10
79.2907546437913
 20
173.7504638454512
 30
0.0
 10
79.21240270134546
 20
173.4855277344065
 30
0.0
 10
79.21240270134546
 20
173.4855277344065
 30
0.0
 10
79.21240270134546
 20
173.4855277344065
 30
0.0
 10
79.21240270134546
 20
173.4855277344065
 30
0.0
 10
79.13401548112275
 20
173.2205916233616
 30
0.0
 10
79.10265553577992
 20
172.9417164212225
 30
0.0
 10
79.11662353712234
 20
172.6636922616492
 30
0.0
 10
79.11662353712234
 20
172.6636922616492
 30
0.0
 10
79.11662353712234
 20
172.6636922616492
 30
0.0
 10
79.11662353712234
 20
172.6636922616492
 30
0.0
 10
79.13038187010466
 20
172.386020879844
 30
0.0
 10
79.18982492414369
 20
172.1104308868748
 30
0.0
 10
79.29163658821294
 20
171.8517036712533
 30
0.0
 10
79.29163658821294
 20
171.8517036712533
 30
0.0
 10
79.29163658821294
 20
171.8517036712533
 30
0.0
 10
79.29163658821294
 20
171.8517036712533
 30
0.0
 10
79.39341297450529
 20
171.5931528445161
 30
0.0
 10
79.53741685972033
 20
171.3523114617717
 30
0.0
 10
79.71881518842581
 20
171.1447723003997
 30
0.0
 10
79.71881518842581
 20
171.1447723003997
 30
0.0
 10
79.71881518842581
 20
171.1447723003997
 30
0.0
 10
79.71881518842581
 20
171.1447723003997
 30
0.0
 10
79.90021351713129
 20
170.937197861251
 30
0.0
 10
80.11879462266593
 20
170.7635606434586
 30
0.0
 10
80.36425739418143
 20
170.6407587021471
 30
0.0
 10
80.36425739418143
 20
170.6407587021471
 30
0.0
 10
80.36425739418143
 20
170.6407587021471
 30
0.0
 10
80.36425739418143
 20
170.6407587021471
 30
0.0
 10
80.60989655458133
 20
170.5177450941743
 30
0.0
 10
80.8818882143089
 20
170.4474717626338
 30
0.0
 10
81.15747820727802
 20
170.4419684294409
 30
0.0
 10
81.15747820727802
 20
170.4419684294409
 30
0.0
 10
81.15747820727802
 20
170.4419684294409
 30
0.0
 10
81.15747820727802
 20
170.4419684294409
 30
0.0
 10
81.3201087586845
 20
170.4386875961913
 30
0.0
 10
81.48372708784361
 20
170.4585137067965
 30
0.0
 10
81.6405015282884
 20
170.5000003724048
 30
0.0
 10
81.6405015282884
 20
170.5000003724048
 30
0.0
 10
81.6405015282884
 20
170.5000003724048
 30
0.0
 10
81.6405015282884
 20
170.5000003724048
 30
0.0
 10
81.79741707984039
 20
170.5415223157899
 30
0.0
 10
81.94882929820009
 20
170.6045637030705
 30
0.0
 10
82.08888207240482
 20
170.6870784231876
 30
0.0
 10
82.08888207240482
 20
170.6870784231876
 30
0.0
 10
82.08888207240482
 20
170.6870784231876
 30
0.0
 10
82.08888207240482
 20
170.6870784231876
 30
0.0
 10
82.22907595771706
 20
170.7695931433047
 30
0.0
 10
82.35688734334521
 20
170.870522862952
 30
0.0
 10
82.47076400710664
 20
170.9855989711273
 30
0.0
 10
82.47076400710664
 20
170.9855989711273
 30
0.0
 10
82.47076400710664
 20
170.9855989711273
 30
0.0
 10
82.47076400710664
 20
170.9855989711273
 30
0.0
 10
82.61991844774582
 20
171.1363056339491
 30
0.0
 10
82.74430788901684
 20
171.3120242405772
 30
0.0
 10
82.84040455323188
 20
171.5015055126801
 30
0.0
 10
82.84040455323188
 20
171.5015055126801
 30
0.0
 10
82.84040455323188
 20
171.5015055126801
 30
0.0
 10
82.84040455323188
 20
171.5015055126801
 30
0.0
 10
82.93653649522379
 20
171.6909781197982
 30
0.0
 10
83.00543609035981
 20
171.895095336813
 30
0.0
 10
83.04610927020613
 20
172.1052450536738
 30
0.0
 10
83.04610927020613
 20
172.1052450536738
 30
0.0
 10
83.04610927020613
 20
172.1052450536738
 30
0.0
 10
83.04610927020613
 20
172.1052450536738
 30
0.0
 10
83.08674926916932
 20
172.3153947705347
 30
0.0
 10
83.09966093550658
 20
172.5312242094728
 30
0.0
 10
83.08554982475547
 20
172.7460305928816
 30
0.0
 10
83.08554982475547
 20
172.7460305928816
 30
0.0
 10
83.08554982475547
 20
172.7460305928816
 30
0.0
 10
83.08554982475547
 20
172.7460305928816
 30
0.0
 10
83.05969121430406
 20
173.1368730829103
 30
0.0
 10
82.94359205059933
 20
173.5225694010638
 30
0.0
 10
82.74723594449769
 20
173.8593266755901
 30
0.0
 10
82.74723594449769
 20
173.8593266755901
 30
0.0
 10
82.74723594449769
 20
173.8593266755901
 30
0.0
 10
82.74723594449769
 20
173.8593266755901
 30
0.0
 10
82.60390233704333
 20
174.1051422248747
 30
0.0
 10
82.41770831272891
 20
174.3250991637073
 30
0.0
 10
82.19637345855137
 20
174.5006413814511
 30
0.0
 10
82.19637345855137
 20
174.5006413814511
 30
0.0
 10
82.19637345855137
 20
174.5006413814511
 30
0.0
 10
82.19637345855137
 20
174.5006413814511
 30
0.0
 10
82.03977540699096
 20
174.6248191560608
 30
0.0
 10
81.86649096696738
 20
174.72663082013
 30
0.0
 10
81.67976569395335
 20
174.7998322071514
 30
0.0
 10
81.67976569395335
 20
174.7998322071514
 30
0.0
 10
81.67976569395335
 20
174.7998322071514
 30
0.0
 10
81.67976569395335
 20
174.7998322071514
 30
0.0
 10
81.49304042093934
 20
174.8728572052884
 30
0.0
 10
81.29562598153134
 20
174.9159313708561
 30
0.0
 10
81.09563626441127
 20
174.9254210928363
 30
0.0
 10
81.09563626441127
 20
174.9254210928363
 30
0.0
 10
81.09563626441127
 20
174.9254210928363
 30
0.0
 10
81.09563626441127
 20
174.9254210928363
 30
0.0
 10
80.9609457122923
 20
174.9317710926742
 30
0.0
 10
80.82519682686633
 20
174.9226694262398
 30
0.0
 10
80.69241127469842
 20
174.8981866490866
 30
0.0
  0
SPLINE
  5
98
330
70
100
AcDbEntity
  8
PIEZA
 62
    18
420
        0
370
     9
100
AcDbSpline
210
0.0
220
0.0
230
1.0
 70
     8
 71
     3
 72
     8
 73
     4
 74
     0
 42
0.0000000001
 43
0.0000000001
 40
0.0
 40
0.0
 40
0.0
 40
0.0
 40
1.0
 40
1.0
 40
1.0
 40
1.0
 10
90.53829997736551
 20
170.4767523174427
 30
0.0
 10
88.63248634990801
 20
169.8642242775137
 30
0.0
 10
86.18251530130086
 20
170.7077555128785
 30
0.0
 10
85.05768338555359
 20
172.363795880411
 30
0.0
  0
SPLINE
  5
99
330
70
100
AcDbEntity
  8
PIEZA
 62
    18
420
        0
370
     9
100
AcDbSpline
210
0.0
220
0.0
230
1.0
 70
     9
 71
     3
 72
   116
 73
   112
 74
     0
 42
0.0000000001
 43
0.0000000001
 40
0.0
 40
0.0
 40
0.0
 40
0.0
 40
1.0
 40
1.0
 40
1.0
 40
2.0
 40
2.0
 40
2.0
 40
3.0
 40
3.0
 40
3.0
 40
4.0
 40
4.0
 40
4.0
 40
5.0
 40
5.0
 40
5.0
 40
6.0
 40
6.0
 40
6.0
 40
7.0
 40
7.0
 40
7.0
 40
8.0
 40
8.0
 40
8.0
 40
9.0
 40
9.0
 40
9.0
 40
10.0
 40
10.0
 40
10.0
 40
11.0
 40
11.0
 40
11.0
 40
12.0
 40
12.0
 40
12.0
 40
13.0
 40
13.0
 40
13.0
 40
14.0
 40
14.0
 40
14.0
 40
15.0
 40
15.0
 40
15.0
 40
16.0
 40
16.0
 40
16.0
 40
17.0
 40
17.0
 40
17.0
 40
18.0
 40
18.0
 40
18.0
 40
19.0
 40
19.0
 40
19.0
 40
20.0
 40
20.0
 40
20.0
 40
21.0
 40
21.0
 40
21.0
 40
22.0
 40
22.0
 40
22.0
 40
23.0
 40
23.0
 40
23.0
 40
24.0
 40
24.0
 40
24.0
 40
25.0
 40
25.0
 40
25.0
 40
26.0
 40
26.0
 40
26.0
 40
27.0
 40
27.0
 40
27.0
 40
28.0
 40
28.0
 40
28.0
 40
29.0
 40
29.0
 40
29.0
 40
30.0
 40
30.0
 40
30.0
 40
31.0
 40
31.0
 40
31.0
 40
32.0
 40
32.0
 40
32.0
 40
33.0
 40
33.0
 40
33.0
 40
34.0
 40
34.0
 40
34.0
 40
35.0
 40
35.0
 40
35.0
 40
36.0
 40
36.0
 40
36.0
 40
37.0
 40
37.0
 40
37.0
 40
37.0
 10
95.53853450705338
 20
169.7861898350601
 30
0.0
 10
95.65032978197901
 20
169.6597542827302
 30
0.0
 10
95.74314561294441
 20
169.5179728974584
 30
0.0
 10
95.81483005556004
 20
169.3655376235696
 30
0.0
 10
95.81483005556004
 20
169.3655376235696
 30
0.0
 10
95.81483005556004
 20
169.3655376235696
 30
0.0
 10
95.81483005556004
 20
169.3655376235696
 30
0.0
 10
95.93195227479423
 20
169.1159473521594
 30
0.0
 10
95.98949032888185
 20
168.8422270813651
 30
0.0
 10
95.99051338441132
 20
168.567130977272
 30
0.0
 10
95.99051338441132
 20
168.567130977272
 30
0.0
 10
95.99051338441132
 20
168.567130977272
 30
0.0
 10
95.99051338441132
 20
168.567130977272
 30
0.0
 10
95.99157171771764
 20
168.2920348731792
 30
0.0
 10
95.93643255245771
 20
168.0188437690377
 30
0.0
 10
95.83497366615723
 20
167.7618451644832
 30
0.0
 10
95.83497366615723
 20
167.7618451644832
 30
0.0
 10
95.83497366615723
 20
167.7618451644832
 30
0.0
 10
95.83497366615723
 20
167.7618451644832
 30
0.0
 10
95.73369116874117
 20
167.505022948813
 30
0.0
 10
95.58675922804528
 20
167.265769066028
 30
0.0
 10
95.40469062157912
 20
167.0552665713984
 30
0.0
 10
95.40469062157912
 20
167.0552665713984
 30
0.0
 10
95.40469062157912
 20
167.0552665713984
 30
0.0
 10
95.40469062157912
 20
167.0552665713984
 30
0.0
 10
95.22262201511296
 20
166.8449404656531
 30
0.0
 10
95.00626340952162
 20
166.6644240813696
 30
0.0
 10
94.76683313785221
 20
166.523171862751
 30
0.0
 10
94.76683313785221
 20
166.523171862751
 30
0.0
 10
94.76683313785221
 20
166.523171862751
 30
0.0
 10
94.76683313785221
 20
166.523171862751
 30
0.0
 10
94.52740286618283
 20
166.3820960330168
 30
0.0
 10
94.26557120619603
 20
166.2811310355927
 30
0.0
 10
93.99495537976667
 20
166.2291315924749
 30
0.0
 10
93.99495537976667
 20
166.2291315924749
 30
0.0
 10
93.99495537976667
 20
166.2291315924749
 30
0.0
 10
93.99495537976667
 20
166.2291315924749
 30
0.0
 10
93.72416316445294
 20
166.1772732604646
 30
0.0
 10
93.44493956046543
 20
166.1750507605212
 30
0.0
 10
93.17587595621871
 20
166.2293079813592
 30
0.0
 10
93.17587595621871
 20
166.2293079813592
 30
0.0
 10
93.17587595621871
 20
166.2293079813592
 30
0.0
 10
93.17587595621871
 20
166.2293079813592
 30
0.0
 10
92.90681235197196
 20
166.283741591082
 30
0.0
 10
92.64910819187988
 20
166.3957132548917
 30
0.0
 10
92.42848331022635
 20
166.5610601951178
 30
0.0
 10
92.42848331022635
 20
166.5610601951178
 30
0.0
 10
92.42848331022635
 20
166.5610601951178
 30
0.0
 10
92.42848331022635
 20
166.5610601951178
 30
0.0
 10
92.29841181193801
 20
166.6585721805574
 30
0.0
 10
92.18160709269573
 20
166.774988847195
 30
0.0
 10
92.08360542852927
 20
166.9042071308081
 30
0.0
 10
92.08360542852927
 20
166.9042071308081
 30
0.0
 10
92.08360542852927
 20
166.9042071308081
 30
0.0
 10
92.08360542852927
 20
166.9042071308081
 30
0.0
 10
91.98560376436285
 20
167.0333943497345
 30
0.0
 10
91.90517043308153
 20
167.1763399016429
 30
0.0
 10
91.84555099015812
 20
167.3277521200023
 30
0.0
 10
91.84555099015812
 20
167.3277521200023
 30
0.0
 10
91.84555099015812
 20
167.3277521200023
 30
0.0
 10
91.84555099015812
 20
167.3277521200023
 30
0.0
 10
91.78596682501156
 20
167.4790232272541
 30
0.0
 10
91.7471965482229
 20
167.6371382232203
 30
0.0
 10
91.72825238203953
 20
167.7978637746757
 30
0.0
 10
91.72825238203953
 20
167.7978637746757
 30
0.0
 10
91.72825238203953
 20
167.7978637746757
 30
0.0
 10
91.72825238203953
 20
167.7978637746757
 30
0.0
 10
91.70362849377886
 20
168.0085073804125
 30
0.0
 10
91.71378849351965
 20
168.2234944023886
 30
0.0
 10
91.75460488136723
 20
168.4320876473839
 30
0.0
 10
91.75460488136723
 20
168.4320876473839
 30
0.0
 10
91.75460488136723
 20
168.4320876473839
 30
0.0
 10
91.75460488136723
 20
168.4320876473839
 30
0.0
 10
91.79559997705096
 20
168.6406851420621
 30
0.0
 10
91.86692932294604
 20
168.8437793035474
 30
0.0
 10
91.96422775478662
 20
169.0344556875717
 30
0.0
 10
91.96422775478662
 20
169.0344556875717
 30
0.0
 10
91.96422775478662
 20
169.0344556875717
 30
0.0
 10
91.96422775478662
 20
169.0344556875717
 30
0.0
 10
92.06155681798069
 20
169.225167349373
 30
0.0
 10
92.18421764818467
 20
169.4031084559444
 30
0.0
 10
92.32769236674654
 20
169.5636223407382
 30
0.0
 10
92.32769236674654
 20
169.5636223407382
 30
0.0
 10
92.32769236674654
 20
169.5636223407382
 30
0.0
 10
92.32769236674654
 20
169.5636223407382
 30
0.0
 10
92.58867736008827
 20
169.8557971797582
 30
0.0
 10
92.91767790725032
 20
170.0883087162413
 30
0.0
 10
93.27959262023933
 20
170.2326653792251
 30
0.0
 10
93.27959262023933
 20
170.2326653792251
 30
0.0
 10
93.27959262023933
 20
170.2326653792251
 30
0.0
 10
93.27959262023933
 20
170.2326653792251
 30
0.0
 10
93.54399955793819
 20
170.3380753765358
 30
0.0
 10
93.82632760629096
 20
170.3968128750373
 30
0.0
 10
94.10862037686685
 20
170.3988942638731
 30
0.0
 10
94.10862037686685
 20
170.3988942638731
 30
0.0
 10
94.10862037686685
 20
170.3988942638731
 30
0.0
 10
94.10862037686685
 20
170.3988942638731
 30
0.0
 10
94.3084689828794
 20
170.4004464860557
 30
0.0
 10
94.50775553192853
 20
170.3739175978437
 30
0.0
 10
94.69998175066885
 20
170.3165559326404
 30
0.0
 10
94.69998175066885
 20
170.3165559326404
 30
0.0
 10
94.69998175066885
 20
170.3165559326404
 30
0.0
 10
94.69998175066885
 20
170.3165559326404
 30
0.0
 10
94.8920692457683
 20
170.2591942674372
 30
0.0
 10
95.07413785223445
 20
170.1715332907905
 30
0.0
 10
95.23757979250914
 20
170.0559237170675
 30
0.0
 10
95.23757979250914
 20
170.0559237170675
 30
0.0
 10
95.23757979250914
 20
170.0559237170675
 30
0.0
 10
95.23757979250914
 20
170.0559237170675
 30
0.0
 10
95.34750534526025
 20
169.9780656634982
 30
0.0
 10
95.44896664280454
 20
169.8874723324761
 30
0.0
 10
95.53853450705338
 20
169.7861898350601
 30
0.0
  0
SPLINE
  5
9A
330
70
100
AcDbEntity
  8
PIEZA
 62
    18
420
        0
370
     9
100
AcDbSpline
210
0.0
220
0.0
230
1.0
 70
     8
 71
     3
 72
    14
 73
    10
 74
     0
 42
0.0000000001
 43
0.0000000001
 40
0.0
 40
0.0
 40
0.0
 40
0.0
 40
1.0
 40
1.0
 40
1.0
 40
2.0
 40
2.0
 40
2.0
 40
3.0
 40
3.0
 40
3.0
 40
3.0
 10
91.24283017220147
 20
168.0939501560105
 30
0.0
 10
91.72807599315516
 20
166.8178824107879
 30
0.0
 10
91.17668434055564
 20
165.2166241183061
 30
0.0
 10
90.0088135370172
 20
164.50983385856
 30
0.0
 10
88.11898302967524
 20
163.2186360703066
 30
0.0
 10
85.02600394191704
 20
163.6067227704892
 30
0.0
 10
83.10036649104414
 20
165.376820503108
 30
0.0
 10
81.17490542905562
 20
167.1468829579499
 30
0.0
 10
81.1457659853546
 20
169.6285687279702
 30
0.0
 10
83.03559649269624
 20
170.9199823061346
 30
0.0
  0
SPLINE
  5
9B
330
70
100
AcDbEntity
  8
PIEZA
 62
    18
420
        0
370
     9
100
AcDbSpline
210
0.0
220
0.0
230
1.0
 70
     8
 71
     3
 72
    11
 73
     7
 74
     0
 42
0.0000000001
 43
0.0000000001
 40
0.0
 40
0.0
 40
0.0
 40
0.0
 40
1.0
 40
1.0
 40
1.0
 40
2.0
 40
2.0
 40
2.0
 40
2.0
 10
89.86512715179404
 20
164.4164888609414
 30
0.0
 10
89.32872855436729
 20
163.9296908178051
 30
0.0
 10
88.10212025232765
 20
163.5681288825849
 30
0.0
 10
87.17745444258452
 20
163.6241147144899
 30
0.0
 10
84.71661783869903
 20
163.6606272135584
 30
0.0
 10
82.3345212328047
 20
165.2498557841249
 30
0.0
 10
81.85717763387165
 20
167.1737646239308
 30
0.0
  0
SPLINE
  5
9C
330
70
100
AcDbEntity
  8
PIEZA
 62
    18
420
        0
370
     9
100
AcDbSpline
210
0.0
220
0.0
230
1.0
 70
     8
 71
     3
 72
    14
 73
    10
 74
     0
 42
0.0000000001
 43
0.0000000001
 40
0.0
 40
0.0
 40
0.0
 40
0.0
 40
1.0
 40
1.0
 40
1.0
 40
2.0
 40
2.0
 40
2.0
 40
3.0
 40
3.0
 40
3.0
 40
3.0
 10
91.25161664385382
 20
167.9050023830532
 30
0.0
 10
91.38030766869412
 20
167.243544066595
 30
0.0
 10
91.05885656578392
 20
166.3099177015249
 30
0.0
 10
90.5501863009834
 20
165.867746046139
 30
0.0
 10
89.19523744666213
 20
164.5021080254238
 30
0.0
 10
86.38716386729225
 20
164.49367663675
 30
0.0
 10
84.27804451655463
 20
165.8492999585376
 30
0.0
 10
82.16878623703294
 20
167.2047737898064
 30
0.0
 10
81.55745764151813
 20
169.4106579001962
 30
0.0
 10
82.91226538473187
 20
170.7764723097959
 30
0.0
  0
SPLINE
  5
9D
330
70
100
AcDbEntity
  8
PIEZA
 62
    18
420
        0
370
     9
100
AcDbSpline
210
0.0
220
0.0
230
1.0
 70
     8
 71
     3
 72
    11
 73
     7
 74
     0
 42
0.0000000001
 43
0.0000000001
 40
0.0
 40
0.0
 40
0.0
 40
0.0
 40
1.0
 40
1.0
 40
1.0
 40
2.0
 40
2.0
 40
2.0
 40
2.0
 10
90.67750379773526
 20
170.3854534308827
 30
0.0
 10
90.21483575398335
 20
169.7109070592029
 30
0.0
 10
89.0128160624272
 20
169.3097281805489
 30
0.0
 10
87.98531553308537
 20
169.4871444020725
 30
0.0
 10
86.27656585445699
 20
169.7147170591057
 30
0.0
 10
84.89163088978962
 20
171.0086749572477
 30
0.0
 10
84.89180727867401
 20
172.3775894911702
 30
0.0
  0
SPLINE
  5
9E
330
70
100
AcDbEntity
  8
PIEZA
 62
    18
420
        0
370
     9
100
AcDbSpline
210
0.0
220
0.0
230
1.0
 70
     8
 71
     3
 72
     8
 73
     4
 74
     0
 42
0.0000000001
 43
0.0000000001
 40
0.0
 40
0.0
 40
0.0
 40
0.0
 40
1.0
 40
1.0
 40
1.0
 40
1.0
 10
88.81437856748977
 20
170.2948600998606
 30
0.0
 10
87.96587747802572
 20
170.0957170493856
 30
0.0
 10
86.85018250648948
 20
170.480033150692
 30
0.0
 10
86.30429418708292
 20
171.1590598000352
 30
0.0
  0
SPLINE
  5
9F
330
70
100
AcDbEntity
  8
PIEZA
 62
    18
420
        0
370
     9
100
AcDbSpline
210
0.0
220
0.0
230
1.0
 70
     8
 71
     3
 72
     8
 73
     4
 74
     0
 42
0.0000000001
 43
0.0000000001
 40
0.0
 40
0.0
 40
0.0
 40
0.0
 40
1.0
 40
1.0
 40
1.0
 40
1.0
 10
92.47963608799118
 20
172.2296388458315
 30
0.0
 10
92.41278236457572
 20
171.9986356119492
 30
0.0
 10
92.19660014786878
 20
171.6184470105375
 30
0.0
 10
92.02814876327744
 20
171.4355360682521
 30
0.0
  0
SPLINE
  5
A0
330
70
100
AcDbEntity
  8
PIEZA
 62
    18
420
        0
370
     9
100
AcDbSpline
210
0.0
220
0.0
230
1.0
 70
     8
 71
     3
 72
    14
 73
    10
 74
     0
 42
0.0000000001
 43
0.0000000001
 40
0.0
 40
0.0
 40
0.0
 40
0.0
 40
1.0
 40
1.0
 40
1.0
 40
2.0
 40
2.0
 40
2.0
 40
3.0
 40
3.0
 40
3.0
 40
3.0
 10
93.27973608779116
 20
177.5063079714368
 30
0.0
 10
94.12343704315551
 20
176.0188910649398
 30
0.0
 10
93.53295761377545
 20
174.3042499975725
 30
0.0
 10
91.9525132096515
 20
173.651575847557
 30
0.0
 10
90.12198464524107
 20
172.849218090249
 30
0.0
 10
87.57983276565232
 20
173.5284211284767
 30
0.0
 10
86.27430807673681
 20
175.1684496977472
 30
0.0
 10
84.96895977670568
 20
176.8086546559021
 30
0.0
 10
85.39462143251283
 20
178.7887257164974
 30
0.0
 10
87.22514999692325
 20
179.5909423626978
 30
0.0
  0
SPLINE
  5
A1
330
70
100
AcDbEntity
  8
PIEZA
 62
    18
420
        0
370
     9
100
AcDbSpline
210
0.0
220
0.0
230
1.0
 70
     8
 71
     3
 72
    14
 73
    10
 74
     0
 42
0.0000000001
 43
0.0000000001
 40
0.0
 40
0.0
 40
0.0
 40
0.0
 40
1.0
 40
1.0
 40
1.0
 40
2.0
 40
2.0
 40
2.0
 40
3.0
 40
3.0
 40
3.0
 40
3.0
 10
93.21034234422828
 20
175.3742999561563
 30
0.0
 10
93.21034234422828
 20
175.3742999561563
 30
0.0
 10
93.21034234422828
 20
175.3742999561563
 30
0.0
 10
93.21034234422828
 20
175.3742999561563
 30
0.0
 10
92.6827279132444
 20
173.8421111204738
 30
0.0
 10
90.63375935440683
 20
173.1584278045827
 30
0.0
 10
88.63368579432185
 20
173.8470852870135
 30
0.0
 10
86.63364751201374
 20
174.5357780472213
 30
0.0
 10
85.43991809802387
 20
176.3360030012937
 30
0.0
 10
85.96735831184146
 20
177.8682226844258
 30
0.0
  0
SPLINE
  5
A2
330
70
100
AcDbEntity
  8
PIEZA
 62
    18
420
        0
370
     9
100
AcDbSpline
210
0.0
220
0.0
230
1.0
 70
     9
 71
     3
 72
    20
 73
    16
 74
     0
 42
0.0000000001
 43
0.0000000001
 40
0.0
 40
0.0
 40
0.0
 40
0.0
 40
1.0
 40
1.0
 40
1.0
 40
2.0
 40
2.0
 40
2.0
 40
3.0
 40
3.0
 40
3.0
 40
4.0
 40
4.0
 40
4.0
 40
5.0
 40
5.0
 40
5.0
 40
5.0
 10
93.34968956289545
 20
175.7791080155013
 30
0.0
 10
93.34968956289545
 20
175.7791080155013
 30
0.0
 10
93.34968956289545
 20
175.7791080155013
 30
0.0
 10
93.34968956289545
 20
175.7791080155013
 30
0.0
 10
92.82207513191158
 20
174.2470647212537
 30
0.0
 10
90.773106573074
 20
173.5632050164781
 30
0.0
 10
88.77303301298901
 20
174.2518977766859
 30
0.0
 10
86.77299473068059
 20
174.9405552591168
 30
0.0
 10
85.57926531669105
 20
176.7409610669257
 30
0.0
 10
86.10687974767492
 20
178.2729998963213
 30
0.0
 10
86.63431778977441
 20
179.8052195794533
 30
0.0
 10
88.68346273749637
 20
180.4889028953444
 30
0.0
 10
90.68353629758135
 20
179.8002101351367
 30
0.0
 10
92.68357457988946
 20
179.1115526527058
 30
0.0
 10
93.87730399387933
 20
177.3112924208565
 30
0.0
 10
93.34968956289545
 20
175.7791080155013
 30
0.0
  0
SPLINE
  5
A3
330
70
100
AcDbEntity
  8
PIEZA
 62
    18
420
        0
370
     9
100
AcDbSpline
210
0.0
220
0.0
230
1.0
 70
     9
 71
     3
 72
    20
 73
    16
 74
     0
 42
0.0000000001
 43
0.0000000001
 40
0.0
 40
0.0
 40
0.0
 40
0.0
 40
1.0
 40
1.0
 40
1.0
 40
2.0
 40
2.0
 40
2.0
 40
3.0
 40
3.0
 40
3.0
 40
4.0
 40
4.0
 40
4.0
 40
5.0
 40
5.0
 40
5.0
 40
5.0
 10
92.40488014255509
 20
176.104474951645
 30
0.0
 10
92.40488014255509
 20
176.104474951645
 30
0.0
 10
92.40488014255509
 20
176.104474951645
 30
0.0
 10
92.40488014255509
 20
176.104474951645
 30
0.0
 10
92.01506070805578
 20
174.9719172027611
 30
0.0
 10
90.50058574669327
 20
174.4665277712103
 30
0.0
 10
89.02212939552294
 20
174.9756919248871
 30
0.0
 10
87.54384943323699
 20
175.484538578572
 30
0.0
 10
86.66155223352404
 20
176.8153971780183
 30
0.0
 10
87.05154805690808
 20
177.9477740712852
 30
0.0
 10
87.4415086025146
 20
179.0801907090615
 30
0.0
 10
88.95598356387713
 20
179.5855801406123
 30
0.0
 10
90.43426352616306
 20
179.0765923758199
 30
0.0
 10
91.91257876622588
 20
178.5675693332507
 30
0.0
 10
92.79484068816193
 20
177.2368915894216
 30
0.0
 10
92.40488014255509
 20
176.104474951645
 30
0.0
  0
LINE
  5
A4
330
70
100
AcDbEntity
  8
PIEZA
 62
    18
420
        0
370
     9
100
AcDbLine
 10
83.92597230331451
 20
165.3294424487612
 30
0.0
 11
83.81400275682414
 21
165.004216623725
 31
0.0
  0
LINE
  5
A5
330
70
100
AcDbEntity
  8
PIEZA
 62
    18
420
        0
370
     9
100
AcDbLine
 10
87.09942220044728
 20
164.2366427544186
 30
0.0
 11
86.98744833632087
 21
163.9115933182669
 31
0.0
  0
SPLINE
  5
A6
330
70
100
AcDbEntity
  8
PIEZA
 62
    18
420
        0
370
     9
100
AcDbSpline
210
0.0
220
0.0
230
1.0
 70
     8
 71
     3
 72
     8
 73
     4
 74
     0
 42
0.0000000001
 43
0.0000000001
 40
0.0
 40
0.0
 40
0.0
 40
0.0
 40
1.0
 40
1.0
 40
1.0
 40
1.0
 10
83.81400275682414
 20
165.004216623725
 30
0.0
 10
84.58534923093685
 20
164.542748024387
 30
0.0
 10
86.09534391463622
 20
164.0228947043162
 30
0.0
 10
86.98744833632087
 20
163.9115933182669
 30
0.0
  0
SPLINE
  5
A7
330
70
100
AcDbEntity
  8
PIEZA
 62
    18
420
        0
370
     9
100
AcDbSpline
210
0.0
220
0.0
230
1.0
 70
     8
 71
     3
 72
    11
 73
     7
 74
     0
 42
0.0000000001
 43
0.0000000001
 40
0.0
 40
0.0
 40
0.0
 40
0.0
 40
1.0
 40
1.0
 40
1.0
 40
2.0
 40
2.0
 40
2.0
 40
2.0
 10
91.25574183853874
 20
172.474038933154
 30
0.0
 10
90.74139185166089
 20
172.7992647581901
 30
0.0
 10
90.06099164415148
 20
172.6459475398794
 30
0.0
 10
89.73576354398328
 20
172.1317739418859
 30
0.0
 10
89.45671632888014
 20
171.7138777348492
 30
0.0
 10
89.52649577154437
 20
171.1036031347834
 30
0.0
 10
89.89236386641584
 20
170.7592610684214
 30
0.0
  0
SPLINE
  5
A8
330
70
100
AcDbEntity
  8
PIEZA
 62
    18
420
        0
370
     9
100
AcDbSpline
210
0.0
220
0.0
230
1.0
 70
     8
 71
     3
 72
     8
 73
     4
 74
     0
 42
0.0000000001
 43
0.0000000001
 40
0.0
 40
0.0
 40
0.0
 40
0.0
 40
1.0
 40
1.0
 40
1.0
 40
1.0
 10
87.09942220044728
 20
164.2366427544186
 30
0.0
 10
86.3490638673017
 20
164.824405794979
 30
0.0
 10
84.87889561233675
 20
165.330641893175
 30
0.0
 10
83.92597230331451
 20
165.3294424487612
 30
0.0
  0
SPLINE
  5
A9
330
70
100
AcDbEntity
  8
PIEZA
 62
    18
420
        0
370
     9
100
AcDbSpline
210
0.0
220
0.0
230
1.0
 70
     8
 71
     3
 72
     8
 73
     4
 74
     0
 42
0.0000000001
 43
0.0000000001
 40
0.0
 40
0.0
 40
0.0
 40
0.0
 40
1.0
 40
1.0
 40
1.0
 40
1.0
 10
91.25574183853874
 20
172.474038933154
 30
0.0
 10
91.65935488379727
 20
171.6417303432768
 30
0.0
 10
92.73698513408239
 20
170.6601967572067
 30
0.0
 10
93.60323330993265
 20
170.3358528765926
 30
0.0
  0
LINE
  5
AA
330
70
100
AcDbEntity
  8
PIEZA
 62
    18
420
        0
370
     9
100
AcDbLine
 10
90.06927964658569
 20
165.0934341214489
 30
0.0
 11
89.95385076064163
 21
164.7582599633333
 31
0.0
  0
LINE
  5
AB
330
70
100
AcDbEntity
  8
PIEZA
 62
    18
420
        0
370
     9
100
AcDbLine
 10
88.43249663278795
 20
164.3208860856027
 30
0.0
 11
88.34137413511268
 21
164.0561305145416
 31
0.0
  0
SPLINE
  5
AC
330
70
100
AcDbEntity
  8
PIEZA
 62
    18
420
        0
370
     9
100
AcDbSpline
210
0.0
220
0.0
230
1.0
 70
     8
 71
     3
 72
     8
 73
     4
 74
     0
 42
0.0000000001
 43
0.0000000001
 40
0.0
 40
0.0
 40
0.0
 40
0.0
 40
1.0
 40
1.0
 40
1.0
 40
1.0
 10
88.34137413511268
 20
164.0561305145416
 30
0.0
 10
88.86277967736607
 20
164.0557777367638
 30
0.0
 10
89.59899160302818
 20
164.3763427508545
 30
0.0
 10
89.95385076064163
 20
164.7582599633333
 30
0.0
  0
SPLINE
  5
AD
330
70
100
AcDbEntity
  8
PIEZA
 62
    18
420
        0
370
     9
100
AcDbSpline
210
0.0
220
0.0
230
1.0
 70
     8
 71
     3
 72
     8
 73
     4
 74
     0
 42
0.0000000001
 43
0.0000000001
 40
0.0
 40
0.0
 40
0.0
 40
0.0
 40
1.0
 40
1.0
 40
1.0
 40
1.0
 10
90.06927964658569
 20
165.0934341214489
 30
0.0
 10
89.49686243896705
 20
165.138413286968
 30
0.0
 10
88.76167356883438
 20
164.7914916291521
 30
0.0
 10
88.43249663278795
 20
164.3208860856027
 30
0.0
  0
SPLINE
  5
AE
330
70
100
AcDbEntity
  8
PIEZA
 62
    18
420
        0
370
     9
100
AcDbSpline
210
0.0
220
0.0
230
1.0
 70
     8
 71
     3
 72
     8
 73
     4
 74
     0
 42
0.0000000001
 43
0.0000000001
 40
0.0
 40
0.0
 40
0.0
 40
0.0
 40
1.0
 40
1.0
 40
1.0
 40
1.0
 10
91.77026821430095
 20
168.5054654232896
 30
0.0
 10
91.71361210463528
 20
169.5183256752272
 30
0.0
 10
90.87834018150038
 20
170.5208495385396
 30
0.0
 10
89.89236386641584
 20
170.7592610684214
 30
0.0
  0
LINE
  5
AF
330
70
100
AcDbEntity
  8
PIEZA
 62
    18
420
        0
370
     9
100
AcDbLine
 10
91.26935906041355
 20
167.5248137816415
 30
0.0
 11
91.15654072995845
 21
169.9505137197567
 31
0.0
  0
SPLINE
  5
B0
330
70
100
AcDbEntity
  8
PIEZA
 62
    18
420
        0
370
     9
100
AcDbSpline
210
0.0
220
0.0
230
1.0
 70
     8
 71
     3
 72
    11
 73
     7
 74
     0
 42
0.0000000001
 43
0.0000000001
 40
0.0
 40
0.0
 40
0.0
 40
0.0
 40
1.0
 40
1.0
 40
1.0
 40
2.0
 40
2.0
 40
2.0
 40
2.0
 10
95.05431174162914
 20
174.5498891579727
 30
0.0
 10
94.38234064766175
 20
174.9467641478473
 30
0.0
 10
93.5159184475435
 20
174.7235263757651
 30
0.0
 10
93.1190434576686
 20
174.0515552817971
 30
0.0
 10
93.11075553227777
 20
174.0379380599223
 30
0.0
 10
93.09544262493739
 20
174.0103861161808
 30
0.0
 10
93.08803429179306
 20
173.9960986165452
 30
0.0
  0
SPLINE
  5
B1
330
70
100
AcDbEntity
  8
PIEZA
 62
    18
420
        0
370
     9
100
AcDbSpline
210
0.0
220
0.0
230
1.0
 70
     8
 71
     3
 72
    14
 73
    10
 74
     0
 42
0.0000000001
 43
0.0000000001
 40
0.0
 40
0.0
 40
0.0
 40
0.0
 40
1.0
 40
1.0
 40
1.0
 40
2.0
 40
2.0
 40
2.0
 40
3.0
 40
3.0
 40
3.0
 40
3.0
 10
95.05431174162914
 20
174.5498891579727
 30
0.0
 10
95.78914783399303
 20
174.4356949942191
 30
0.0
 10
96.47748781643201
 20
174.9388266480498
 30
0.0
 10
96.59150559130095
 20
175.6736980181909
 30
0.0
 10
96.70573503283115
 20
176.4087104994388
 30
0.0
 10
96.20256810122389
 20
177.0968388152165
 30
0.0
 10
95.46773200886001
 20
177.2110682567468
 30
0.0
 10
95.32718534577867
 20
177.2398196449021
 30
0.0
 10
95.07875924100543
 20
177.2291304785082
 30
0.0
 10
94.94114063340527
 20
177.188490479545
 30
0.0
  0
LINE
  5
B2
330
70
100
AcDbEntity
  8
PIEZA
 62
    18
420
        0
370
     9
100
AcDbLine
 10
92.47963608799118
 20
172.2296388458315
 30
0.0
 11
93.52519650286234
 21
175.2657810841529
 31
0.0
  0
SPLINE
  5
B3
330
70
100
AcDbEntity
  8
PIEZA
 62
    18
420
        0
370
     9
100
AcDbSpline
210
0.0
220
0.0
230
1.0
 70
     8
 71
     3
 72
     8
 73
     4
 74
     0
 42
0.0000000001
 43
0.0000000001
 40
0.0
 40
0.0
 40
0.0
 40
0.0
 40
1.0
 40
1.0
 40
1.0
 40
1.0
 10
94.7694084155643
 20
174.6780533213693
 30
0.0
 10
94.79748952595899
 20
174.6384363779356
 30
0.0
 10
94.85742646887432
 20
174.5676338797419
 30
0.0
 10
94.8920692457683
 20
174.5335202695011
 30
0.0
  0
SPLINE
  5
B4
330
70
100
AcDbEntity
  8
PIEZA
 62
    18
420
        0
370
     9
100
AcDbSpline
210
0.0
220
0.0
230
1.0
 70
     8
 71
     3
 72
     8
 73
     4
 74
     0
 42
0.0000000001
 43
0.0000000001
 40
0.0
 40
0.0
 40
0.0
 40
0.0
 40
1.0
 40
1.0
 40
1.0
 40
1.0
 10
93.63649788891169
 20
176.4307591099874
 30
0.0
 10
93.94828288095741
 20
176.5123918856826
 30
0.0
 10
94.41871203562241
 20
176.7904160452563
 30
0.0
 10
94.64039997633987
 20
177.0241665948483
 30
0.0
  0
SPLINE
  5
B5
330
70
100
AcDbEntity
  8
PIEZA
 62
    18
420
        0
370
     9
100
AcDbSpline
210
0.0
220
0.0
230
1.0
 70
     8
 71
     3
 72
     8
 73
     4
 74
     0
 42
0.0000000001
 43
0.0000000001
 40
0.0
 40
0.0
 40
0.0
 40
0.0
 40
1.0
 40
1.0
 40
1.0
 40
1.0
 10
94.43162370195969
 20
177.2680771441812
 30
0.0
 10
94.3609999764096
 20
177.1330338142931
 30
0.0
 10
94.27364981710104
 20
176.8686268765943
 30
0.0
 10
94.24973148437791
 20
176.7180613248803
 30
0.0
  0
SPLINE
  5
B6
330
70
100
AcDbEntity
  8
PIEZA
 62
    18
420
        0
370
     9
100
AcDbSpline
210
0.0
220
0.0
230
1.0
 70
     8
 71
     3
 72
     8
 73
     4
 74
     0
 42
0.0000000001
 43
0.0000000001
 40
0.0
 40
0.0
 40
0.0
 40
0.0
 40
1.0
 40
1.0
 40
1.0
 40
1.0
 10
94.94114063340527
 20
177.188490479545
 30
0.0
 10
94.84642219851053
 20
177.1707457577754
 30
0.0
 10
94.70654341716812
 20
177.0944444001708
 30
0.0
 10
94.64039997633987
 20
177.0241665948483
 30
0.0
  0
LINE
  5
B7
330
70
100
AcDbEntity
  8
PIEZA
 62
    18
420
        0
370
     9
100
AcDbLine
 10
93.21034234422828
 20
175.3742999561563
 30
0.0
 11
93.34968956289545
 21
175.7791080155013
 31
0.0
  0
SPLINE
  5
B8
330
70
100
AcDbEntity
  8
PIEZA
 62
    18
420
        0
370
     9
100
AcDbSpline
210
0.0
220
0.0
230
1.0
 70
     8
 71
     3
 72
    11
 73
     7
 74
     0
 42
0.0000000001
 43
0.0000000001
 40
0.0
 40
0.0
 40
0.0
 40
0.0
 40
1.0
 40
1.0
 40
1.0
 40
2.0
 40
2.0
 40
2.0
 40
2.0
 10
85.74066114590683
 20
172.1887828293204
 30
0.0
 10
86.34511057493048
 20
172.2594089386297
 30
0.0
 10
86.77782778611318
 20
172.8066730913345
 30
0.0
 10
86.70702528791982
 20
173.4111225203581
 30
0.0
 10
86.66102306687088
 20
173.9113613964848
 30
0.0
 10
86.22297891137966
 20
174.3419972188321
 30
0.0
 10
85.72206975749224
 20
174.3793563845453
 30
0.0
  0
SPLINE
  5
B9
330
70
100
AcDbEntity
  8
PIEZA
 62
    18
420
        0
370
     9
100
AcDbSpline
210
0.0
220
0.0
230
1.0
 70
     8
 71
     3
 72
     8
 73
     4
 74
     0
 42
0.0000000001
 43
0.0000000001
 40
0.0
 40
0.0
 40
0.0
 40
0.0
 40
1.0
 40
1.0
 40
1.0
 40
1.0
 10
82.55585400493581
 20
174.1399305120206
 30
0.0
 10
83.43815120464874
 20
173.8620783421866
 30
0.0
 10
84.89163088978962
 20
173.9719686171609
 30
0.0
 10
85.72206975749224
 20
174.3793563845453
 30
0.0
  0
SPLINE
  5
BA
330
70
100
AcDbEntity
  8
PIEZA
 62
    18
420
        0
370
     9
100
AcDbSpline
210
0.0
220
0.0
230
1.0
 70
     8
 71
     3
 72
     8
 73
     4
 74
     0
 42
0.0000000001
 43
0.0000000001
 40
0.0
 40
0.0
 40
0.0
 40
0.0
 40
1.0
 40
1.0
 40
1.0
 40
1.0
 10
81.99758318584514
 20
167.4977910045531
 30
0.0
 10
82.04217429581865
 20
166.9782551844742
 30
0.0
 10
82.4249381749424
 20
166.2725232580345
 30
0.0
 10
82.8359242755684
 20
165.9518129884387
 30
0.0
  0
SPLINE
  5
BB
330
70
100
AcDbEntity
  8
PIEZA
 62
    18
420
        0
370
     9
100
AcDbSpline
210
0.0
220
0.0
230
1.0
 70
     8
 71
     3
 72
     8
 73
     4
 74
     0
 42
0.0000000001
 43
0.0000000001
 40
0.0
 40
0.0
 40
0.0
 40
0.0
 40
1.0
 40
1.0
 40
1.0
 40
1.0
 10
82.92722316212806
 20
166.2165416251125
 30
0.0
 10
82.95756205024295
 20
166.7899776892776
 30
0.0
 10
82.59187261512801
 20
167.5160296151989
 30
0.0
 10
82.11297679401265
 20
167.8330004404456
 30
0.0
  0
LINE
  5
BC
330
70
100
AcDbEntity
  8
PIEZA
 62
    18
420
        0
370
     9
100
AcDbLine
 10
82.11297679401265
 20
167.8330004404456
 30
0.0
 11
81.99758318584514
 21
167.4977910045531
 31
0.0
  0
LINE
  5
BD
330
70
100
AcDbEntity
  8
PIEZA
 62
    18
420
        0
370
     9
100
AcDbLine
 10
82.92722316212806
 20
166.2165416251125
 30
0.0
 11
82.8359242755684
 21
165.9518129884387
 31
0.0
  0
SPLINE
  5
BE
330
70
100
AcDbEntity
  8
PIEZA
 62
    18
420
        0
370
     9
100
AcDbSpline
210
0.0
220
0.0
230
1.0
 70
     8
 71
     3
 72
     8
 73
     4
 74
     0
 42
0.0000000001
 43
0.0000000001
 40
0.0
 40
0.0
 40
0.0
 40
0.0
 40
1.0
 40
1.0
 40
1.0
 40
1.0
 10
85.74066114590683
 20
172.1887828293204
 30
0.0
 10
84.81687728058563
 20
172.6078828186282
 30
0.0
 10
83.54147981312372
 20
172.3322971791392
 30
0.0
 10
82.87331871905882
 20
171.5690228451318
 30
0.0
  0
LINE
  5
BF
330
70
100
AcDbEntity
  8
PIEZA
 62
    18
420
        0
370
     9
100
AcDbLine
 10
82.66419205772743
 20
170.4877942616051
 30
0.0
 11
84.24654146180278
 21
172.3297175479471
 31
0.0
  0
SPLINE
  5
C0
330
70
100
AcDbEntity
  8
PIEZA
 62
    18
420
        0
370
     9
100
AcDbSpline
210
0.0
220
0.0
230
1.0
 70
     8
 71
     3
 72
    11
 73
     7
 74
     0
 42
0.0000000001
 43
0.0000000001
 40
0.0
 40
0.0
 40
0.0
 40
0.0
 40
1.0
 40
1.0
 40
1.0
 40
2.0
 40
2.0
 40
2.0
 40
2.0
 10
85.21530449264313
 20
176.7068782696097
 30
0.0
 10
85.35101810029189
 20
177.4754751944456
 30
0.0
 10
84.8380439467123
 20
178.2084062868581
 30
0.0
 10
84.06962341076079
 20
178.3441551722837
 30
0.0
 10
84.05378368894266
 20
178.3470832277646
 30
0.0
 10
84.02259813418272
 20
178.3519162831972
 30
0.0
 10
84.00675841236461
 20
178.3537860053714
 30
0.0
  0
SPLINE
  5
C1
330
70
100
AcDbEntity
  8
PIEZA
 62
    18
420
        0
370
     9
100
AcDbSpline
210
0.0
220
0.0
230
1.0
 70
     8
 71
     3
 72
    14
 73
    10
 74
     0
 42
0.0000000001
 43
0.0000000001
 40
0.0
 40
0.0
 40
0.0
 40
0.0
 40
1.0
 40
1.0
 40
1.0
 40
2.0
 40
2.0
 40
2.0
 40
3.0
 40
3.0
 40
3.0
 40
3.0
 10
85.72034114642525
 20
180.363490398544
 30
0.0
 10
85.25989560261661
 20
180.9474434392017
 30
0.0
 10
84.4131231242196
 20
181.0475264922039
 30
0.0
 10
83.829172201265
 20
180.5869045595109
 30
0.0
 10
83.24521704290424
 20
180.1264590157023
 30
0.0
 10
83.14531037878641
 20
179.2796512595284
 30
0.0
 10
83.60575592259502
 20
178.6957334966476
 30
0.0
 10
83.68911942352225
 20
178.5791051662896
 30
0.0
 10
83.87841786008328
 20
178.4177138442845
 30
0.0
 10
84.00675841236461
 20
178.3537860053714
 30
0.0
  0
LINE
  5
C2
330
70
100
AcDbEntity
  8
PIEZA
 62
    18
420
        0
370
     9
100
AcDbLine
 10
84.60708034149355
 20
174.9403832895983
 30
0.0
 11
85.65246670371243
 21
177.9767416221725
 31
0.0
  0
SPLINE
  5
C3
330
70
100
AcDbEntity
  8
PIEZA
 62
    18
420
        0
370
     9
100
AcDbSpline
210
0.0
220
0.0
230
1.0
 70
     8
 71
     3
 72
     8
 73
     4
 74
     0
 42
0.0000000001
 43
0.0000000001
 40
0.0
 40
0.0
 40
0.0
 40
0.0
 40
1.0
 40
1.0
 40
1.0
 40
1.0
 10
84.12458618713634
 20
178.2409721776619
 30
0.0
 10
84.17281090812856
 20
178.2466473969936
 30
0.0
 10
84.26358062803474
 20
178.2654151742926
 30
0.0
 10
84.31011201573651
 20
178.2793851739362
 30
0.0
  0
SPLINE
  5
C4
330
70
100
AcDbEntity
  8
PIEZA
 62
    18
420
        0
370
     9
100
AcDbSpline
210
0.0
220
0.0
230
1.0
 70
     8
 71
     3
 72
     8
 73
     4
 74
     0
 42
0.0000000001
 43
0.0000000001
 40
0.0
 40
0.0
 40
0.0
 40
0.0
 40
1.0
 40
1.0
 40
1.0
 40
1.0
 10
85.97561113991275
 20
179.5671651410821
 30
0.0
 10
86.04951808247168
 20
179.7003034710189
 30
0.0
 10
86.14339442290848
 20
179.9626642976588
 30
0.0
 10
86.17097946826183
 20
180.1125242938356
 30
0.0
  0
SPLINE
  5
C5
330
70
100
AcDbEntity
  8
PIEZA
 62
    18
420
        0
370
     9
100
AcDbSpline
210
0.0
220
0.0
230
1.0
 70
     8
 71
     3
 72
     8
 73
     4
 74
     0
 42
0.0000000001
 43
0.0000000001
 40
0.0
 40
0.0
 40
0.0
 40
0.0
 40
1.0
 40
1.0
 40
1.0
 40
1.0
 10
85.85626642073526
 20
180.0487773510175
 30
0.0
 10
85.84730586540832
 20
180.1449138438526
 30
0.0
 10
85.78408808924336
 20
180.2911356781677
 30
0.0
 10
85.72034114642525
 20
180.363490398544
 30
0.0
  0
SPLINE
  5
C6
330
70
100
AcDbEntity
  8
PIEZA
 62
    18
420
        0
370
     9
100
AcDbSpline
210
0.0
220
0.0
230
1.0
 70
     8
 71
     3
 72
     8
 73
     4
 74
     0
 42
0.0000000001
 43
0.0000000001
 40
0.0
 40
0.0
 40
0.0
 40
0.0
 40
1.0
 40
1.0
 40
1.0
 40
1.0
 10
85.85626642073526
 20
180.0487773510175
 30
0.0
 10
85.88709919772645
 20
179.7280318036448
 30
0.0
 10
86.08655974819365
 20
179.2193615388443
 30
0.0
 10
86.28189279876552
 20
178.9632448787117
 30
0.0
  0
LINE
  5
C7
330
70
100
AcDbEntity
  8
PIEZA
 62
    18
420
        0
370
     9
100
AcDbLine
 10
85.96735831184146
 20
177.8682226844258
 30
0.0
 11
86.10687974767492
 21
178.2729998963213
 31
0.0
  0
SPLINE
  5
C8
330
70
100
AcDbEntity
  8
PIEZA
 62
    18
420
        0
370
     9
100
AcDbSpline
210
0.0
220
0.0
230
1.0
 70
     8
 71
     3
 72
     8
 73
     4
 74
     0
 42
0.0000000001
 43
0.0000000001
 40
0.0
 40
0.0
 40
0.0
 40
0.0
 40
1.0
 40
1.0
 40
1.0
 40
1.0
 10
90.73225490744956
 20
161.1944636653647
 30
0.0
 10
91.25799961625892
 20
162.6512241837549
 30
0.0
 10
91.8757134893886
 20
165.4693188340815
 30
0.0
 10
92.00765237491145
 20
167.012368794715
 30
0.0
  0
SPLINE
  5
C9
330
70
100
AcDbEntity
  8
PIEZA
 62
    18
420
        0
370
     9
100
AcDbSpline
210
0.0
220
0.0
230
1.0
 70
     8
 71
     3
 72
     8
 73
     4
 74
     0
 42
0.0000000001
 43
0.0000000001
 40
0.0
 40
0.0
 40
0.0
 40
0.0
 40
1.0
 40
1.0
 40
1.0
 40
1.0
 10
92.43620680842257
 20
152.9563619310914
 30
0.0
 10
92.44689597481652
 20
153.1858085919044
 30
0.0
 10
92.28825181219722
 20
153.4486985851975
 30
0.0
 10
92.08014820639526
 20
153.5458221838356
 30
0.0
  0
SPLINE
  5
CA
330
70
100
AcDbEntity
  8
PIEZA
 62
    18
420
        0
370
     9
100
AcDbSpline
210
0.0
220
0.0
230
1.0
 70
     8
 71
     3
 72
     8
 73
     4
 74
     0
 42
0.0000000001
 43
0.0000000001
 40
0.0
 40
0.0
 40
0.0
 40
0.0
 40
1.0
 40
1.0
 40
1.0
 40
1.0
 10
72.82776008645349
 20
153.5425727494693
 30
0.0
 10
72.60917898091886
 20
153.4481694185443
 30
0.0
 10
72.44242092961766
 20
153.1813283142413
 30
0.0
 10
72.45311009601161
 20
152.9436305173197
 30
0.0
  0
SPLINE
  5
CB
330
70
100
AcDbEntity
  8
PIEZA
 62
    18
420
        0
370
     9
100
AcDbSpline
210
0.0
220
0.0
230
1.0
 70
     8
 71
     3
 72
    11
 73
     7
 74
     0
 42
0.0000000001
 43
0.0000000001
 40
0.0
 40
0.0
 40
0.0
 40
0.0
 40
1.0
 40
1.0
 40
1.0
 40
2.0
 40
2.0
 40
2.0
 40
2.0
 10
122.5198249298144
 20
190.7569937444947
 30
0.0
 10
122.5997643722194
 20
190.8024667988902
 30
0.0
 10
122.6276721915652
 20
190.904102074075
 30
0.0
 10
122.5821960393343
 20
190.9840415164801
 30
0.0
 10
122.5821960393343
 20
190.9840415164801
 30
0.0
 10
122.5821960393343
 20
190.9840415164801
 30
0.0
 10
122.5821960393343
 20
190.9840415164801
 30
0.0
  0
SPLINE
  5
CC
330
70
100
AcDbEntity
  8
PIEZA
 62
    18
420
        0
370
     9
100
AcDbSpline
210
0.0
220
0.0
230
1.0
 70
     8
 71
     3
 72
    11
 73
     7
 74
     0
 42
0.0000000001
 43
0.0000000001
 40
0.0
 40
0.0
 40
0.0
 40
0.0
 40
1.0
 40
1.0
 40
1.0
 40
2.0
 40
2.0
 40
2.0
 40
2.0
 10
112.4498187978328
 20
185.2212402746125
 30
0.0
 10
112.4952918522282
 20
185.1411597210999
 30
0.0
 10
112.596927127413
 20
185.1132549995896
 30
0.0
 10
112.6768312920412
 20
185.1587280539851
 30
0.0
 10
112.6768312920412
 20
185.1587280539851
 30
0.0
 10
112.6768312920412
 20
185.1587280539851
 30
0.0
 10
112.6768312920412
 20
185.1587280539851
 30
0.0
  0
SPLINE
  5
CD
330
70
100
AcDbEntity
  8
PIEZA
 62
    18
420
        0
370
     9
100
AcDbSpline
210
0.0
220
0.0
230
1.0
 70
     8
 71
     3
 72
    11
 73
     7
 74
     0
 42
0.0000000001
 43
0.0000000001
 40
0.0
 40
0.0
 40
0.0
 40
0.0
 40
1.0
 40
1.0
 40
1.0
 40
2.0
 40
2.0
 40
2.0
 40
2.0
 10
122.4137093769661
 20
187.238176612045
 30
0.0
 10
122.4936488193711
 20
187.2836496664405
 30
0.0
 10
122.5215535408814
 20
187.3852849416253
 30
0.0
 10
122.476080486486
 20
187.4653654951378
 30
0.0
 10
122.476080486486
 20
187.4653654951378
 30
0.0
 10
122.476080486486
 20
187.4653654951378
 30
0.0
 10
122.476080486486
 20
187.4653654951378
 30
0.0
  0
SPLINE
  5
CE
330
70
100
AcDbEntity
  8
PIEZA
 62
    18
420
        0
370
     9
100
AcDbSpline
210
0.0
220
0.0
230
1.0
 70
     8
 71
     3
 72
    11
 73
     7
 74
     0
 42
0.0000000001
 43
0.0000000001
 40
0.0
 40
0.0
 40
0.0
 40
0.0
 40
1.0
 40
1.0
 40
1.0
 40
2.0
 40
2.0
 40
2.0
 40
2.0
 10
115.5197262195129
 20
183.5286830955709
 30
0.0
 10
115.5651992739083
 20
183.4487436531659
 30
0.0
 10
115.6668345490932
 20
183.4208389316556
 30
0.0
 10
115.7467739914982
 20
183.4663166208
 30
0.0
 10
115.7467739914982
 20
183.4663166208
 30
0.0
 10
115.7467739914982
 20
183.4663166208
 30
0.0
 10
115.7467739914982
 20
183.4663166208
 30
0.0
  0
SPLINE
  5
CF
330
70
100
AcDbEntity
  8
PIEZA
 62
    18
420
        0
370
     9
100
AcDbSpline
210
0.0
220
0.0
230
1.0
 70
     8
 71
     3
 72
    11
 73
     7
 74
     0
 42
0.0000000001
 43
0.0000000001
 40
0.0
 40
0.0
 40
0.0
 40
0.0
 40
1.0
 40
1.0
 40
1.0
 40
2.0
 40
2.0
 40
2.0
 40
2.0
 10
111.6398763184961
 20
187.8026610641605
 30
0.0
 10
111.1561827197251
 20
190.6336626365301
 30
0.0
 10
108.4690038993918
 20
192.5367223102012
 30
0.0
 10
105.6381739716123
 20
192.0532051003145
 30
0.0
 10
105.4579777514132
 20
192.0263587121105
 30
0.0
 10
105.1208959292536
 20
191.9446906586385
 30
0.0
 10
104.9486345447595
 20
191.8863059379058
 30
0.0
  0
SPLINE
  5
D0
330
70
100
AcDbEntity
  8
PIEZA
 62
    18
420
        0
370
     9
100
AcDbSpline
210
0.0
220
0.0
230
1.0
 70
     8
 71
     3
 72
     8
 73
     4
 74
     0
 42
0.0000000001
 43
0.0000000001
 40
0.0
 40
0.0
 40
0.0
 40
0.0
 40
1.0
 40
1.0
 40
1.0
 40
1.0
 10
109.7092294233066
 20
198.367574383666
 30
0.0
 10
108.6674413943292
 20
198.605099655384
 30
0.0
 10
106.7505881098989
 20
198.6684938204333
 30
0.0
 10
105.6953592479312
 20
198.5003599358339
 30
0.0
  0
LINE
  5
D1
330
70
100
AcDbEntity
  8
PIEZA
 62
    18
420
        0
370
     9
100
AcDbLine
 10
120.0355638820821
 20
187.040762172637
 30
0.0
 11
117.1368595115897
 21
185.4007336033665
 31
0.0
  0
LINE
  5
D2
330
70
100
AcDbEntity
  8
PIEZA
 62
    18
420
        0
370
     9
100
AcDbLine
 10
120.5278652584113
 20
186.1755394169329
 30
0.0
 11
120.0355638820821
 21
187.040762172637
 31
0.0
  0
LINE
  5
D3
330
70
100
AcDbEntity
  8
PIEZA
 62
    18
420
        0
370
     9
100
AcDbLine
 10
117.632618110053
 20
184.5289491811632
 30
0.0
 11
117.1368595115897
 21
185.4007336033665
 31
0.0
  0
SPLINE
  5
D4
330
70
100
AcDbEntity
  8
PIEZA
 62
    18
420
        0
370
     9
100
AcDbSpline
210
0.0
220
0.0
230
1.0
 70
     8
 71
     3
 72
     8
 73
     4
 74
     0
 42
0.0000000001
 43
0.0000000001
 40
0.0
 40
0.0
 40
0.0
 40
0.0
 40
1.0
 40
1.0
 40
1.0
 40
1.0
 10
120.0355638820821
 20
187.040762172637
 30
0.0
 10
118.9255486326231
 20
187.1286391148396
 30
0.0
 10
117.6332883878137
 20
186.3975777446016
 30
0.0
 10
117.1368595115897
 20
185.4007336033665
 30
0.0
  0
LINE
  5
D5
330
70
100
AcDbEntity
  8
PIEZA
 62
    18
420
        0
370
     9
100
AcDbLine
 10
75.39143331448535
 20
138.7329620161828
 30
0.0
 11
78.05430384200214
 21
138.7329620161828
 31
0.0
  0
LINE
  5
D6
330
70
100
AcDbEntity
  8
PIEZA
 62
    18
420
        0
370
     9
100
AcDbLine
 10
75.39143331448535
 20
134.4059310154634
 30
0.0
 11
78.05430384200214
 21
134.4059310154634
 31
0.0
  0
SPLINE
  5
D7
330
70
100
AcDbEntity
  8
PIEZA
 62
    18
420
        0
370
     9
100
AcDbSpline
210
0.0
220
0.0
230
1.0
 70
     8
 71
     3
 72
    11
 73
     7
 74
     0
 42
0.0000000001
 43
0.0000000001
 40
0.0
 40
0.0
 40
0.0
 40
0.0
 40
1.0
 40
1.0
 40
1.0
 40
2.0
 40
2.0
 40
2.0
 40
2.0
 10
78.05430384200214
 20
134.4059310154634
 30
0.0
 10
78.14613189521496
 20
134.4059310154634
 30
0.0
 10
78.22071109155595
 20
134.4803318468986
 30
0.0
 10
78.22071109155595
 20
134.572301011219
 30
0.0
 10
78.22071109155595
 20
134.572301011219
 30
0.0
 10
78.22071109155595
 20
134.572301011219
 30
0.0
 10
78.22071109155595
 20
134.572301011219
 30
0.0
  0
SPLINE
  5
D8
330
70
100
AcDbEntity
  8
PIEZA
 62
    18
420
        0
370
     9
100
AcDbSpline
210
0.0
220
0.0
230
1.0
 70
     8
 71
     3
 72
    11
 73
     7
 74
     0
 42
0.0000000001
 43
0.0000000001
 40
0.0
 40
0.0
 40
0.0
 40
0.0
 40
1.0
 40
1.0
 40
1.0
 40
2.0
 40
2.0
 40
2.0
 40
2.0
 10
75.22502613640525
 20
134.572301011219
 30
0.0
 10
75.22502613640525
 20
134.4803318468986
 30
0.0
 10
75.29946224561733
 20
134.4059310154634
 30
0.0
 10
75.39143331448535
 20
134.4059310154634
 30
0.0
 10
75.39143331448535
 20
134.4059310154634
 30
0.0
 10
75.39143331448535
 20
134.4059310154634
 30
0.0
 10
75.39143331448535
 20
134.4059310154634
 30
0.0
  0
LINE
  5
D9
330
70
100
AcDbEntity
  8
PIEZA
 62
    18
420
        0
370
     9
100
AcDbLine
 10
75.89061386991609
 20
138.4718359117336
 30
0.0
 11
75.89061386991609
 21
134.6670571199127
 31
0.0
  0
LINE
  5
DA
330
70
100
AcDbEntity
  8
PIEZA
 62
    18
420
        0
370
     9
100
AcDbLine
 10
77.55494691029736
 20
138.4718359117336
 30
0.0
 11
77.55494691029736
 21
134.6670571199127
 31
0.0
  0
LINE
  5
DB
330
70
100
AcDbEntity
  8
PIEZA
 62
    18
420
        0
370
     9
100
AcDbLine
 10
75.22502613640525
 20
138.5665567426504
 30
0.0
 11
75.22502613640525
 21
134.572301011219
 31
0.0
  0
SPLINE
  5
DC
330
70
100
AcDbEntity
  8
PIEZA
 62
    18
420
        0
370
     9
100
AcDbSpline
210
0.0
220
0.0
230
1.0
 70
     8
 71
     3
 72
    11
 73
     7
 74
     0
 42
0.0000000001
 43
0.0000000001
 40
0.0
 40
0.0
 40
0.0
 40
0.0
 40
1.0
 40
1.0
 40
1.0
 40
2.0
 40
2.0
 40
2.0
 40
2.0
 10
75.39143331448535
 20
138.7329620161828
 30
0.0
 10
75.29946224561733
 20
138.7329620161828
 30
0.0
 10
75.22502613640525
 20
138.6585611847476
 30
0.0
 10
75.22502613640525
 20
138.5665567426504
 30
0.0
 10
75.22502613640525
 20
138.5665567426504
 30
0.0
 10
75.22502613640525
 20
138.5665567426504
 30
0.0
 10
75.22502613640525
 20
138.5665567426504
 30
0.0
  0
LINE
  5
DD
330
70
100
AcDbEntity
  8
PIEZA
 62
    18
420
        0
370
     9
100
AcDbLine
 10
78.22071109155595
 20
138.5665567426504
 30
0.0
 11
78.22071109155595
 21
134.572301011219
 31
0.0
  0
SPLINE
  5
DE
330
70
100
AcDbEntity
  8
PIEZA
 62
    18
420
        0
370
     9
100
AcDbSpline
210
0.0
220
0.0
230
1.0
 70
     8
 71
     3
 72
    11
 73
     7
 74
     0
 42
0.0000000001
 43
0.0000000001
 40
0.0
 40
0.0
 40
0.0
 40
0.0
 40
1.0
 40
1.0
 40
1.0
 40
2.0
 40
2.0
 40
2.0
 40
2.0
 10
78.22071109155595
 20
138.5665567426504
 30
0.0
 10
78.22071109155595
 20
138.6585611847476
 30
0.0
 10
78.14613189521496
 20
138.7329620161828
 30
0.0
 10
78.05430384200214
 20
138.7329620161828
 30
0.0
 10
78.05430384200214
 20
138.7329620161828
 30
0.0
 10
78.05430384200214
 20
138.7329620161828
 30
0.0
 10
78.05430384200214
 20
138.7329620161828
 30
0.0
  0
SPLINE
  5
DF
330
70
100
AcDbEntity
  8
PIEZA
 62
    18
420
        0
370
     9
100
AcDbSpline
210
0.0
220
0.0
230
1.0
 70
     8
 71
     3
 72
     8
 73
     4
 74
     0
 42
0.0000000001
 43
0.0000000001
 40
0.0
 40
0.0
 40
0.0
 40
0.0
 40
1.0
 40
1.0
 40
1.0
 40
1.0
 10
77.55494691029736
 20
138.4718359117336
 30
0.0
 10
77.0928080331986
 20
138.8201334028478
 30
0.0
 10
76.3527861076337
 20
138.8201334028478
 30
0.0
 10
75.89061386991609
 20
138.4718359117336
 30
0.0
  0
SPLINE
  5
E0
330
70
100
AcDbEntity
  8
PIEZA
 62
    18
420
        0
370
     9
100
AcDbSpline
210
0.0
220
0.0
230
1.0
 70
     8
 71
     3
 72
     8
 73
     4
 74
     0
 42
0.0000000001
 43
0.0000000001
 40
0.0
 40
0.0
 40
0.0
 40
0.0
 40
1.0
 40
1.0
 40
1.0
 40
1.0
 10
75.89061386991609
 20
138.4718359117336
 30
0.0
 10
75.75144112297529
 20
138.5630995205163
 30
0.0
 10
75.47479279669984
 20
138.6781756286916
 30
0.0
 10
75.31202113418583
 20
138.7129595166931
 30
0.0
  0
SPLINE
  5
E1
330
70
100
AcDbEntity
  8
PIEZA
 62
    18
420
        0
370
     9
100
AcDbSpline
210
0.0
220
0.0
230
1.0
 70
     8
 71
     3
 72
     8
 73
     4
 74
     0
 42
0.0000000001
 43
0.0000000001
 40
0.0
 40
0.0
 40
0.0
 40
0.0
 40
1.0
 40
1.0
 40
1.0
 40
1.0
 10
78.13371411775399
 20
138.7129595166931
 30
0.0
 10
77.97094442495186
 20
138.6781756286916
 30
0.0
 10
77.69415301785702
 20
138.5630995205163
 30
0.0
 10
77.55494691029736
 20
138.4718359117336
 30
0.0
  0
SPLINE
  5
E2
330
70
100
AcDbEntity
  8
PIEZA
 62
    18
420
        0
370
     9
100
AcDbSpline
210
0.0
220
0.0
230
1.0
 70
     8
 71
     3
 72
     8
 73
     4
 74
     0
 42
0.0000000001
 43
0.0000000001
 40
0.0
 40
0.0
 40
0.0
 40
0.0
 40
1.0
 40
1.0
 40
1.0
 40
1.0
 10
75.89061386991609
 20
134.6670571199127
 30
0.0
 10
76.3527861076337
 20
134.3187596287985
 30
0.0
 10
77.0928080331986
 20
134.3187596287985
 30
0.0
 10
77.55494691029736
 20
134.6670571199127
 30
0.0
  0
SPLINE
  5
E3
330
70
100
AcDbEntity
  8
PIEZA
 62
    18
420
        0
370
     9
100
AcDbSpline
210
0.0
220
0.0
230
1.0
 70
     8
 71
     3
 72
     8
 73
     4
 74
     0
 42
0.0000000001
 43
0.0000000001
 40
0.0
 40
0.0
 40
0.0
 40
0.0
 40
1.0
 40
1.0
 40
1.0
 40
1.0
 10
75.31202113418583
 20
134.426251014945
 30
0.0
 10
75.47479279669984
 20
134.4606821251777
 30
0.0
 10
75.75144112297529
 20
134.5761110111218
 30
0.0
 10
75.89061386991609
 20
134.6670571199127
 30
0.0
  0
SPLINE
  5
E4
330
70
100
AcDbEntity
  8
PIEZA
 62
    18
420
        0
370
     9
100
AcDbSpline
210
0.0
220
0.0
230
1.0
 70
     8
 71
     3
 72
     8
 73
     4
 74
     0
 42
0.0000000001
 43
0.0000000001
 40
0.0
 40
0.0
 40
0.0
 40
0.0
 40
1.0
 40
1.0
 40
1.0
 40
1.0
 10
77.55494691029736
 20
134.6670571199127
 30
0.0
 10
77.69415301785702
 20
134.5761110111218
 30
0.0
 10
77.97094442495186
 20
134.4606821251777
 30
0.0
 10
78.13371411775399
 20
134.426251014945
 30
0.0
  0
LINE
  5
E5
330
70
100
AcDbEntity
  8
PIEZA
 62
    18
420
        0
370
     9
100
AcDbLine
 10
75.72424195700254
 20
138.7329620161828
 30
0.0
 11
75.89061386991609
 21
138.8993672897152
 31
0.0
  0
LINE
  5
E6
330
70
100
AcDbEntity
  8
PIEZA
 62
    18
420
        0
370
     9
100
AcDbLine
 10
75.89061386991609
 20
138.8993672897152
 30
0.0
 11
75.72424195700254
 21
139.0657372854708
 31
0.0
  0
LINE
  5
E7
330
70
100
AcDbEntity
  8
PIEZA
 62
    18
420
        0
370
     9
100
AcDbLine
 10
75.72424195700254
 20
139.0657372854708
 30
0.0
 11
75.89061386991609
 21
139.2321425590032
 31
0.0
  0
LINE
  5
E8
330
70
100
AcDbEntity
  8
PIEZA
 62
    18
420
        0
370
     9
100
AcDbLine
 10
75.89061386991609
 20
139.2321425590032
 30
0.0
 11
75.72424195700254
 21
139.3989006103044
 31
0.0
  0
LINE
  5
E9
330
70
100
AcDbEntity
  8
PIEZA
 62
    18
420
        0
370
     9
100
AcDbLine
 10
75.72424195700254
 20
139.3989006103044
 30
0.0
 11
75.89061386991609
 21
139.5653058838368
 31
0.0
  0
LINE
  5
EA
330
70
100
AcDbEntity
  8
PIEZA
 62
    18
420
        0
370
     9
100
AcDbLine
 10
75.89061386991609
 20
139.5653058838368
 30
0.0
 11
75.72424195700254
 21
139.7316758795924
 31
0.0
  0
LINE
  5
EB
330
70
100
AcDbEntity
  8
PIEZA
 62
    18
420
        0
370
     9
100
AcDbLine
 10
75.72424195700254
 20
139.7316758795924
 30
0.0
 11
75.89061386991609
 21
139.8980811531248
 31
0.0
  0
LINE
  5
EC
330
70
100
AcDbEntity
  8
PIEZA
 62
    18
420
        0
370
     9
100
AcDbLine
 10
75.89061386991609
 20
139.8980811531248
 30
0.0
 11
75.72424195700254
 21
140.0644864266572
 31
0.0
  0
LINE
  5
ED
330
70
100
AcDbEntity
  8
PIEZA
 62
    18
420
        0
370
     9
100
AcDbLine
 10
75.72424195700254
 20
141.7842780494483
 30
0.0
 11
75.89061386991609
 21
141.9510361007495
 31
0.0
  0
LINE
  5
EE
330
70
100
AcDbEntity
  8
PIEZA
 62
    18
420
        0
370
     9
100
AcDbLine
 10
75.89061386991609
 20
141.9510361007495
 30
0.0
 11
75.72424195700254
 21
142.1174060965051
 31
0.0
  0
LINE
  5
EF
330
70
100
AcDbEntity
  8
PIEZA
 62
    18
420
        0
370
     9
100
AcDbLine
 10
75.72424195700254
 20
142.1174060965051
 30
0.0
 11
75.89061386991609
 21
142.2838113700375
 31
0.0
  0
LINE
  5
F0
330
70
100
AcDbEntity
  8
PIEZA
 62
    18
420
        0
370
     9
100
AcDbLine
 10
75.89061386991609
 20
142.2838113700375
 30
0.0
 11
75.72424195700254
 21
142.45021664357
 31
0.0
  0
LINE
  5
F1
330
70
100
AcDbEntity
  8
PIEZA
 62
    18
420
        0
370
     9
100
AcDbLine
 10
75.72424195700254
 20
142.45021664357
 30
0.0
 11
75.89061386991609
 21
142.6166219171024
 31
0.0
  0
LINE
  5
F2
330
70
100
AcDbEntity
  8
PIEZA
 62
    18
420
        0
370
     9
100
AcDbLine
 10
75.89061386991609
 20
142.6166219171024
 30
0.0
 11
75.72424195700254
 21
142.7830271906348
 31
0.0
  0
LINE
  5
F3
330
70
100
AcDbEntity
  8
PIEZA
 62
    18
420
        0
370
     9
100
AcDbLine
 10
75.72424195700254
 20
142.7830271906348
 30
0.0
 11
75.89061386991609
 21
142.9493971863903
 31
0.0
  0
LINE
  5
F4
330
70
100
AcDbEntity
  8
PIEZA
 62
    18
420
        0
370
     9
100
AcDbLine
 10
75.89061386991609
 20
142.9493971863903
 30
0.0
 11
75.72424195700254
 21
143.1158024599228
 31
0.0
  0
LINE
  5
F5
330
70
100
AcDbEntity
  8
PIEZA
 62
    18
420
        0
370
     9
100
AcDbLine
 10
75.82499720326594
 20
143.9581299384332
 30
0.0
 11
75.72424195700254
 21
144.0587421580886
 31
0.0
  0
LINE
  5
F6
330
70
100
AcDbEntity
  8
PIEZA
 62
    18
420
        0
370
     9
100
AcDbLine
 10
75.72424195700254
 20
144.0587421580886
 30
0.0
 11
75.89061386991609
 21
144.2251121538442
 31
0.0
  0
LINE
  5
F7
330
70
100
AcDbEntity
  8
PIEZA
 62
    18
420
        0
370
     9
100
AcDbLine
 10
75.89061386991609
 20
144.2251121538442
 30
0.0
 11
75.72424195700254
 21
144.3915174273766
 31
0.0
  0
LINE
  5
F8
330
70
100
AcDbEntity
  8
PIEZA
 62
    18
420
        0
370
     9
100
AcDbLine
 10
75.72424195700254
 20
144.3915174273766
 30
0.0
 11
75.89061386991609
 21
144.557922700909
 31
0.0
  0
LINE
  5
F9
330
70
100
AcDbEntity
  8
PIEZA
 62
    18
420
        0
370
     9
100
AcDbLine
 10
75.89061386991609
 20
144.557922700909
 30
0.0
 11
75.72424195700254
 21
144.7243279744414
 31
0.0
  0
LINE
  5
FA
330
70
100
AcDbEntity
  8
PIEZA
 62
    18
420
        0
370
     9
100
AcDbLine
 10
75.72424195700254
 20
144.7243279744414
 30
0.0
 11
75.89061386991609
 21
144.8907332479739
 31
0.0
  0
LINE
  5
FB
330
70
100
AcDbEntity
  8
PIEZA
 62
    18
420
        0
370
     9
100
AcDbLine
 10
75.89061386991609
 20
144.8907332479739
 30
0.0
 11
75.72424195700254
 21
145.0574560214982
 31
0.0
  0
LINE
  5
FC
330
70
100
AcDbEntity
  8
PIEZA
 62
    18
420
        0
370
     9
100
AcDbLine
 10
75.72424195700254
 20
145.0574560214982
 30
0.0
 11
75.89061386991609
 21
145.2238612950306
 31
0.0
  0
LINE
  5
FD
330
70
100
AcDbEntity
  8
PIEZA
 62
    18
420
        0
370
     9
100
AcDbLine
 10
75.89061386991609
 20
145.2238612950306
 30
0.0
 11
75.72424195700254
 21
145.390266568563
 31
0.0
  0
LINE
  5
FE
330
70
100
AcDbEntity
  8
PIEZA
 62
    18
420
        0
370
     9
100
AcDbLine
 10
75.72424195700254
 20
145.390266568563
 30
0.0
 11
75.89061386991609
 21
145.5566718420955
 31
0.0
  0
LINE
  5
FF
330
70
100
AcDbEntity
  8
PIEZA
 62
    18
420
        0
370
     9
100
AcDbLine
 10
75.89061386991609
 20
145.5566718420955
 30
0.0
 11
75.72424195700254
 21
145.723041837851
 31
0.0
  0
LINE
  5
100
330
70
100
AcDbEntity
  8
PIEZA
 62
    18
420
        0
370
     9
100
AcDbLine
 10
75.72424195700254
 20
145.723041837851
 30
0.0
 11
75.89061386991609
 21
145.8894471113834
 31
0.0
  0
LINE
  5
101
330
70
100
AcDbEntity
  8
PIEZA
 62
    18
420
        0
370
     9
100
AcDbLine
 10
75.89061386991609
 20
145.8894471113834
 30
0.0
 11
75.72424195700254
 21
146.0558523849158
 31
0.0
  0
LINE
  5
102
330
70
100
AcDbEntity
  8
PIEZA
 62
    18
420
        0
370
     9
100
AcDbLine
 10
75.72424195700254
 20
146.0558523849158
 30
0.0
 11
75.7328497345607
 21
146.0644638523725
 31
0.0
  0
LINE
  5
103
330
70
100
AcDbEntity
  8
PIEZA
 62
    18
420
        0
370
     9
100
AcDbLine
 10
75.7328497345607
 20
146.7300459788269
 30
0.0
 11
75.89061386991609
 21
146.8878471855003
 31
0.0
  0
LINE
  5
104
330
70
100
AcDbEntity
  8
PIEZA
 62
    18
420
        0
370
     9
100
AcDbLine
 10
75.89061386991609
 20
146.8878471855003
 30
0.0
 11
75.72424195700254
 21
147.0546015261023
 31
0.0
  0
LINE
  5
105
330
70
100
AcDbEntity
  8
PIEZA
 62
    18
420
        0
370
     9
100
AcDbLine
 10
75.72424195700254
 20
147.0546015261023
 30
0.0
 11
75.89061386991609
 21
147.2209715218578
 31
0.0
  0
LINE
  5
106
330
70
100
AcDbEntity
  8
PIEZA
 62
    18
420
        0
370
     9
100
AcDbLine
 10
75.89061386991609
 20
147.2209715218578
 30
0.0
 11
75.72424195700254
 21
147.3873805187084
 31
0.0
  0
LINE
  5
107
330
70
100
AcDbEntity
  8
PIEZA
 62
    18
420
        0
370
     9
100
AcDbLine
 10
75.72424195700254
 20
147.3873805187084
 30
0.0
 11
75.89061386991609
 21
147.5537820689227
 31
0.0
  0
LINE
  5
108
330
70
100
AcDbEntity
  8
PIEZA
 62
    18
420
        0
370
     9
100
AcDbLine
 10
75.89061386991609
 20
147.5537820689227
 30
0.0
 11
75.72424195700254
 21
147.7201873424552
 31
0.0
  0
LINE
  5
109
330
70
100
AcDbEntity
  8
PIEZA
 62
    18
420
        0
370
     9
100
AcDbLine
 10
75.72424195700254
 20
147.7201873424552
 30
0.0
 11
75.89061386991609
 21
147.8865926159875
 31
0.0
  0
LINE
  5
10A
330
70
100
AcDbEntity
  8
PIEZA
 62
    18
420
        0
370
     9
100
AcDbLine
 10
75.89061386991609
 20
147.8865926159875
 30
0.0
 11
75.72424195700254
 21
148.0529626117431
 31
0.0
  0
LINE
  5
10B
330
70
100
AcDbEntity
  8
PIEZA
 62
    18
420
        0
370
     9
100
AcDbLine
 10
75.72424195700254
 20
148.0529626117431
 30
0.0
 11
75.89061386991609
 21
148.2193678852755
 31
0.0
  0
LINE
  5
10C
330
70
100
AcDbEntity
  8
PIEZA
 62
    18
420
        0
370
     9
100
AcDbLine
 10
75.89061386991609
 20
148.2193678852755
 30
0.0
 11
75.72424195700254
 21
148.385773158808
 31
0.0
  0
LINE
  5
10D
330
70
100
AcDbEntity
  8
PIEZA
 62
    18
420
        0
370
     9
100
AcDbLine
 10
75.72424195700254
 20
148.385773158808
 30
0.0
 11
75.89061386991609
 21
148.5523548212251
 31
0.0
  0
LINE
  5
10E
330
70
100
AcDbEntity
  8
PIEZA
 62
    18
420
        0
370
     9
100
AcDbLine
 10
75.89061386991609
 20
148.5523548212251
 30
0.0
 11
75.72424195700254
 21
148.7187248169803
 31
0.0
  0
LINE
  5
10F
330
70
100
AcDbEntity
  8
PIEZA
 62
    18
420
        0
370
     9
100
AcDbLine
 10
75.72424195700254
 20
148.7187248169803
 30
0.0
 11
75.89061386991609
 21
148.8851300905128
 31
0.0
  0
LINE
  5
110
330
70
100
AcDbEntity
  8
PIEZA
 62
    18
420
        0
370
     9
100
AcDbLine
 10
75.89061386991609
 20
148.8851300905128
 30
0.0
 11
75.72424195700254
 21
149.0515353640452
 31
0.0
  0
LINE
  5
111
330
70
100
AcDbEntity
  8
PIEZA
 62
    18
420
        0
370
     9
100
AcDbLine
 10
75.72424195700254
 20
149.0515353640452
 30
0.0
 11
75.89061386991609
 21
149.2179444071398
 31
0.0
  0
LINE
  5
112
330
70
100
AcDbEntity
  8
PIEZA
 62
    18
420
        0
370
     9
100
AcDbLine
 10
75.89061386991609
 20
149.2179444071398
 30
0.0
 11
75.72424195700254
 21
149.3844870222176
 31
0.0
  0
LINE
  5
113
330
70
100
AcDbEntity
  8
PIEZA
 62
    18
420
        0
370
     9
100
AcDbLine
 10
75.72424195700254
 20
149.3844870222176
 30
0.0
 11
75.89061386991609
 21
149.5508922957499
 31
0.0
  0
LINE
  5
114
330
70
100
AcDbEntity
  8
PIEZA
 62
    18
420
        0
370
     9
100
AcDbLine
 10
75.89061386991609
 20
149.5508922957499
 30
0.0
 11
75.72424195700254
 21
149.7172975692824
 31
0.0
  0
LINE
  5
115
330
70
100
AcDbEntity
  8
PIEZA
 62
    18
420
        0
370
     9
100
AcDbLine
 10
75.72424195700254
 20
149.7172975692824
 30
0.0
 11
75.89061386991609
 21
149.8837028428148
 31
0.0
  0
LINE
  5
116
330
70
100
AcDbEntity
  8
PIEZA
 62
    18
420
        0
370
     9
100
AcDbLine
 10
75.89061386991609
 20
149.8837028428148
 30
0.0
 11
75.72424195700254
 21
150.0501081163472
 31
0.0
  0
LINE
  5
117
330
70
100
AcDbEntity
  8
PIEZA
 62
    18
420
        0
370
     9
100
AcDbLine
 10
75.72424195700254
 20
150.0501081163472
 30
0.0
 11
75.89061386991609
 21
150.2164781121028
 31
0.0
  0
LINE
  5
118
330
70
100
AcDbEntity
  8
PIEZA
 62
    18
420
        0
370
     9
100
AcDbLine
 10
75.89061386991609
 20
150.2164781121028
 30
0.0
 11
75.72424195700254
 21
150.3830597745196
 31
0.0
  0
LINE
  5
119
330
70
100
AcDbEntity
  8
PIEZA
 62
    18
420
        0
370
     9
100
AcDbLine
 10
75.72424195700254
 20
150.3830597745196
 30
0.0
 11
75.89061386991609
 21
150.549465048052
 31
0.0
  0
LINE
  5
11A
330
70
100
AcDbEntity
  8
PIEZA
 62
    18
420
        0
370
     9
100
AcDbLine
 10
75.89061386991609
 20
150.549465048052
 30
0.0
 11
75.72424195700254
 21
150.7158703215845
 31
0.0
  0
LINE
  5
11B
330
70
100
AcDbEntity
  8
PIEZA
 62
    18
420
        0
370
     9
100
AcDbLine
 10
75.72424195700254
 20
150.7158703215845
 30
0.0
 11
75.89061386991609
 21
150.8822755951169
 31
0.0
  0
LINE
  5
11C
330
70
100
AcDbEntity
  8
PIEZA
 62
    18
420
        0
370
     9
100
AcDbLine
 10
75.89061386991609
 20
150.8822755951169
 30
0.0
 11
75.72424195700254
 21
151.0486455908724
 31
0.0
  0
LINE
  5
11D
330
70
100
AcDbEntity
  8
PIEZA
 62
    18
420
        0
370
     9
100
AcDbLine
 10
75.72424195700254
 20
151.0486455908724
 30
0.0
 11
75.89061386991609
 21
151.2150508644048
 31
0.0
  0
LINE
  5
11E
330
70
100
AcDbEntity
  8
PIEZA
 62
    18
420
        0
370
     9
100
AcDbLine
 10
75.89061386991609
 20
151.2150508644048
 30
0.0
 11
75.72424195700254
 21
151.3816325268217
 31
0.0
  0
LINE
  5
11F
330
70
100
AcDbEntity
  8
PIEZA
 62
    18
420
        0
370
     9
100
AcDbLine
 10
75.72424195700254
 20
151.3816325268217
 30
0.0
 11
75.89061386991609
 21
151.5480416287797
 31
0.0
  0
LINE
  5
120
330
70
100
AcDbEntity
  8
PIEZA
 62
    18
420
        0
370
     9
100
AcDbLine
 10
75.89061386991609
 20
151.5480416287797
 30
0.0
 11
75.72424195700254
 21
151.71440779611
 31
0.0
  0
LINE
  5
121
330
70
100
AcDbEntity
  8
PIEZA
 62
    18
420
        0
370
     9
100
AcDbLine
 10
75.72424195700254
 20
151.71440779611
 30
0.0
 11
75.89061386991609
 21
151.8808130696421
 31
0.0
  0
LINE
  5
122
330
70
100
AcDbEntity
  8
PIEZA
 62
    18
420
        0
370
     9
100
AcDbLine
 10
75.89061386991609
 20
151.8808130696421
 30
0.0
 11
75.72424195700254
 21
152.0472221842104
 31
0.0
  0
LINE
  5
123
330
70
100
AcDbEntity
  8
PIEZA
 62
    18
420
        0
370
     9
100
AcDbLine
 10
77.72135218382977
 20
138.7329620161828
 30
0.0
 11
77.55494691029736
 21
138.8993672897152
 31
0.0
  0
LINE
  5
124
330
70
100
AcDbEntity
  8
PIEZA
 62
    18
420
        0
370
     9
100
AcDbLine
 10
77.55494691029736
 20
138.8993672897152
 30
0.0
 11
77.72135218382977
 21
139.0657372854708
 31
0.0
  0
LINE
  5
125
330
70
100
AcDbEntity
  8
PIEZA
 62
    18
420
        0
370
     9
100
AcDbLine
 10
77.72135218382977
 20
139.0657372854708
 30
0.0
 11
77.55494691029736
 21
139.2321425590032
 31
0.0
  0
LINE
  5
126
330
70
100
AcDbEntity
  8
PIEZA
 62
    18
420
        0
370
     9
100
AcDbLine
 10
77.55494691029736
 20
139.2321425590032
 30
0.0
 11
77.72135218382977
 21
139.3989006103044
 31
0.0
  0
LINE
  5
127
330
70
100
AcDbEntity
  8
PIEZA
 62
    18
420
        0
370
     9
100
AcDbLine
 10
77.72135218382977
 20
139.3989006103044
 30
0.0
 11
77.55494691029736
 21
139.5653058838368
 31
0.0
  0
LINE
  5
128
330
70
100
AcDbEntity
  8
PIEZA
 62
    18
420
        0
370
     9
100
AcDbLine
 10
77.55494691029736
 20
139.5653058838368
 30
0.0
 11
77.72135218382977
 21
139.7316758795924
 31
0.0
  0
LINE
  5
129
330
70
100
AcDbEntity
  8
PIEZA
 62
    18
420
        0
370
     9
100
AcDbLine
 10
77.72135218382977
 20
139.7316758795924
 30
0.0
 11
77.55494691029736
 21
139.8980811531248
 31
0.0
  0
LINE
  5
12A
330
70
100
AcDbEntity
  8
PIEZA
 62
    18
420
        0
370
     9
100
AcDbLine
 10
77.55494691029736
 20
139.8980811531248
 30
0.0
 11
77.72135218382977
 21
140.0644864266572
 31
0.0
  0
LINE
  5
12B
330
70
100
AcDbEntity
  8
PIEZA
 62
    18
420
        0
370
     9
100
AcDbLine
 10
77.72135218382977
 20
140.0644864266572
 30
0.0
 11
77.55494691029736
 21
140.2308917001897
 31
0.0
  0
LINE
  5
12C
330
70
100
AcDbEntity
  8
PIEZA
 62
    18
420
        0
370
     9
100
AcDbLine
 10
77.55494691029736
 20
140.2308917001897
 30
0.0
 11
77.6252222028159
 21
140.3011650317302
 31
0.0
  0
LINE
  5
12D
330
70
100
AcDbEntity
  8
PIEZA
 62
    18
420
        0
370
     9
100
AcDbLine
 10
77.72135218382977
 20
141.7842780494483
 30
0.0
 11
77.55494691029736
 21
141.9510361007495
 31
0.0
  0
LINE
  5
12E
330
70
100
AcDbEntity
  8
PIEZA
 62
    18
420
        0
370
     9
100
AcDbLine
 10
77.55494691029736
 20
141.9510361007495
 30
0.0
 11
77.72135218382977
 21
142.1174060965051
 31
0.0
  0
LINE
  5
12F
330
70
100
AcDbEntity
  8
PIEZA
 62
    18
420
        0
370
     9
100
AcDbLine
 10
77.72135218382977
 20
142.1174060965051
 30
0.0
 11
77.55494691029736
 21
142.2838113700375
 31
0.0
  0
LINE
  5
130
330
70
100
AcDbEntity
  8
PIEZA
 62
    18
420
        0
370
     9
100
AcDbLine
 10
77.55494691029736
 20
142.2838113700375
 30
0.0
 11
77.72135218382977
 21
142.45021664357
 31
0.0
  0
LINE
  5
131
330
70
100
AcDbEntity
  8
PIEZA
 62
    18
420
        0
370
     9
100
AcDbLine
 10
77.72135218382977
 20
142.45021664357
 30
0.0
 11
77.55494691029736
 21
142.6166219171024
 31
0.0
  0
LINE
  5
132
330
70
100
AcDbEntity
  8
PIEZA
 62
    18
420
        0
370
     9
100
AcDbLine
 10
77.55494691029736
 20
142.6166219171024
 30
0.0
 11
77.72135218382977
 21
142.7830271906348
 31
0.0
  0
LINE
  5
133
330
70
100
AcDbEntity
  8
PIEZA
 62
    18
420
        0
370
     9
100
AcDbLine
 10
77.72135218382977
 20
142.7830271906348
 30
0.0
 11
77.55494691029736
 21
142.9493971863903
 31
0.0
  0
LINE
  5
134
330
70
100
AcDbEntity
  8
PIEZA
 62
    18
420
        0
370
     9
100
AcDbLine
 10
77.55494691029736
 20
142.9493971863903
 30
0.0
 11
77.72135218382977
 21
143.1158024599228
 31
0.0
  0
LINE
  5
135
330
70
100
AcDbEntity
  8
PIEZA
 62
    18
420
        0
370
     9
100
AcDbLine
 10
77.62073996417439
 20
143.9581299384332
 30
0.0
 11
77.72135218382977
 21
144.0587421580886
 31
0.0
  0
LINE
  5
136
330
70
100
AcDbEntity
  8
PIEZA
 62
    18
420
        0
370
     9
100
AcDbLine
 10
77.72135218382977
 20
144.0587421580886
 30
0.0
 11
77.55494691029736
 21
144.2251121538442
 31
0.0
  0
LINE
  5
137
330
70
100
AcDbEntity
  8
PIEZA
 62
    18
420
        0
370
     9
100
AcDbLine
 10
77.55494691029736
 20
144.2251121538442
 30
0.0
 11
77.72135218382977
 21
144.3915174273766
 31
0.0
  0
LINE
  5
138
330
70
100
AcDbEntity
  8
PIEZA
 62
    18
420
        0
370
     9
100
AcDbLine
 10
77.72135218382977
 20
144.3915174273766
 30
0.0
 11
77.55494691029736
 21
144.557922700909
 31
0.0
  0
LINE
  5
139
330
70
100
AcDbEntity
  8
PIEZA
 62
    18
420
        0
370
     9
100
AcDbLine
 10
77.55494691029736
 20
144.557922700909
 30
0.0
 11
77.72135218382977
 21
144.7243279744414
 31
0.0
  0
LINE
  5
13A
330
70
100
AcDbEntity
  8
PIEZA
 62
    18
420
        0
370
     9
100
AcDbLine
 10
77.72135218382977
 20
144.7243279744414
 30
0.0
 11
77.55494691029736
 21
144.8907332479739
 31
0.0
  0
LINE
  5
13B
330
70
100
AcDbEntity
  8
PIEZA
 62
    18
420
        0
370
     9
100
AcDbLine
 10
77.55494691029736
 20
144.8907332479739
 30
0.0
 11
77.72135218382977
 21
145.0574560214982
 31
0.0
  0
LINE
  5
13C
330
70
100
AcDbEntity
  8
PIEZA
 62
    18
420
        0
370
     9
100
AcDbLine
 10
77.72135218382977
 20
145.0574560214982
 30
0.0
 11
77.55494691029736
 21
145.2238612950306
 31
0.0
  0
LINE
  5
13D
330
70
100
AcDbEntity
  8
PIEZA
 62
    18
420
        0
370
     9
100
AcDbLine
 10
77.55494691029736
 20
145.2238612950306
 30
0.0
 11
77.72135218382977
 21
145.390266568563
 31
0.0
  0
LINE
  5
13E
330
70
100
AcDbEntity
  8
PIEZA
 62
    18
420
        0
370
     9
100
AcDbLine
 10
77.72135218382977
 20
145.390266568563
 30
0.0
 11
77.55494691029736
 21
145.5566718420955
 31
0.0
  0
LINE
  5
13F
330
70
100
AcDbEntity
  8
PIEZA
 62
    18
420
        0
370
     9
100
AcDbLine
 10
77.55494691029736
 20
145.5566718420955
 30
0.0
 11
77.72135218382977
 21
145.723041837851
 31
0.0
  0
LINE
  5
140
330
70
100
AcDbEntity
  8
PIEZA
 62
    18
420
        0
370
     9
100
AcDbLine
 10
77.72135218382977
 20
145.723041837851
 30
0.0
 11
77.55494691029736
 21
145.8894471113834
 31
0.0
  0
LINE
  5
141
330
70
100
AcDbEntity
  8
PIEZA
 62
    18
420
        0
370
     9
100
AcDbLine
 10
77.55494691029736
 20
145.8894471113834
 30
0.0
 11
77.72135218382977
 21
146.0558523849158
 31
0.0
  0
LINE
  5
142
330
70
100
AcDbEntity
  8
PIEZA
 62
    18
420
        0
370
     9
100
AcDbLine
 10
77.72135218382977
 20
146.0558523849158
 30
0.0
 11
77.712920795156
 21
146.0644638523725
 31
0.0
  0
LINE
  5
143
330
70
100
AcDbEntity
  8
PIEZA
 62
    18
420
        0
370
     9
100
AcDbLine
 10
77.712920795156
 20
146.7300459788269
 30
0.0
 11
77.55494691029736
 21
146.8878471855003
 31
0.0
  0
LINE
  5
144
330
70
100
AcDbEntity
  8
PIEZA
 62
    18
420
        0
370
     9
100
AcDbLine
 10
77.55494691029736
 20
146.8878471855003
 30
0.0
 11
77.72135218382977
 21
147.0546015261023
 31
0.0
  0
LINE
  5
145
330
70
100
AcDbEntity
  8
PIEZA
 62
    18
420
        0
370
     9
100
AcDbLine
 10
77.72135218382977
 20
147.0546015261023
 30
0.0
 11
77.55494691029736
 21
147.2209715218578
 31
0.0
  0
LINE
  5
146
330
70
100
AcDbEntity
  8
PIEZA
 62
    18
420
        0
370
     9
100
AcDbLine
 10
77.55494691029736
 20
147.2209715218578
 30
0.0
 11
77.72135218382977
 21
147.3873805187084
 31
0.0
  0
LINE
  5
147
330
70
100
AcDbEntity
  8
PIEZA
 62
    18
420
        0
370
     9
100
AcDbLine
 10
77.72135218382977
 20
147.3873805187084
 30
0.0
 11
77.55494691029736
 21
147.5537820689227
 31
0.0
  0
LINE
  5
148
330
70
100
AcDbEntity
  8
PIEZA
 62
    18
420
        0
370
     9
100
AcDbLine
 10
77.55494691029736
 20
147.5537820689227
 30
0.0
 11
77.72135218382977
 21
147.7201873424552
 31
0.0
  0
LINE
  5
149
330
70
100
AcDbEntity
  8
PIEZA
 62
    18
420
        0
370
     9
100
AcDbLine
 10
77.72135218382977
 20
147.7201873424552
 30
0.0
 11
77.55494691029736
 21
147.8865926159875
 31
0.0
  0
LINE
  5
14A
330
70
100
AcDbEntity
  8
PIEZA
 62
    18
420
        0
370
     9
100
AcDbLine
 10
77.55494691029736
 20
147.8865926159875
 30
0.0
 11
77.72135218382977
 21
148.0529626117431
 31
0.0
  0
LINE
  5
14B
330
70
100
AcDbEntity
  8
PIEZA
 62
    18
420
        0
370
     9
100
AcDbLine
 10
77.72135218382977
 20
148.0529626117431
 30
0.0
 11
77.55494691029736
 21
148.2193678852755
 31
0.0
  0
LINE
  5
14C
330
70
100
AcDbEntity
  8
PIEZA
 62
    18
420
        0
370
     9
100
AcDbLine
 10
77.55494691029736
 20
148.2193678852755
 30
0.0
 11
77.72135218382977
 21
148.385773158808
 31
0.0
  0
LINE
  5
14D
330
70
100
AcDbEntity
  8
PIEZA
 62
    18
420
        0
370
     9
100
AcDbLine
 10
77.72135218382977
 20
148.385773158808
 30
0.0
 11
77.55494691029736
 21
148.5523548212251
 31
0.0
  0
LINE
  5
14E
330
70
100
AcDbEntity
  8
PIEZA
 62
    18
420
        0
370
     9
100
AcDbLine
 10
77.55494691029736
 20
148.5523548212251
 30
0.0
 11
77.72135218382977
 21
148.7187248169803
 31
0.0
  0
LINE
  5
14F
330
70
100
AcDbEntity
  8
PIEZA
 62
    18
420
        0
370
     9
100
AcDbLine
 10
77.72135218382977
 20
148.7187248169803
 30
0.0
 11
77.55494691029736
 21
148.8851300905128
 31
0.0
  0
LINE
  5
150
330
70
100
AcDbEntity
  8
PIEZA
 62
    18
420
        0
370
     9
100
AcDbLine
 10
77.55494691029736
 20
148.8851300905128
 30
0.0
 11
77.72135218382977
 21
149.0515353640452
 31
0.0
  0
LINE
  5
151
330
70
100
AcDbEntity
  8
PIEZA
 62
    18
420
        0
370
     9
100
AcDbLine
 10
77.72135218382977
 20
149.0515353640452
 30
0.0
 11
77.55494691029736
 21
149.2179444071398
 31
0.0
  0
LINE
  5
152
330
70
100
AcDbEntity
  8
PIEZA
 62
    18
420
        0
370
     9
100
AcDbLine
 10
77.55494691029736
 20
149.2179444071398
 30
0.0
 11
77.72135218382977
 21
149.3844870222176
 31
0.0
  0
LINE
  5
153
330
70
100
AcDbEntity
  8
PIEZA
 62
    18
420
        0
370
     9
100
AcDbLine
 10
77.72135218382977
 20
149.3844870222176
 30
0.0
 11
77.55494691029736
 21
149.5508922957499
 31
0.0
  0
LINE
  5
154
330
70
100
AcDbEntity
  8
PIEZA
 62
    18
420
        0
370
     9
100
AcDbLine
 10
77.55494691029736
 20
149.5508922957499
 30
0.0
 11
77.72135218382977
 21
149.7172975692824
 31
0.0
  0
LINE
  5
155
330
70
100
AcDbEntity
  8
PIEZA
 62
    18
420
        0
370
     9
100
AcDbLine
 10
77.72135218382977
 20
149.7172975692824
 30
0.0
 11
77.55494691029736
 21
149.8837028428148
 31
0.0
  0
LINE
  5
156
330
70
100
AcDbEntity
  8
PIEZA
 62
    18
420
        0
370
     9
100
AcDbLine
 10
77.55494691029736
 20
149.8837028428148
 30
0.0
 11
77.72135218382977
 21
150.0501081163472
 31
0.0
  0
LINE
  5
157
330
70
100
AcDbEntity
  8
PIEZA
 62
    18
420
        0
370
     9
100
AcDbLine
 10
77.72135218382977
 20
150.0501081163472
 30
0.0
 11
77.55494691029736
 21
150.2164781121028
 31
0.0
  0
LINE
  5
158
330
70
100
AcDbEntity
  8
PIEZA
 62
    18
420
        0
370
     9
100
AcDbLine
 10
77.55494691029736
 20
150.2164781121028
 30
0.0
 11
77.72135218382977
 21
150.3830597745196
 31
0.0
  0
LINE
  5
159
330
70
100
AcDbEntity
  8
PIEZA
 62
    18
420
        0
370
     9
100
AcDbLine
 10
77.72135218382977
 20
150.3830597745196
 30
0.0
 11
77.55494691029736
 21
150.549465048052
 31
0.0
  0
LINE
  5
15A
330
70
100
AcDbEntity
  8
PIEZA
 62
    18
420
        0
370
     9
100
AcDbLine
 10
77.55494691029736
 20
150.549465048052
 30
0.0
 11
77.72135218382977
 21
150.7158703215845
 31
0.0
  0
LINE
  5
15B
330
70
100
AcDbEntity
  8
PIEZA
 62
    18
420
        0
370
     9
100
AcDbLine
 10
77.72135218382977
 20
150.7158703215845
 30
0.0
 11
77.55494691029736
 21
150.8822755951169
 31
0.0
  0
LINE
  5
15C
330
70
100
AcDbEntity
  8
PIEZA
 62
    18
420
        0
370
     9
100
AcDbLine
 10
77.55494691029736
 20
150.8822755951169
 30
0.0
 11
77.72135218382977
 21
151.0486455908724
 31
0.0
  0
LINE
  5
15D
330
70
100
AcDbEntity
  8
PIEZA
 62
    18
420
        0
370
     9
100
AcDbLine
 10
77.72135218382977
 20
151.0486455908724
 30
0.0
 11
77.55494691029736
 21
151.2150508644048
 31
0.0
  0
LINE
  5
15E
330
70
100
AcDbEntity
  8
PIEZA
 62
    18
420
        0
370
     9
100
AcDbLine
 10
77.55494691029736
 20
151.2150508644048
 30
0.0
 11
77.72135218382977
 21
151.3816325268217
 31
0.0
  0
LINE
  5
15F
330
70
100
AcDbEntity
  8
PIEZA
 62
    18
420
        0
370
     9
100
AcDbLine
 10
77.72135218382977
 20
151.3816325268217
 30
0.0
 11
77.55494691029736
 21
151.5480416287797
 31
0.0
  0
LINE
  5
160
330
70
100
AcDbEntity
  8
PIEZA
 62
    18
420
        0
370
     9
100
AcDbLine
 10
77.55494691029736
 20
151.5480416287797
 30
0.0
 11
77.72135218382977
 21
151.71440779611
 31
0.0
  0
LINE
  5
161
330
70
100
AcDbEntity
  8
PIEZA
 62
    18
420
        0
370
     9
100
AcDbLine
 10
77.72135218382977
 20
151.71440779611
 30
0.0
 11
77.55494691029736
 21
151.8808130696421
 31
0.0
  0
LINE
  5
162
330
70
100
AcDbEntity
  8
PIEZA
 62
    18
420
        0
370
     9
100
AcDbLine
 10
77.55494691029736
 20
151.8808130696421
 30
0.0
 11
77.72135218382977
 21
152.0472221842104
 31
0.0
  0
LINE
  5
163
330
70
100
AcDbEntity
  8
PIEZA
 62
    18
420
        0
370
     9
100
AcDbLine
 10
79.84835518512096
 20
142.3038138695272
 30
0.0
 11
82.97237871653159
 21
142.3038138695272
 31
0.0
  0
LINE
  5
164
330
70
100
AcDbEntity
  8
PIEZA
 62
    18
420
        0
370
     9
100
AcDbLine
 10
72.72855897787322
 20
146.7300459788269
 30
0.0
 11
87.70715026240418
 21
146.7300459788269
 31
0.0
  0
LINE
  5
165
330
70
100
AcDbEntity
  8
PIEZA
 62
    18
420
        0
370
     9
100
AcDbLine
 10
87.70715026240418
 20
146.7300459788269
 30
0.0
 11
87.70715026240418
 21
146.0644638523725
 31
0.0
  0
LINE
  5
166
330
70
100
AcDbEntity
  8
PIEZA
 62
    18
420
        0
370
     9
100
AcDbLine
 10
87.70715026240418
 20
146.0644638523725
 30
0.0
 11
72.72855897787322
 21
146.0644638523725
 31
0.0
  0
LINE
  5
167
330
70
100
AcDbEntity
  8
PIEZA
 62
    18
420
        0
370
     9
100
AcDbLine
 10
72.72855897787322
 20
146.0644638523725
 30
0.0
 11
72.72855897787322
 21
146.7300459788269
 31
0.0
  0
LINE
  5
168
330
70
100
AcDbEntity
  8
PIEZA
 62
    18
420
        0
370
     9
100
AcDbLine
 10
79.84835518512096
 20
142.5900930288903
 30
0.0
 11
79.84835518512096
 21
142.3038138695272
 31
0.0
  0
LINE
  5
169
330
70
100
AcDbEntity
  8
PIEZA
 62
    18
420
        0
370
     9
100
AcDbLine
 10
79.84835518512096
 20
142.3038138695272
 30
0.0
 11
79.84835518512096
 21
141.132133066086
 31
0.0
  0
LINE
  5
16A
330
70
100
AcDbEntity
  8
PIEZA
 62
    18
420
        0
370
     9
100
AcDbLine
 10
79.84835518512096
 20
140.2898055875755
 30
0.0
 11
79.84835518512096
 21
125.6219762395608
 31
0.0
  0
LINE
  5
16B
330
70
100
AcDbEntity
  8
PIEZA
 62
    18
420
        0
370
     9
100
AcDbLine
 10
79.84835518512096
 20
123.7330276766408
 30
0.0
 11
79.84835518512096
 21
107.2816597630168
 31
0.0
  0
LINE
  5
16C
330
70
100
AcDbEntity
  8
PIEZA
 62
    18
420
        0
370
     9
100
AcDbLine
 10
84.17538618584032
 20
142.5900930288903
 30
0.0
 11
84.17538618584032
 21
142.3038138695272
 31
0.0
  0
LINE
  5
16D
330
70
100
AcDbEntity
  8
PIEZA
 62
    18
420
        0
370
     9
100
AcDbLine
 10
84.17538618584032
 20
142.3038138695272
 30
0.0
 11
84.17538618584032
 21
141.132133066086
 31
0.0
  0
LINE
  5
16E
330
70
100
AcDbEntity
  8
PIEZA
 62
    18
420
        0
370
     9
100
AcDbLine
 10
84.17538618584032
 20
140.2898055875755
 30
0.0
 11
84.17538618584032
 21
128.691883661241
 31
0.0
  0
LINE
  5
16F
330
70
100
AcDbEntity
  8
PIEZA
 62
    18
420
        0
370
     9
100
AcDbLine
 10
84.17538618584032
 20
126.8025823205521
 30
0.0
 11
84.17538618584032
 21
107.2816597630168
 31
0.0
  0
LINE
  5
170
330
70
100
AcDbEntity
  8
PIEZA
 62
    18
420
        0
370
     9
100
AcDbLine
 10
79.68194991158854
 20
144.2544279864296
 30
0.0
 11
79.68194991158854
 21
143.9581299384332
 31
0.0
  0
LINE
  5
171
330
70
100
AcDbEntity
  8
PIEZA
 62
    18
420
        0
370
     9
100
AcDbLine
 10
79.68194991158854
 20
143.1158024599228
 30
0.0
 11
79.68194991158854
 21
142.5900930288903
 31
0.0
  0
LINE
  5
172
330
70
100
AcDbEntity
  8
PIEZA
 62
    18
420
        0
370
     9
100
AcDbLine
 10
84.34196784825713
 20
144.2544279864296
 30
0.0
 11
84.34196784825713
 21
143.9581299384332
 31
0.0
  0
LINE
  5
173
330
70
100
AcDbEntity
  8
PIEZA
 62
    18
420
        0
370
     9
100
AcDbLine
 10
84.34196784825713
 20
143.1158024599228
 30
0.0
 11
84.34196784825713
 21
142.5900930288903
 31
0.0
  0
LINE
  5
174
330
70
100
AcDbEntity
  8
PIEZA
 62
    18
420
        0
370
     9
100
AcDbLine
 10
80.0147604586534
 20
147.0835293031421
 30
0.0
 11
80.0147604586534
 21
146.7300459788269
 31
0.0
  0
LINE
  5
175
330
70
100
AcDbEntity
  8
PIEZA
 62
    18
420
        0
370
     9
100
AcDbLine
 10
80.0147604586534
 20
146.0644638523725
 30
0.0
 11
80.0147604586534
 21
145.1349965750755
 31
0.0
  0
LINE
  5
176
330
70
100
AcDbEntity
  8
PIEZA
 62
    18
420
        0
370
     9
100
AcDbLine
 10
84.00898091230789
 20
147.0835293031421
 30
0.0
 11
84.00898091230789
 21
146.7300459788269
 31
0.0
  0
LINE
  5
177
330
70
100
AcDbEntity
  8
PIEZA
 62
    18
420
        0
370
     9
100
AcDbLine
 10
84.00898091230789
 20
146.0644638523725
 30
0.0
 11
84.00898091230789
 21
145.1349965750755
 31
0.0
  0
LINE
  5
178
330
70
100
AcDbEntity
  8
PIEZA
 62
    18
420
        0
370
     9
100
AcDbLine
 10
81.17970320671101
 20
150.2457939446882
 30
0.0
 11
81.17970320671101
 21
148.2486484400841
 31
0.0
  0
LINE
  5
179
330
70
100
AcDbEntity
  8
PIEZA
 62
    18
420
        0
370
     9
100
AcDbLine
 10
80.84692793742304
 20
150.2457939446882
 30
0.0
 11
80.84692793742304
 21
148.2486484400841
 31
0.0
  0
LINE
  5
17A
330
70
100
AcDbEntity
  8
PIEZA
 62
    18
420
        0
370
     9
100
AcDbLine
 10
82.84403816425028
 20
150.2457939446882
 30
0.0
 11
82.84403816425028
 21
148.2486484400841
 31
0.0
  0
LINE
  5
17B
330
70
100
AcDbEntity
  8
PIEZA
 62
    18
420
        0
370
     9
100
AcDbLine
 10
83.17684871131545
 20
150.2457939446882
 30
0.0
 11
83.17684871131545
 21
148.2486484400841
 31
0.0
  0
LINE
  5
17C
330
70
100
AcDbEntity
  8
PIEZA
 62
    18
420
        0
370
     9
100
AcDbLine
 10
80.18116573218582
 20
150.911379761041
 30
0.0
 11
80.18116573218582
 21
148.2486484400841
 31
0.0
  0
LINE
  5
17D
330
70
100
AcDbEntity
  8
PIEZA
 62
    18
420
        0
370
     9
100
AcDbLine
 10
83.84261091655234
 20
150.911379761041
 30
0.0
 11
83.84261091655234
 21
148.2486484400841
 31
0.0
  0
LINE
  5
17E
330
70
100
AcDbEntity
  8
PIEZA
 62
    18
420
        0
370
     9
100
AcDbLine
 10
80.34753572794135
 20
151.4107366927458
 30
0.0
 11
83.67620564301992
 21
151.4107366927458
 31
0.0
  0
LINE
  5
17F
330
70
100
AcDbEntity
  8
PIEZA
 62
    18
420
        0
370
     9
100
AcDbLine
 10
80.18116573218582
 20
150.911379761041
 30
0.0
 11
83.84261091655234
 21
150.911379761041
 31
0.0
  0
LINE
  5
180
330
70
100
AcDbEntity
  8
PIEZA
 62
    18
420
        0
370
     9
100
AcDbLine
 10
80.18116573218582
 20
150.2457939446882
 30
0.0
 11
83.84261091655234
 21
150.2457939446882
 31
0.0
  0
LINE
  5
181
330
70
100
AcDbEntity
  8
PIEZA
 62
    18
420
        0
370
     9
100
AcDbLine
 10
80.18116573218582
 20
148.2486484400841
 30
0.0
 11
83.84261091655234
 21
148.2486484400841
 31
0.0
  0
LINE
  5
182
330
70
100
AcDbEntity
  8
PIEZA
 62
    18
420
        0
370
     9
100
AcDbLine
 10
80.19062220217454
 20
147.2499345766745
 30
0.0
 11
83.83312119457222
 21
147.2499345766745
 31
0.0
  0
LINE
  5
183
330
70
100
AcDbEntity
  8
PIEZA
 62
    18
420
        0
370
     9
100
AcDbLine
 10
80.34753572794135
 20
144.9200138027824
 30
0.0
 11
83.67620564301992
 21
144.9200138027824
 31
0.0
  0
SPLINE
  5
184
330
70
100
AcDbEntity
  8
PIEZA
 62
    18
420
        0
370
     9
100
AcDbSpline
210
0.0
220
0.0
230
1.0
 70
     8
 71
     3
 72
     8
 73
     4
 74
     0
 42
0.0000000001
 43
0.0000000001
 40
0.0
 40
0.0
 40
0.0
 40
0.0
 40
1.0
 40
1.0
 40
1.0
 40
1.0
 10
84.34196784825713
 20
144.2544279864296
 30
0.0
 10
84.35022497891246
 20
144.394269093973
 30
0.0
 10
84.27444618331277
 20
144.5951444082957
 30
0.0
 10
84.17538618584032
 20
144.6946946418641
 30
0.0
  0
SPLINE
  5
185
330
70
100
AcDbEntity
  8
PIEZA
 62
    18
420
        0
370
     9
100
AcDbSpline
210
0.0
220
0.0
230
1.0
 70
     8
 71
     3
 72
     8
 73
     4
 74
     0
 42
0.0000000001
 43
0.0000000001
 40
0.0
 40
0.0
 40
0.0
 40
0.0
 40
1.0
 40
1.0
 40
1.0
 40
1.0
 10
84.00898091230789
 20
145.1349965750755
 30
0.0
 10
84.0007259125185
 20
144.9947674119864
 30
0.0
 10
84.07650257725194
 20
144.7942485282132
 30
0.0
 10
84.17538618584032
 20
144.6946946418641
 30
0.0
  0
SPLINE
  5
186
330
70
100
AcDbEntity
  8
PIEZA
 62
    18
420
        0
370
     9
100
AcDbSpline
210
0.0
220
0.0
230
1.0
 70
     8
 71
     3
 72
     8
 73
     4
 74
     0
 42
0.0000000001
 43
0.0000000001
 40
0.0
 40
0.0
 40
0.0
 40
0.0
 40
1.0
 40
1.0
 40
1.0
 40
1.0
 10
79.84835518512096
 20
144.6946946418641
 30
0.0
 10
79.74947157653258
 20
144.5951444082957
 30
0.0
 10
79.67351852291476
 20
144.394269093973
 30
0.0
 10
79.68194991158854
 20
144.2544279864296
 30
0.0
  0
SPLINE
  5
187
330
70
100
AcDbEntity
  8
PIEZA
 62
    18
420
        0
370
     9
100
AcDbSpline
210
0.0
220
0.0
230
1.0
 70
     8
 71
     3
 72
     8
 73
     4
 74
     0
 42
0.0000000001
 43
0.0000000001
 40
0.0
 40
0.0
 40
0.0
 40
0.0
 40
1.0
 40
1.0
 40
1.0
 40
1.0
 10
79.84835518512096
 20
144.6946946418641
 30
0.0
 10
79.94723879370934
 20
144.7942485282132
 30
0.0
 10
80.02301545844279
 20
144.9947674119864
 30
0.0
 10
80.0147604586534
 20
145.1349965750755
 30
0.0
  0
LINE
  5
188
330
70
100
AcDbEntity
  8
PIEZA
 62
    18
420
        0
370
     9
100
AcDbLine
 10
79.68194991158854
 20
142.5900930288903
 30
0.0
 11
84.34196784825713
 21
142.5900930288903
 31
0.0
  0
SPLINE
  5
189
330
70
100
AcDbEntity
  8
PIEZA
 62
    18
420
        0
370
     9
100
AcDbSpline
210
0.0
220
0.0
230
1.0
 70
     8
 71
     3
 72
    14
 73
    10
 74
     0
 42
0.0000000001
 43
0.0000000001
 40
0.0
 40
0.0
 40
0.0
 40
0.0
 40
1.0
 40
1.0
 40
1.0
 40
2.0
 40
2.0
 40
2.0
 40
3.0
 40
3.0
 40
3.0
 40
3.0
 10
80.43075600359602
 20
151.4107366927458
 30
0.0
 10
80.29296100711146
 20
151.4107366927458
 30
0.0
 10
80.18116573218582
 20
151.2989414178202
 30
0.0
 10
80.18116573218582
 20
151.1611464213356
 30
0.0
 10
80.18116573218582
 20
151.0231750359667
 30
0.0
 10
80.29296100711146
 20
150.911379761041
 30
0.0
 10
80.43075600359602
 20
150.911379761041
 30
0.0
 10
80.43075600359602
 20
150.911379761041
 30
0.0
 10
80.43075600359602
 20
150.911379761041
 30
0.0
 10
80.43075600359602
 20
150.911379761041
 30
0.0
  0
SPLINE
  5
18A
330
70
100
AcDbEntity
  8
PIEZA
 62
    18
420
        0
370
     9
100
AcDbSpline
210
0.0
220
0.0
230
1.0
 70
     8
 71
     3
 72
    14
 73
    10
 74
     0
 42
0.0000000001
 43
0.0000000001
 40
0.0
 40
0.0
 40
0.0
 40
0.0
 40
1.0
 40
1.0
 40
1.0
 40
2.0
 40
2.0
 40
2.0
 40
3.0
 40
3.0
 40
3.0
 40
3.0
 10
83.59298536736528
 20
150.911379761041
 30
0.0
 10
83.73081564162671
 20
150.911379761041
 30
0.0
 10
83.84261091655234
 20
151.0231750359667
 30
0.0
 10
83.84261091655234
 20
151.1611464213356
 30
0.0
 10
83.84261091655234
 20
151.2989414178202
 30
0.0
 10
83.73081564162671
 20
151.4107366927458
 30
0.0
 10
83.59298536736528
 20
151.4107366927458
 30
0.0
 10
83.59298536736528
 20
151.4107366927458
 30
0.0
 10
83.59298536736528
 20
151.4107366927458
 30
0.0
 10
83.59298536736528
 20
151.4107366927458
 30
0.0
  0
SPLINE
  5
18B
330
70
100
AcDbEntity
  8
PIEZA
 62
    18
420
        0
370
     9
100
AcDbSpline
210
0.0
220
0.0
230
1.0
 70
     8
 71
     3
 72
    11
 73
     7
 74
     0
 42
0.0000000001
 43
0.0000000001
 40
0.0
 40
0.0
 40
0.0
 40
0.0
 40
1.0
 40
1.0
 40
1.0
 40
2.0
 40
2.0
 40
2.0
 40
2.0
 10
80.18116573218582
 20
148.2486484400841
 30
0.0
 10
79.90536407255544
 20
148.2486484400841
 30
0.0
 10
79.68194991158854
 20
148.0250578902328
 30
0.0
 10
79.68194991158854
 20
147.7494678972637
 30
0.0
 10
79.67404768956793
 20
147.6078666297644
 30
0.0
 10
79.76379435394528
 20
147.4283695721223
 30
0.0
 10
79.88158886891838
 20
147.3498412407923
 30
0.0
  0
SPLINE
  5
18C
330
70
100
AcDbEntity
  8
PIEZA
 62
    18
420
        0
370
     9
100
AcDbSpline
210
0.0
220
0.0
230
1.0
 70
     8
 71
     3
 72
     8
 73
     4
 74
     0
 42
0.0000000001
 43
0.0000000001
 40
0.0
 40
0.0
 40
0.0
 40
0.0
 40
1.0
 40
1.0
 40
1.0
 40
1.0
 10
80.0147604586534
 20
147.0835293031421
 30
0.0
 10
80.01991101407755
 20
147.177932634067
 30
0.0
 10
79.96015046004661
 20
147.2974537421289
 30
0.0
 10
79.88158886891838
 20
147.3498412407923
 30
0.0
  0
SPLINE
  5
18D
330
70
100
AcDbEntity
  8
PIEZA
 62
    18
420
        0
370
     9
100
AcDbSpline
210
0.0
220
0.0
230
1.0
 70
     8
 71
     3
 72
    11
 73
     7
 74
     0
 42
0.0000000001
 43
0.0000000001
 40
0.0
 40
0.0
 40
0.0
 40
0.0
 40
1.0
 40
1.0
 40
1.0
 40
2.0
 40
2.0
 40
2.0
 40
2.0
 10
84.14215452002146
 20
147.3498412407923
 30
0.0
 10
84.3628170143919
 20
147.5151881810184
 30
0.0
 10
84.40740812436539
 20
147.8283527408204
 30
0.0
 10
84.2420611841393
 20
148.0488388518764
 30
0.0
 10
84.16349757503251
 20
148.166666629625
 30
0.0
 10
83.98400424627842
 20
148.2565859398816
 30
0.0
 10
83.84261091655234
 20
148.2486484400841
 30
0.0
  0
SPLINE
  5
18E
330
70
100
AcDbEntity
  8
PIEZA
 62
    18
420
        0
370
     9
100
AcDbSpline
210
0.0
220
0.0
230
1.0
 70
     8
 71
     3
 72
     8
 73
     4
 74
     0
 42
0.0000000001
 43
0.0000000001
 40
0.0
 40
0.0
 40
0.0
 40
0.0
 40
1.0
 40
1.0
 40
1.0
 40
1.0
 10
84.14215452002146
 20
147.3498412407923
 30
0.0
 10
84.06359091091468
 20
147.2974537421289
 30
0.0
 10
84.00383035688374
 20
147.177932634067
 30
0.0
 10
84.00898091230789
 20
147.0835293031421
 30
0.0
  0
LINE
  5
18F
330
70
100
AcDbEntity
  8
PIEZA
 62
    18
420
        0
370
     9
100
AcDbLine
 10
80.34753572794135
 20
151.5771419662782
 30
0.0
 11
83.67620564301992
 21
151.5771419662782
 31
0.0
  0
LINE
  5
190
330
70
100
AcDbEntity
  8
PIEZA
 62
    18
420
        0
370
     9
100
AcDbLine
 10
80.48483886876757
 20
152.0472221842104
 30
0.0
 11
80.34753572794135
 21
151.9099172355662
 31
0.0
  0
LINE
  5
191
330
70
100
AcDbEntity
  8
PIEZA
 62
    18
420
        0
370
     9
100
AcDbLine
 10
80.34753572794135
 20
151.9099172355662
 30
0.0
 11
80.51411942431601
 21
151.7435472398107
 31
0.0
  0
LINE
  5
192
330
70
100
AcDbEntity
  8
PIEZA
 62
    18
420
        0
370
     9
100
AcDbLine
 10
80.51411942431601
 20
151.7435472398107
 30
0.0
 11
80.34753572794135
 21
151.5771419662782
 31
0.0
  0
LINE
  5
193
330
70
100
AcDbEntity
  8
PIEZA
 62
    18
420
        0
370
     9
100
AcDbLine
 10
83.53890453541167
 20
152.0472221842104
 30
0.0
 11
83.67620564301992
 21
151.9099172355662
 31
0.0
  0
LINE
  5
194
330
70
100
AcDbEntity
  8
PIEZA
 62
    18
420
        0
370
     9
100
AcDbLine
 10
83.67620564301992
 20
151.9099172355662
 30
0.0
 11
83.50980036948749
 21
151.7435472398107
 31
0.0
  0
LINE
  5
195
330
70
100
AcDbEntity
  8
PIEZA
 62
    18
420
        0
370
     9
100
AcDbLine
 10
83.50980036948749
 20
151.7435472398107
 30
0.0
 11
83.67620564301992
 21
151.5771419662782
 31
0.0
  0
LINE
  5
196
330
70
100
AcDbEntity
  8
PIEZA
 62
    18
420
        0
370
     9
100
AcDbLine
 10
80.34753572794135
 20
151.5771419662782
 30
0.0
 11
80.34753572794135
 21
151.4107366927458
 31
0.0
  0
LINE
  5
197
330
70
100
AcDbEntity
  8
PIEZA
 62
    18
420
        0
370
     9
100
AcDbLine
 10
83.67620564301992
 20
151.5771419662782
 30
0.0
 11
83.67620564301992
 21
151.4107366927458
 31
0.0
  0
LINE
  5
198
330
70
100
AcDbEntity
  8
PIEZA
 62
    18
420
        0
370
     9
100
AcDbLine
 10
81.01280404430228
 20
128.3370277456938
 30
0.0
 11
79.84835518512096
 21
129.1652408713868
 31
0.0
  0
LINE
  5
199
330
70
100
AcDbEntity
  8
PIEZA
 62
    18
420
        0
370
     9
100
AcDbLine
 10
80.01955823630845
 20
107.2816597630168
 30
0.0
 11
79.84835518512096
 21
107.4032622599145
 31
0.0
  0
LINE
  5
19A
330
70
100
AcDbEntity
  8
PIEZA
 62
    18
420
        0
370
     9
100
AcDbLine
 10
79.84835518512096
 20
107.2816597630168
 30
0.0
 11
84.17538618584032
 21
107.2816597630168
 31
0.0
  0
LINE
  5
19B
330
70
100
AcDbEntity
  8
PIEZA
 62
    18
420
        0
370
     9
100
AcDbLine
 10
79.68194991158854
 20
105.6173248054775
 30
0.0
 11
79.68194991158854
 21
107.2816597630168
 31
0.0
  0
LINE
  5
19C
330
70
100
AcDbEntity
  8
PIEZA
 62
    18
420
        0
370
     9
100
AcDbLine
 10
84.34196784825713
 20
105.6173248054775
 30
0.0
 11
84.34196784825713
 21
107.2816597630168
 31
0.0
  0
LINE
  5
19D
330
70
100
AcDbEntity
  8
PIEZA
 62
    18
420
        0
370
     9
100
AcDbLine
 10
80.0147604586534
 20
102.7878707109963
 30
0.0
 11
80.0147604586534
 21
104.7364034390628
 31
0.0
  0
LINE
  5
19E
330
70
100
AcDbEntity
  8
PIEZA
 62
    18
420
        0
370
     9
100
AcDbLine
 10
84.00898091230789
 20
102.7878707109963
 30
0.0
 11
84.00898091230789
 21
104.7364034390628
 31
0.0
  0
LINE
  5
19F
330
70
100
AcDbEntity
  8
PIEZA
 62
    18
420
        0
370
     9
100
AcDbLine
 10
79.43218325129395
 20
98.29443443674451
 30
0.0
 11
84.59155811966734
 21
98.29443443674451
 31
0.0
  0
LINE
  5
1A0
330
70
100
AcDbEntity
  8
PIEZA
 62
    18
420
        0
370
     9
100
AcDbLine
 10
80.19062220217454
 20
102.6214654374638
 30
0.0
 11
83.83312119457222
 21
102.6214654374638
 31
0.0
  0
LINE
  5
1A1
330
70
100
AcDbEntity
  8
PIEZA
 62
    18
420
        0
370
     9
100
AcDbLine
 10
80.34753572794135
 20
104.951388862651
 30
0.0
 11
83.67620564301992
 21
104.951388862651
 31
0.0
  0
SPLINE
  5
1A2
330
70
100
AcDbEntity
  8
PIEZA
 62
    18
420
        0
370
     9
100
AcDbSpline
210
0.0
220
0.0
230
1.0
 70
     8
 71
     3
 72
     8
 73
     4
 74
     0
 42
0.0000000001
 43
0.0000000001
 40
0.0
 40
0.0
 40
0.0
 40
0.0
 40
1.0
 40
1.0
 40
1.0
 40
1.0
 10
84.17538618584032
 20
105.1770228722661
 30
0.0
 10
84.27444618331277
 20
105.2762592586233
 30
0.0
 10
84.35022497891246
 20
105.4770956423884
 30
0.0
 10
84.34196784825713
 20
105.6173248054775
 30
0.0
  0
SPLINE
  5
1A3
330
70
100
AcDbEntity
  8
PIEZA
 62
    18
420
        0
370
     9
100
AcDbSpline
210
0.0
220
0.0
230
1.0
 70
     8
 71
     3
 72
     8
 73
     4
 74
     0
 42
0.0000000001
 43
0.0000000001
 40
0.0
 40
0.0
 40
0.0
 40
0.0
 40
1.0
 40
1.0
 40
1.0
 40
1.0
 10
84.17538618584032
 20
105.1770228722661
 30
0.0
 10
84.07650257725194
 20
105.0774689859171
 30
0.0
 10
84.0007259125185
 20
104.8766326021519
 30
0.0
 10
84.00898091230789
 20
104.7364034390628
 30
0.0
  0
SPLINE
  5
1A4
330
70
100
AcDbEntity
  8
PIEZA
 62
    18
420
        0
370
     9
100
AcDbSpline
210
0.0
220
0.0
230
1.0
 70
     8
 71
     3
 72
     8
 73
     4
 74
     0
 42
0.0000000001
 43
0.0000000001
 40
0.0
 40
0.0
 40
0.0
 40
0.0
 40
1.0
 40
1.0
 40
1.0
 40
1.0
 10
79.68194991158854
 20
105.6173248054775
 30
0.0
 10
79.67351852291476
 20
105.4770956423884
 30
0.0
 10
79.74947157653258
 20
105.2762592586233
 30
0.0
 10
79.84835518512096
 20
105.1770228722661
 30
0.0
  0
SPLINE
  5
1A5
330
70
100
AcDbEntity
  8
PIEZA
 62
    18
420
        0
370
     9
100
AcDbSpline
210
0.0
220
0.0
230
1.0
 70
     8
 71
     3
 72
     8
 73
     4
 74
     0
 42
0.0000000001
 43
0.0000000001
 40
0.0
 40
0.0
 40
0.0
 40
0.0
 40
1.0
 40
1.0
 40
1.0
 40
1.0
 10
80.0147604586534
 20
104.7364034390628
 30
0.0
 10
80.02301545844279
 20
104.8766326021519
 30
0.0
 10
79.94723879370934
 20
105.0774689859171
 30
0.0
 10
79.84835518512096
 20
105.1770228722661
 30
0.0
  0
LINE
  5
1A6
330
70
100
AcDbEntity
  8
PIEZA
 62
    18
420
        0
370
     9
100
AcDbLine
 10
79.68194991158854
 20
107.2816597630168
 30
0.0
 11
84.34196784825713
 21
107.2816597630168
 31
0.0
  0
SPLINE
  5
1A7
330
70
100
AcDbEntity
  8
PIEZA
 62
    18
420
        0
370
     9
100
AcDbSpline
210
0.0
220
0.0
230
1.0
 70
     8
 71
     3
 72
    11
 73
     7
 74
     0
 42
0.0000000001
 43
0.0000000001
 40
0.0
 40
0.0
 40
0.0
 40
0.0
 40
1.0
 40
1.0
 40
1.0
 40
2.0
 40
2.0
 40
2.0
 40
2.0
 10
79.88158886891838
 20
102.521558773346
 30
0.0
 10
79.66092435656939
 20
102.3562118331199
 30
0.0
 10
79.6163332465959
 20
102.0433685077679
 30
0.0
 10
79.78168018682199
 20
101.8225649022899
 30
0.0
 10
79.86042220225719
 20
101.7047371275182
 30
0.0
 10
80.03973712468317
 20
101.6151694190405
 30
0.0
 10
80.18116573218582
 20
101.6230690740462
 30
0.0
  0
SPLINE
  5
1A8
330
70
100
AcDbEntity
  8
PIEZA
 62
    18
420
        0
370
     9
100
AcDbSpline
210
0.0
220
0.0
230
1.0
 70
     8
 71
     3
 72
     8
 73
     4
 74
     0
 42
0.0000000001
 43
0.0000000001
 40
0.0
 40
0.0
 40
0.0
 40
0.0
 40
1.0
 40
1.0
 40
1.0
 40
1.0
 10
79.88158886891838
 20
102.521558773346
 30
0.0
 10
79.96015046004661
 20
102.5739109942326
 30
0.0
 10
80.01991101407755
 20
102.6934673800714
 30
0.0
 10
80.0147604586534
 20
102.7878707109963
 30
0.0
  0
SPLINE
  5
1A9
330
70
100
AcDbEntity
  8
PIEZA
 62
    18
420
        0
370
     9
100
AcDbSpline
210
0.0
220
0.0
230
1.0
 70
     8
 71
     3
 72
    11
 73
     7
 74
     0
 42
0.0000000001
 43
0.0000000001
 40
0.0
 40
0.0
 40
0.0
 40
0.0
 40
1.0
 40
1.0
 40
1.0
 40
2.0
 40
2.0
 40
2.0
 40
2.0
 10
83.84261091655234
 20
101.6230690740462
 30
0.0
 10
84.11837729840584
 20
101.6230690740462
 30
0.0
 10
84.34196784825713
 20
101.8463068461286
 30
0.0
 10
84.34196784825713
 20
102.1222848946434
 30
0.0
 10
84.34972895917026
 20
102.263537113262
 30
0.0
 10
84.2599822947932
 20
102.4429951642392
 30
0.0
 10
84.14215452002146
 20
102.521558773346
 30
0.0
  0
SPLINE
  5
1AA
330
70
100
AcDbEntity
  8
PIEZA
 62
    18
420
        0
370
     9
100
AcDbSpline
210
0.0
220
0.0
230
1.0
 70
     8
 71
     3
 72
     8
 73
     4
 74
     0
 42
0.0000000001
 43
0.0000000001
 40
0.0
 40
0.0
 40
0.0
 40
0.0
 40
1.0
 40
1.0
 40
1.0
 40
1.0
 10
84.00898091230789
 20
102.7878707109963
 30
0.0
 10
84.00383035688374
 20
102.6934673800714
 30
0.0
 10
84.06359091091468
 20
102.5739109942326
 30
0.0
 10
84.14215452002146
 20
102.521558773346
 30
0.0
  0
LINE
  5
1AB
330
70
100
AcDbEntity
  8
PIEZA
 62
    18
420
        0
370
     9
100
AcDbLine
 10
80.34753572794135
 20
101.4566990782906
 30
0.0
 11
80.34753572794135
 21
98.46083971027693
 31
0.0
  0
LINE
  5
1AC
330
70
100
AcDbEntity
  8
PIEZA
 62
    18
420
        0
370
     9
100
AcDbLine
 10
83.67620564301992
 20
101.4566990782906
 30
0.0
 11
83.67620564301992
 21
98.46083971027693
 31
0.0
  0
LINE
  5
1AD
330
70
100
AcDbEntity
  8
PIEZA
 62
    18
420
        0
370
     9
100
AcDbLine
 10
78.51683077464653
 20
101.4566990782906
 30
0.0
 11
78.51683077464653
 21
98.46083971027693
 31
0.0
  0
LINE
  5
1AE
330
70
100
AcDbEntity
  8
PIEZA
 62
    18
420
        0
370
     9
100
AcDbLine
 10
85.50691059631475
 20
101.4566990782906
 30
0.0
 11
85.50691059631475
 21
98.46083971027693
 31
0.0
  0
SPLINE
  5
1AF
330
70
100
AcDbEntity
  8
PIEZA
 62
    18
420
        0
370
     9
100
AcDbSpline
210
0.0
220
0.0
230
1.0
 70
     8
 71
     3
 72
     8
 73
     4
 74
     0
 42
0.0000000001
 43
0.0000000001
 40
0.0
 40
0.0
 40
0.0
 40
0.0
 40
1.0
 40
1.0
 40
1.0
 40
1.0
 10
80.34753572794135
 20
98.46083971027693
 30
0.0
 10
81.22690487217345
 20
98.23897777149266
 30
0.0
 10
82.79683649878782
 20
98.23897777149266
 30
0.0
 10
83.67620564301992
 20
98.46083971027693
 30
0.0
  0
SPLINE
  5
1B0
330
70
100
AcDbEntity
  8
PIEZA
 62
    18
420
        0
370
     9
100
AcDbSpline
210
0.0
220
0.0
230
1.0
 70
     8
 71
     3
 72
     8
 73
     4
 74
     0
 42
0.0000000001
 43
0.0000000001
 40
0.0
 40
0.0
 40
0.0
 40
0.0
 40
1.0
 40
1.0
 40
1.0
 40
1.0
 10
78.51683077464653
 20
98.46083971027693
 30
0.0
 10
78.74765326875778
 20
98.36195610168855
 30
0.0
 10
79.18156992435431
 20
98.28307499258986
 30
0.0
 10
79.43218325129395
 20
98.29443443674451
 30
0.0
  0
SPLINE
  5
1B1
330
70
100
AcDbEntity
  8
PIEZA
 62
    18
420
        0
370
     9
100
AcDbSpline
210
0.0
220
0.0
230
1.0
 70
     8
 71
     3
 72
     8
 73
     4
 74
     0
 42
0.0000000001
 43
0.0000000001
 40
0.0
 40
0.0
 40
0.0
 40
0.0
 40
1.0
 40
1.0
 40
1.0
 40
1.0
 10
79.43218325129395
 20
98.29443443674451
 30
0.0
 10
79.68297498007911
 20
98.28307499258986
 30
0.0
 10
80.11689164663748
 20
98.36195610168855
 30
0.0
 10
80.34753572794135
 20
98.46083971027693
 30
0.0
  0
SPLINE
  5
1B2
330
70
100
AcDbEntity
  8
PIEZA
 62
    18
420
        0
370
     9
100
AcDbSpline
210
0.0
220
0.0
230
1.0
 70
     8
 71
     3
 72
     8
 73
     4
 74
     0
 42
0.0000000001
 43
0.0000000001
 40
0.0
 40
0.0
 40
0.0
 40
0.0
 40
1.0
 40
1.0
 40
1.0
 40
1.0
 10
83.67620564301992
 20
98.46083971027693
 30
0.0
 10
83.90685174824676
 20
98.36195610168855
 30
0.0
 10
84.3407684038433
 20
98.28307499258986
 30
0.0
 10
84.59155811966734
 20
98.29443443674451
 30
0.0
  0
SPLINE
  5
1B3
330
70
100
AcDbEntity
  8
PIEZA
 62
    18
420
        0
370
     9
100
AcDbSpline
210
0.0
220
0.0
230
1.0
 70
     8
 71
     3
 72
     8
 73
     4
 74
     0
 42
0.0000000001
 43
0.0000000001
 40
0.0
 40
0.0
 40
0.0
 40
0.0
 40
1.0
 40
1.0
 40
1.0
 40
1.0
 10
84.59155811966734
 20
98.29443443674451
 30
0.0
 10
84.84220672438388
 20
98.28307499258986
 30
0.0
 10
85.27608810220351
 20
98.36195610168855
 30
0.0
 10
85.50691059631475
 20
98.46083971027693
 30
0.0
  0
LINE
  5
1B4
330
70
100
AcDbEntity
  8
PIEZA
 62
    18
420
        0
370
     9
100
AcDbLine
 10
79.43218325129395
 20
101.6230690740462
 30
0.0
 11
84.59155811966734
 21
101.6230690740462
 31
0.0
  0
SPLINE
  5
1B5
330
70
100
AcDbEntity
  8
PIEZA
 62
    18
420
        0
370
     9
100
AcDbSpline
210
0.0
220
0.0
230
1.0
 70
     8
 71
     3
 72
     8
 73
     4
 74
     0
 42
0.0000000001
 43
0.0000000001
 40
0.0
 40
0.0
 40
0.0
 40
0.0
 40
1.0
 40
1.0
 40
1.0
 40
1.0
 10
83.67620564301992
 20
101.4566990782906
 30
0.0
 10
82.79683649878782
 20
101.6785610170749
 30
0.0
 10
81.22690487217345
 20
101.6785610170749
 30
0.0
 10
80.34753572794135
 20
101.4566990782906
 30
0.0
  0
SPLINE
  5
1B6
330
70
100
AcDbEntity
  8
PIEZA
 62
    18
420
        0
370
     9
100
AcDbSpline
210
0.0
220
0.0
230
1.0
 70
     8
 71
     3
 72
     8
 73
     4
 74
     0
 42
0.0000000001
 43
0.0000000001
 40
0.0
 40
0.0
 40
0.0
 40
0.0
 40
1.0
 40
1.0
 40
1.0
 40
1.0
 10
79.43218325129395
 20
101.6230690740462
 30
0.0
 10
79.18156992435431
 20
101.6341110182089
 30
0.0
 10
78.74765326875778
 20
101.5551971968333
 30
0.0
 10
78.51683077464653
 20
101.4566990782906
 30
0.0
  0
SPLINE
  5
1B7
330
70
100
AcDbEntity
  8
PIEZA
 62
    18
420
        0
370
     9
100
AcDbSpline
210
0.0
220
0.0
230
1.0
 70
     8
 71
     3
 72
     8
 73
     4
 74
     0
 42
0.0000000001
 43
0.0000000001
 40
0.0
 40
0.0
 40
0.0
 40
0.0
 40
1.0
 40
1.0
 40
1.0
 40
1.0
 10
80.34753572794135
 20
101.4566990782906
 30
0.0
 10
80.11689164663748
 20
101.5551971968333
 30
0.0
 10
79.68297498007911
 20
101.6341110182089
 30
0.0
 10
79.43218325129395
 20
101.6230690740462
 30
0.0
  0
SPLINE
  5
1B8
330
70
100
AcDbEntity
  8
PIEZA
 62
    18
420
        0
370
     9
100
AcDbSpline
210
0.0
220
0.0
230
1.0
 70
     8
 71
     3
 72
     8
 73
     4
 74
     0
 42
0.0000000001
 43
0.0000000001
 40
0.0
 40
0.0
 40
0.0
 40
0.0
 40
1.0
 40
1.0
 40
1.0
 40
1.0
 10
84.59155811966734
 20
101.6230690740462
 30
0.0
 10
84.3407684038433
 20
101.6341110182089
 30
0.0
 10
83.90685174824676
 20
101.5551971968333
 30
0.0
 10
83.67620564301992
 20
101.4566990782906
 30
0.0
  0
SPLINE
  5
1B9
330
70
100
AcDbEntity
  8
PIEZA
 62
    18
420
        0
370
     9
100
AcDbSpline
210
0.0
220
0.0
230
1.0
 70
     8
 71
     3
 72
     8
 73
     4
 74
     0
 42
0.0000000001
 43
0.0000000001
 40
0.0
 40
0.0
 40
0.0
 40
0.0
 40
1.0
 40
1.0
 40
1.0
 40
1.0
 10
85.50691059631475
 20
101.4566990782906
 30
0.0
 10
85.27608810220351
 20
101.5551971968333
 30
0.0
 10
84.84220672438388
 20
101.6341110182089
 30
0.0
 10
84.59155811966734
 20
101.6230690740462
 30
0.0
  0
LINE
  5
1BA
330
70
100
AcDbEntity
  8
PIEZA
 62
    18
420
        0
370
     9
100
AcDbLine
 10
80.51411942431601
 20
151.7435472398107
 30
0.0
 11
83.24729843174003
 21
152.0472221842104
 31
0.0
  0
LINE
  5
1BB
330
70
100
AcDbEntity
  8
PIEZA
 62
    18
420
        0
370
     9
100
AcDbLine
 10
82.01187068548064
 20
151.5771419662782
 30
0.0
 11
83.50980036948749
 21
151.7435472398107
 31
0.0
  0
LINE
  5
1BC
330
70
100
AcDbEntity
  8
PIEZA
 62
    18
420
        0
370
     9
100
AcDbLine
 10
72.70580481178706
 20
141.132133066086
 30
0.0
 11
72.70580481178706
 21
140.2898055875755
 31
0.0
  0
LINE
  5
1BD
330
70
100
AcDbEntity
  8
PIEZA
 62
    18
420
        0
370
     9
100
AcDbLine
 10
80.43883461450104
 20
140.2898055875755
 30
0.0
 11
80.43883461450104
 21
141.132133066086
 31
0.0
  0
LINE
  5
1BE
330
70
100
AcDbEntity
  8
PIEZA
 62
    18
420
        0
370
     9
100
AcDbLine
 10
86.1699211349555
 20
140.2898055875755
 30
0.0
 11
86.1699211349555
 21
141.132133066086
 31
0.0
  0
LINE
  5
1BF
330
70
100
AcDbEntity
  8
PIEZA
 62
    18
420
        0
370
     9
100
AcDbLine
 10
79.67937463387646
 20
141.132133066086
 30
0.0
 11
79.67937463387646
 21
140.2898055875755
 31
0.0
  0
LWPOLYLINE
  5
1C0
330
70
100
AcDbEntity
  8
PIEZA
 62
    18
420
        0
370
     9
100
AcDbPolyline
 90
       14
 70
     0
 43
0.0
 10
79.67937463387646
 20
140.2898055875755
 10
78.8396224330781
 20
140.2898055875755
 10
78.01175884308756
 20
140.2898055875755
 10
77.20784886359701
 20
140.2898055875755
 10
76.43995749429866
 20
140.2898055875755
 10
75.71905612380149
 20
140.2898055875755
 10
75.05586919627636
 20
140.2898055875755
 10
74.46006282258776
 20
140.2898055875755
 10
73.94035061362481
 20
140.2898055875755
 10
73.50456423585345
 20
140.2898055875755
 10
73.15866563356694
 20
140.2898055875755
 10
72.9080523066273
 20
140.2898055875755
 10
72.75646369938353
 20
140.2898055875755
 10
72.70580481178706
 20
140.2898055875755
  0
LWPOLYLINE
  5
1C1
330
70
100
AcDbEntity
  8
PIEZA
 62
    18
420
        0
370
     9
100
AcDbPolyline
 90
       14
 70
     0
 43
0.0
 10
79.67937463387646
 20
141.132133066086
 10
78.8396224330781
 20
141.132133066086
 10
78.01175884308756
 20
141.132133066086
 10
77.20784886359701
 20
141.132133066086
 10
76.43995749429866
 20
141.132133066086
 10
75.71905612380149
 20
141.132133066086
 10
75.05586919627636
 20
141.132133066086
 10
74.46006282258776
 20
141.132133066086
 10
73.94035061362481
 20
141.132133066086
 10
73.50456423585345
 20
141.132133066086
 10
73.15866563356694
 20
141.132133066086
 10
72.9080523066273
 20
141.132133066086
 10
72.75646369938353
 20
141.132133066086
 10
72.70580481178706
 20
141.132133066086
  0
LWPOLYLINE
  5
1C2
330
70
100
AcDbEntity
  8
PIEZA
 62
    18
420
        0
370
     9
100
AcDbPolyline
 90
        6
 70
     0
 43
0.0
 10
79.67937463387646
 20
140.2898055875755
 10
79.98272823724838
 20
140.2898055875755
 10
80.22388711998479
 20
140.2898055875755
 10
80.38080267153709
 20
140.2898055875755
 10
80.43865822561663
 20
140.2898055875755
 10
80.43883461450104
 20
140.2898055875755
  0
LWPOLYLINE
  5
1C3
330
70
100
AcDbEntity
  8
PIEZA
 62
    18
420
        0
370
     9
100
AcDbPolyline
 90
        6
 70
     0
 43
0.0
 10
79.67937463387646
 20
141.132133066086
 10
79.98272823724838
 20
141.132133066086
 10
80.22388711998479
 20
141.132133066086
 10
80.38080267153709
 20
141.132133066086
 10
80.43865822561663
 20
141.132133066086
 10
80.43883461450104
 20
141.132133066086
  0
LINE
  5
1C4
330
70
100
AcDbEntity
  8
PIEZA
 62
    18
420
        0
370
     9
100
AcDbLine
 10
84.01984646758625
 20
141.132133066086
 30
0.0
 11
84.01967220121736
 21
140.2898055875755
 31
0.0
  0
LWPOLYLINE
  5
1C5
330
70
100
AcDbEntity
  8
PIEZA
 62
    18
420
        0
370
     9
100
AcDbPolyline
 90
       10
 70
     0
 43
0.0
 10
84.01967220121736
 20
140.2898055875755
 10
84.20434924065697
 20
140.2898055875755
 10
84.46720395617321
 20
140.2898055875755
 10
84.78378886769306
 20
140.2898055875755
 10
85.12502866161293
 20
140.2898055875755
 10
85.45886226420723
 20
140.2898055875755
 10
85.75445475666603
 20
140.2898055875755
 10
85.9844305841322
 20
140.2898055875755
 10
86.12702335827213
 20
140.2898055875755
 10
86.1699211349555
 20
140.2898055875755
  0
LWPOLYLINE
  5
1C6
330
70
100
AcDbEntity
  8
PIEZA
 62
    18
420
        0
370
     9
100
AcDbPolyline
 90
       10
 70
     0
 43
0.0
 10
84.01984646758625
 20
141.132133066086
 10
84.20434924065697
 20
141.132133066086
 10
84.46720395617321
 20
141.132133066086
 10
84.78378886769306
 20
141.132133066086
 10
85.12502866161293
 20
141.132133066086
 10
85.45886226420723
 20
141.132133066086
 10
85.75445475666603
 20
141.132133066086
 10
85.9844305841322
 20
141.132133066086
 10
86.12702335827213
 20
141.132133066086
 10
86.1699211349555
 20
141.132133066086
  0
LWPOLYLINE
  5
1C7
330
70
100
AcDbEntity
  8
PIEZA
 62
    18
420
        0
370
     9
100
AcDbPolyline
 90
        7
 70
     0
 43
0.0
 10
82.97237871653159
 20
142.3038138695272
 10
83.11705287950733
 20
142.3038138695272
 10
83.33394065175182
 20
142.3038138695272
 10
83.53357759110311
 20
142.3038138695272
 10
83.7149406420317
 20
142.3038138695272
 10
83.87721841566943
 20
142.3038138695272
 10
84.17538618584032
 20
142.3038138695272
  0
LINE
  5
1C8
330
70
100
AcDbEntity
  8
PIEZA
 62
    18
420
        0
370
     9
100
AcDbLine
 10
75.72424195700254
 20
140.0644864266572
 30
0.0
 11
75.89061386991609
 21
140.2308917001897
 31
0.0
  0
LINE
  5
1C9
330
70
100
AcDbEntity
  8
PIEZA
 62
    18
420
        0
370
     9
100
AcDbLine
 10
75.89061386991609
 20
140.2308917001897
 30
0.0
 11
75.83187445425659
 21
140.2898055875755
 31
0.0
  0
LINE
  5
1CA
330
70
100
AcDbEntity
  8
PIEZA
 62
    18
420
        0
370
     9
100
AcDbLine
 10
72.70580481178706
 20
143.9581299384332
 30
0.0
 11
72.70580481178706
 21
143.1158024599228
 31
0.0
  0
LINE
  5
1CB
330
70
100
AcDbEntity
  8
PIEZA
 62
    18
420
        0
370
     9
100
AcDbLine
 10
80.43883461450104
 20
143.1158024599228
 30
0.0
 11
80.43883461450104
 21
143.9581299384332
 31
0.0
  0
LINE
  5
1CC
330
70
100
AcDbEntity
  8
PIEZA
 62
    18
420
        0
370
     9
100
AcDbLine
 10
86.1699211349555
 20
143.1158024599228
 30
0.0
 11
86.1699211349555
 21
143.9581299384332
 31
0.0
  0
LINE
  5
1CD
330
70
100
AcDbEntity
  8
PIEZA
 62
    18
420
        0
370
     9
100
AcDbLine
 10
79.67937463387646
 20
143.9581299384332
 30
0.0
 11
79.67937463387646
 21
143.1158024599228
 31
0.0
  0
LWPOLYLINE
  5
1CE
330
70
100
AcDbEntity
  8
PIEZA
 62
    18
420
        0
370
     9
100
AcDbPolyline
 90
       14
 70
     0
 43
0.0
 10
79.67937463387646
 20
143.1158024599228
 10
78.8396224330781
 20
143.1158024599228
 10
78.01175884308756
 20
143.1158024599228
 10
77.20784886359701
 20
143.1158024599228
 10
76.43995749429866
 20
143.1158024599228
 10
75.71905612380149
 20
143.1158024599228
 10
75.05586919627636
 20
143.1158024599228
 10
74.46006282258776
 20
143.1158024599228
 10
73.94035061362481
 20
143.1158024599228
 10
73.50456423585345
 20
143.1158024599228
 10
73.15866563356694
 20
143.1158024599228
 10
72.9080523066273
 20
143.1158024599228
 10
72.75646369938353
 20
143.1158024599228
 10
72.70580481178706
 20
143.1158024599228
  0
LWPOLYLINE
  5
1CF
330
70
100
AcDbEntity
  8
PIEZA
 62
    18
420
        0
370
     9
100
AcDbPolyline
 90
       14
 70
     0
 43
0.0
 10
79.67937463387646
 20
143.9581299384332
 10
78.8396224330781
 20
143.9581299384332
 10
78.01175884308756
 20
143.9581299384332
 10
77.20784886359701
 20
143.9581299384332
 10
76.43995749429866
 20
143.9581299384332
 10
75.71905612380149
 20
143.9581299384332
 10
75.05586919627636
 20
143.9581299384332
 10
74.46006282258776
 20
143.9581299384332
 10
73.94035061362481
 20
143.9581299384332
 10
73.50456423585345
 20
143.9581299384332
 10
73.15866563356694
 20
143.9581299384332
 10
72.9080523066273
 20
143.9581299384332
 10
72.75646369938353
 20
143.9581299384332
 10
72.70580481178706
 20
143.9581299384332
  0
LWPOLYLINE
  5
1D0
330
70
100
AcDbEntity
  8
PIEZA
 62
    18
420
        0
370
     9
100
AcDbPolyline
 90
        6
 70
     0
 43
0.0
 10
79.67937463387646
 20
143.1158024599228
 10
79.98272823724838
 20
143.1158024599228
 10
80.22388711998479
 20
143.1158024599228
 10
80.38080267153709
 20
143.1158024599228
 10
80.43865822561663
 20
143.1158024599228
 10
80.43883461450104
 20
143.1158024599228
  0
LWPOLYLINE
  5
1D1
330
70
100
AcDbEntity
  8
PIEZA
 62
    18
420
        0
370
     9
100
AcDbPolyline
 90
        6
 70
     0
 43
0.0
 10
79.67937463387646
 20
143.9581299384332
 10
79.98272823724838
 20
143.9581299384332
 10
80.22388711998479
 20
143.9581299384332
 10
80.38080267153709
 20
143.9581299384332
 10
80.43865822561663
 20
143.9581299384332
 10
80.43883461450104
 20
143.9581299384332
  0
LINE
  5
1D2
330
70
100
AcDbEntity
  8
PIEZA
 62
    18
420
        0
370
     9
100
AcDbLine
 10
84.01984646758625
 20
143.9581299384332
 30
0.0
 11
84.01967220121736
 21
143.1158024599228
 31
0.0
  0
LWPOLYLINE
  5
1D3
330
70
100
AcDbEntity
  8
PIEZA
 62
    18
420
        0
370
     9
100
AcDbPolyline
 90
       10
 70
     0
 43
0.0
 10
84.01967220121736
 20
143.1158024599228
 10
84.20434924065697
 20
143.1158024599228
 10
84.46720395617321
 20
143.1158024599228
 10
84.78378886769306
 20
143.1158024599228
 10
85.12502866161293
 20
143.1158024599228
 10
85.45886226420723
 20
143.1158024599228
 10
85.75445475666603
 20
143.1158024599228
 10
85.9844305841322
 20
143.1158024599228
 10
86.12702335827213
 20
143.1158024599228
 10
86.1699211349555
 20
143.1158024599228
  0
LWPOLYLINE
  5
1D4
330
70
100
AcDbEntity
  8
PIEZA
 62
    18
420
        0
370
     9
100
AcDbPolyline
 90
       10
 70
     0
 43
0.0
 10
84.01984646758625
 20
143.9581299384332
 10
84.20434924065697
 20
143.9581299384332
 10
84.46720395617321
 20
143.9581299384332
 10
84.78378886769306
 20
143.9581299384332
 10
85.12502866161293
 20
143.9581299384332
 10
85.45886226420723
 20
143.9581299384332
 10
85.75445475666603
 20
143.9581299384332
 10
85.9844305841322
 20
143.9581299384332
 10
86.12702335827213
 20
143.9581299384332
 10
86.1699211349555
 20
143.9581299384332
  0
LINE
  5
1D5
330
70
100
AcDbEntity
  8
PIEZA
 62
    18
420
        0
370
     9
100
AcDbLine
 10
75.72424195700254
 20
141.1186922330955
 30
0.0
 11
75.89061386991609
 21
141.285097506628
 31
0.0
  0
LINE
  5
1D6
330
70
100
AcDbEntity
  8
PIEZA
 62
    18
420
        0
370
     9
100
AcDbLine
 10
75.89061386991609
 20
141.285097506628
 30
0.0
 11
75.72424195700254
 21
141.4514675023835
 31
0.0
  0
LINE
  5
1D7
330
70
100
AcDbEntity
  8
PIEZA
 62
    18
420
        0
370
     9
100
AcDbLine
 10
75.72424195700254
 20
141.4514675023835
 30
0.0
 11
75.89061386991609
 21
141.6178727759159
 31
0.0
  0
LINE
  5
1D8
330
70
100
AcDbEntity
  8
PIEZA
 62
    18
420
        0
370
     9
100
AcDbLine
 10
75.89061386991609
 20
141.6178727759159
 30
0.0
 11
75.72424195700254
 21
141.7842780494483
 31
0.0
  0
LINE
  5
1D9
330
70
100
AcDbEntity
  8
PIEZA
 62
    18
420
        0
370
     9
100
AcDbLine
 10
77.72135218382977
 20
141.1186922330955
 30
0.0
 11
77.55494691029736
 21
141.285097506628
 31
0.0
  0
LINE
  5
1DA
330
70
100
AcDbEntity
  8
PIEZA
 62
    18
420
        0
370
     9
100
AcDbLine
 10
77.55494691029736
 20
141.285097506628
 30
0.0
 11
77.72135218382977
 21
141.4514675023835
 31
0.0
  0
LINE
  5
1DB
330
70
100
AcDbEntity
  8
PIEZA
 62
    18
420
        0
370
     9
100
AcDbLine
 10
77.72135218382977
 20
141.4514675023835
 30
0.0
 11
77.55494691029736
 21
141.6178727759159
 31
0.0
  0
LINE
  5
1DC
330
70
100
AcDbEntity
  8
PIEZA
 62
    18
420
        0
370
     9
100
AcDbLine
 10
77.55494691029736
 20
141.6178727759159
 30
0.0
 11
77.72135218382977
 21
141.7842780494483
 31
0.0
  0
LWPOLYLINE
  5
1DD
330
70
100
AcDbEntity
  8
PIEZA
 62
    18
420
        0
370
     9
100
AcDbPolyline
 90
        1
 70
     0
 43
0.0
 10
76.37811555143193
 20
169.1552115178243
  0
LWPOLYLINE
  5
1DE
330
70
100
AcDbEntity
  8
PIEZA
 62
    18
420
        0
370
     9
100
AcDbPolyline
 90
        1
 70
     0
 43
0.0
 10
76.72002776493124
 20
171.4007478494248
  0
MTEXT
  5
1DF
330
70
100
AcDbEntity
  8
PIEZA
100
AcDbMText
 10
87.76905053604984
 20
176.3735771791973
 30
0.0
 40
0.2
 41
0.0
 46
0.0
 71
     7
 72
     1
  1
\C18;\c0;\FArial Bold|b1|i0|c1;\H1.387053;\W1.247407;HOT
 11
0.9999924338841434
 21
0.0038900095716197
 31
0.0
 73
     1
 44
1.0
  0
INSERT
  5
1E2
330
70
100
AcDbEntity
  8
COTAS
100
AcDbBlockReference
  2
Block_1
 10
0.0
 20
0.0
 30
0.0
  0
INSERT
  5
1F1
330
70
100
AcDbEntity
  8
COTAS
100
AcDbBlockReference
  2
Block_2
 10
0.0
 20
0.0
 30
0.0
  0
INSERT
  5
200
330
70
100
AcDbEntity
  8
COTAS
100
AcDbBlockReference
  2
Block_3
 10
0.0
 20
0.0
 30
0.0
  0
INSERT
  5
20F
330
70
100
AcDbEntity
  8
COTAS
100
AcDbBlockReference
  2
Block_4
 10
0.0
 20
0.0
 30
0.0
  0
INSERT
  5
222
330
70
100
AcDbEntity
  8
COTAS
100
AcDbBlockReference
  2
Block_5
 10
0.0
 20
0.0
 30
0.0
  0
INSERT
  5
231
330
70
100
AcDbEntity
  8
COTAS
100
AcDbBlockReference
  2
Block_6
 10
0.0
 20
0.0
 30
0.0
  0
LINE
  5
240
330
70
100
AcDbEntity
  8
COTAS
100
AcDbLine
 10
82.44458789666333
 20
184.7859477857177
 30
0.0
 11
82.44458789666333
 21
152.4344624999617
 31
0.0
  0
LINE
  5
242
330
70
100
AcDbEntity
  8
010
 62
    18
420
        0
370
     9
100
AcDbLine
 10
79.84835518512096
 20
138.8459567355223
 30
0.0
 11
82.44095428564492
 21
140.6849555203841
 31
0.0
  0
LINE
  5
243
330
70
100
AcDbEntity
  8
010
 62
    18
420
        0
370
     9
100
AcDbLine
 10
84.17538618584032
 20
135.5393707087692
 30
0.0
 11
79.84835518512096
 21
138.6165100747093
 31
0.0
  0
LINE
  5
244
330
70
100
AcDbEntity
  8
010
 62
    18
420
        0
370
     9
100
AcDbLine
 10
79.84835518512096
 20
135.0677068319135
 30
0.0
 11
84.17538618584032
 21
138.1372967536017
 31
0.0
  0
LINE
  5
245
330
70
100
AcDbEntity
  8
010
 62
    18
420
        0
370
     9
100
AcDbLine
 10
79.84835518512096
 20
133.1784407690016
 30
0.0
 11
84.17538618584032
 21
136.2483481906817
 31
0.0
  0
LINE
  5
246
330
70
100
AcDbEntity
  8
010
 62
    18
420
        0
370
     9
100
AcDbLine
 10
79.84835518512096
 20
136.9566553948335
 30
0.0
 11
84.17538618584032
 21
140.0265980942905
 31
0.0
  0
LINE
  5
247
330
70
100
AcDbEntity
  8
010
 62
    18
420
        0
370
     9
100
AcDbLine
 10
84.17538618584032
 20
137.4296951049875
 30
0.0
 11
80.15340212178301
 21
140.2898055875755
 31
0.0
  0
LINE
  5
248
330
70
100
AcDbEntity
  8
010
 62
    18
420
        0
370
     9
100
AcDbLine
 10
79.84835518512096
 20
131.2894922060815
 30
0.0
 11
84.17538618584032
 21
134.3590821277698
 31
0.0
  0
LINE
  5
249
330
70
100
AcDbEntity
  8
010
 62
    18
420
        0
370
     9
100
AcDbLine
 10
79.84835518512096
 20
127.5112423024727
 30
0.0
 11
84.17538618584032
 21
130.580832224161
 31
0.0
  0
LINE
  5
24A
330
70
100
AcDbEntity
  8
010
 62
    18
420
        0
370
     9
100
AcDbLine
 10
79.18259297988375
 20
125.1496420849444
 30
0.0
 11
84.84114839107753
 21
129.1642178158574
 31
0.0
  0
LINE
  5
24B
330
70
100
AcDbEntity
  8
010
 62
    18
420
        0
370
     9
100
AcDbLine
 10
79.84835518512096
 20
129.4001908653928
 30
0.0
 11
84.17538618584032
 21
132.4701335648498
 31
0.0
  0
LINE
  5
24C
330
70
100
AcDbEntity
  8
010
 62
    18
420
        0
370
     9
100
AcDbLine
 10
84.17538618584032
 20
133.649046312551
 30
0.0
 11
79.84835518512096
 21
136.7261856784911
 31
0.0
  0
LINE
  5
24D
330
70
100
AcDbEntity
  8
010
 62
    18
420
        0
370
     9
100
AcDbLine
 10
83.67394997908141
 20
130.2253027887868
 30
0.0
 11
79.84835518512096
 21
132.9455368860545
 31
0.0
  0
LINE
  5
24E
330
70
100
AcDbEntity
  8
010
 62
    18
420
        0
370
     9
100
AcDbLine
 10
84.17538618584032
 20
131.7587219163327
 30
0.0
 11
79.84835518512096
 21
134.8358612822728
 31
0.0
  0
LINE
  5
24F
330
70
100
AcDbEntity
  8
010
 62
    18
420
        0
370
     9
100
AcDbLine
 10
82.34330539924727
 20
129.2813400350915
 30
0.0
 11
79.84835518512096
 21
131.0555652676051
 31
0.0
  0
LINE
  5
250
330
70
100
AcDbEntity
  8
010
 62
    18
420
        0
370
     9
100
AcDbLine
 10
84.17538618584032
 20
121.3624316260086
 30
0.0
 11
82.3405537326508
 21
122.6674624260478
 31
0.0
  0
LINE
  5
251
330
70
100
AcDbEntity
  8
010
 62
    18
420
        0
370
     9
100
AcDbLine
 10
84.17538618584032
 20
123.2527560222269
 30
0.0
 11
83.67119619870328
 21
123.6113899019662
 31
0.0
  0
LINE
  5
252
330
70
100
AcDbEntity
  8
010
 62
    18
420
        0
370
     9
100
AcDbLine
 10
84.17538618584032
 20
119.4480125081829
 30
0.0
 11
80.99297793369698
 21
121.7110818948916
 31
0.0
  0
LINE
  5
253
330
70
100
AcDbEntity
  8
010
 62
    18
420
        0
370
     9
100
AcDbLine
 10
84.17538618584032
 20
115.6677194155276
 30
0.0
 11
79.84835518512096
 21
118.7448558594552
 31
0.0
  0
LINE
  5
254
330
70
100
AcDbEntity
  8
010
 62
    18
420
        0
370
     9
100
AcDbLine
 10
84.17538618584032
 20
117.5580408897334
 30
0.0
 11
79.84835518512096
 21
120.6351833031747
 31
0.0
  0
LINE
  5
255
330
70
100
AcDbEntity
  8
010
 62
    18
420
        0
370
     9
100
AcDbLine
 10
84.17538618584032
 20
113.7773920972969
 30
0.0
 11
79.84835518512096
 21
116.854531463237
 31
0.0
  0
LINE
  5
256
330
70
100
AcDbEntity
  8
010
 62
    18
420
        0
370
     9
100
AcDbLine
 10
84.17538618584032
 20
109.9970608048523
 30
0.0
 11
79.84835518512096
 21
113.0738826708004
 31
0.0
  0
LINE
  5
257
330
70
100
AcDbEntity
  8
010
 62
    18
420
        0
370
     9
100
AcDbLine
 10
84.17538618584032
 20
111.8870677010786
 30
0.0
 11
79.84835518512096
 21
114.9642070670187
 31
0.0
  0
LINE
  5
258
330
70
100
AcDbEntity
  8
010
 62
    18
420
        0
370
     9
100
AcDbLine
 10
84.17538618584032
 20
108.106736408634
 30
0.0
 11
79.84835518512096
 21
111.1839138610927
 31
0.0
  0
LINE
  5
259
330
70
100
AcDbEntity
  8
010
 62
    18
420
        0
370
     9
100
AcDbLine
 10
82.67780927960224
 20
107.2816597630168
 30
0.0
 11
79.84835518512096
 21
109.2935866561327
 31
0.0
  0
LINE
  5
25A
330
70
100
AcDbEntity
  8
010
 62
    18
420
        0
370
     9
100
AcDbLine
 10
79.84835518512096
 20
120.899093304496
 30
0.0
 11
84.17538618584032
 21
123.9690007261762
 31
0.0
  0
LINE
  5
25B
330
70
100
AcDbEntity
  8
010
 62
    18
420
        0
370
     9
100
AcDbLine
 10
79.84835518512096
 20
119.010144741576
 30
0.0
 11
84.17538618584032
 21
122.0796993854874
 31
0.0
  0
LINE
  5
25C
330
70
100
AcDbEntity
  8
010
 62
    18
420
        0
370
     9
100
AcDbLine
 10
79.18259297988375
 20
123.2606935220244
 30
0.0
 11
84.84114839107753
 21
127.2749164751686
 31
0.0
  0
LINE
  5
25D
330
70
100
AcDbEntity
  8
010
 62
    18
420
        0
370
     9
100
AcDbLine
 10
79.84835518512096
 20
115.2318948379672
 30
0.0
 11
84.17538618584032
 21
118.3014847596554
 31
0.0
  0
LINE
  5
25E
330
70
100
AcDbEntity
  8
010
 62
    18
420
        0
370
     9
100
AcDbLine
 10
79.84835518512096
 20
113.3425934972784
 30
0.0
 11
84.17538618584032
 21
116.4125361967354
 31
0.0
  0
LINE
  5
25F
330
70
100
AcDbEntity
  8
010
 62
    18
420
        0
370
     9
100
AcDbLine
 10
79.84835518512096
 20
117.1208434008872
 30
0.0
 11
84.17538618584032
 21
120.1907508225674
 31
0.0
  0
LINE
  5
260
330
70
100
AcDbEntity
  8
010
 62
    18
420
        0
370
     9
100
AcDbLine
 10
79.84835518512096
 20
111.4536449343584
 30
0.0
 11
84.17538618584032
 21
114.5232348560466
 31
0.0
  0
LINE
  5
261
330
70
100
AcDbEntity
  8
010
 62
    18
420
        0
370
     9
100
AcDbLine
 10
79.84835518512096
 20
107.6754303085264
 30
0.0
 11
84.17538618584032
 21
110.7450202302147
 31
0.0
  0
LINE
  5
262
330
70
100
AcDbEntity
  8
010
 62
    18
420
        0
370
     9
100
AcDbLine
 10
81.95606124246003
 20
107.2816597630168
 30
0.0
 11
84.17538618584032
 21
108.8560716672947
 31
0.0
  0
LINE
  5
263
330
70
100
AcDbEntity
  8
010
 62
    18
420
        0
370
     9
100
AcDbLine
 10
79.84835518512096
 20
109.5643788714465
 30
0.0
 11
84.17538618584032
 21
112.6342862931266
 31
0.0
  0
LINE
  5
264
330
70
100
AcDbEntity
  8
010
 62
    18
420
        0
370
     9
100
AcDbLine
 10
84.17538618584032
 20
139.3196667234369
 30
0.0
 11
80.43883461450104
 21
141.9768594334241
 31
0.0
  0
LINE
  5
265
330
70
100
AcDbEntity
  8
010
 62
    18
420
        0
370
     9
100
AcDbLine
 10
79.84835518512096
 20
138.8459567355223
 30
0.0
 11
83.53512981328574
 21
141.4614863910168
 31
0.0
  0
ENDSEC
  0
SECTION
  2
OBJECTS
  0
DICTIONARY
  5
C
330
0
100
AcDbDictionary
281
     1
  3
ACAD_COLOR
350
63
  3
ACAD_DETAILVIEWSTYLE
350
6A
  3
ACAD_GROUP
350
D
  3
ACAD_LAYOUT
350
62
  3
ACAD_MATERIAL
350
10
  3
ACAD_MLEADERSTYLE
350
66
  3
ACAD_MLINESTYLE
350
5F
  3
ACAD_PLOTSETTINGS
350
61
  3
ACAD_PLOTSTYLENAME
350
E
  3
ACAD_SCALELIST
350
42
  3
ACAD_SECTIONVIEWSTYLE
350
68
  3
ACAD_TABLESTYLE
350
64
  3
ACAD_VISUALSTYLE
350
29
  3
ACDB_RECOMPOSE_DATA
350
26E
  3
AcDbVariableDictionary
350
266
  0
DICTIONARY
  5
63
102
{ACAD_REACTORS
330
C
102
}
330
C
100
AcDbDictionary
281
     1
  0
DICTIONARY
  5
6A
102
{ACAD_REACTORS
330
C
102
}
330
C
100
AcDbDictionary
281
     1
  3
Imperial24
350
6B
  0
DICTIONARY
  5
D
102
{ACAD_REACTORS
330
C
102
}
330
C
100
AcDbDictionary
281
     1
  0
DICTIONARY
  5
62
102
{ACAD_REACTORS
330
C
102
}
330
C
100
AcDbDictionary
281
     1
  3
Layout1
350
6F
  3
Layout2
350
77
  3
Model
350
73
  0
DICTIONARY
  5
10
102
{ACAD_REACTORS
330
C
102
}
330
C
100
AcDbDictionary
281
     1
  3
ByBlock
350
19
  3
ByLayer
350
11
  3
Global
350
21
  0
DICTIONARY
  5
66
102
{ACAD_REACTORS
330
C
102
}
330
C
100
AcDbDictionary
281
     1
  3
Standard
350
67
  0
DICTIONARY
  5
5F
102
{ACAD_REACTORS
330
C
102
}
330
C
100
AcDbDictionary
281
     1
  3
Standard
350
60
  0
DICTIONARY
  5
61
102
{ACAD_REACTORS
330
C
102
}
330
C
100
AcDbDictionary
281
     1
  0
ACDBDICTIONARYWDFLT
  5
E
102
{ACAD_REACTORS
330
C
102
}
330
C
100
AcDbDictionary
281
     1
  3
Normal
350
F
100
AcDbDictionaryWithDefault
340
F
  0
DICTIONARY
  5
42
102
{ACAD_REACTORS
330
C
102
}
330
C
100
AcDbDictionary
281
     1
  3
A0
350
43
  3
A1
350
44
  3
A2
350
45
  3
A3
350
46
  3
A4
350
47
  3
A5
350
48
  3
A6
350
49
  3
A7
350
4A
  3
A8
350
4B
  3
A9
350
4C
  3
B0
350
4D
  3
B1
350
4E
  3
B2
350
4F
  3
B3
350
50
  3
B4
350
51
  3
B5
350
52
  3
B6
350
53
  0
DICTIONARY
  5
68
102
{ACAD_REACTORS
330
C
102
}
330
C
100
AcDbDictionary
281
     1
  3
Imperial24
350
69
  0
DICTIONARY
  5
64
102
{ACAD_REACTORS
330
C
102
}
330
C
100
AcDbDictionary
281
     1
  3
Standard
350
65
  0
DICTIONARY
  5
29
102
{ACAD_REACTORS
330
C
102
}
330
C
100
AcDbDictionary
281
     1
  3
2dWireframe
350
2F
  3
Basic
350
2E
  3
Brighten
350
35
  3
ColorChange
350
39
  3
Conceptual
350
32
  3
Dim
350
34
  3
EdgeColorOff
350
41
  3
Facepattern
350
38
  3
Flat
350
2A
  3
FlatWithEdges
350
2B
  3
Gouraud
350
2C
  3
GouraudWithEdges
350
2D
  3
Hidden
350
31
  3
JitterOff
350
3F
  3
Linepattern
350
37
  3
OverhangOff
350
40
  3
Realistic
350
33
  3
Shaded
350
3E
  3
Shaded with edges
350
3D
  3
Shades of Gray
350
3A
  3
Sketchy
350
3B
  3
Thicken
350
36
  3
Wireframe
350
30
  3
X-Ray
350
3C
  0
XRECORD
  5
26E
102
{ACAD_REACTORS
330
C
102
}
330
C
100
AcDbXrecord
280
     1
 90
        1
330
65
  0
DICTIONARY
  5
266
102
{ACAD_REACTORS
330
C
102
}
330
C
100
AcDbDictionary
281
     1
  3
CANNOSCALE
350
26B
  3
CMLEADERSTYLE
350
268
  3
CTABLESTYLE
350
267
  3
CVIEWDETAILSTYLE
350
269
  3
CVIEWSECTIONSTYLE
350
26A
  0
ACDBDETAILVIEWSTYLE
  5
6B
102
{ACAD_REACTORS
330
6A
102
}
330
6A
100
AcDbModelDocViewStyle
 70
     0
  3
Imperial24
290
     1
300
Imperial24
 90
        0
100
AcDbDetailViewStyle
 70
     0
 71
     0
 90
        3
 71
     1
340
55
 62
   256
 40
0.24
340
0
 62
   256
 40
0.24
300

 40
0.36
280
     3
 71
     2
340
5D
 90
       25
 62
   256
 71
     3
340
55
 62
   256
 40
0.24
 90
        1
 40
0.75
 90
        1
300
%<\AcVar ViewType \f "%tc1">% %<\AcVar ViewDetailId>%\PSCALE %<\AcVar ViewScale \f "%sn">%
 71
     4
340
5D
 90
       25
 62
   256
340
5D
 90
       25
 62
   256
280
     0
  0
LAYOUT
  5
6F
102
{ACAD_REACTORS
330
62
102
}
330
62
100
AcDbPlotSettings
  1

  2

  4

  6

 40
0.0
 41
0.0
 42
0.0
 43
0.0
 44
0.0
 45
0.0
 46
0.0
 47
0.0
 48
0.0
 49
0.0
140
0.0
141
0.0
142
1.0
143
1.0
 70
   688
 72
     0
 73
     0
 74
     5
  7

 75
    16
147
1.0
 76
     0
 77
     2
 78
   300
148
0.0
149
0.0
100
AcDbLayout
  1
Layout1
 70
     1
 71
     1
 10
0.0
 20
0.0
 11
12.0
 21
9.0
 12
0.0
 22
0.0
 32
0.0
 14
0.0
 24
0.0
 34
0.0
 15
0.0
 25
0.0
 35
0.0
146
0.0
 13
0.0
 23
0.0
 33
0.0
 16
1.0
 26
0.0
 36
0.0
 17
0.0
 27
1.0
 37
0.0
 76
     0
330
6C
  0
LAYOUT
  5
77
102
{ACAD_REACTORS
330
62
102
}
330
62
100
AcDbPlotSettings
  1

  2

  4

  6

 40
0.0
 41
0.0
 42
0.0
 43
0.0
 44
0.0
 45
0.0
 46
0.0
 47
0.0
 48
0.0
 49
0.0
140
0.0
141
0.0
142
1.0
143
1.0
 70
   688
 72
     0
 73
     0
 74
     5
  7

 75
    16
147
1.0
 76
     0
 77
     2
 78
   300
148
0.0
149
0.0
100
AcDbLayout
  1
Layout2
 70
     1
 71
     2
 10
0.0
 20
0.0
 11
12.0
 21
9.0
 12
0.0
 22
0.0
 32
0.0
 14
0.0
 24
0.0
 34
0.0
 15
0.0
 25
0.0
 35
0.0
146
0.0
 13
0.0
 23
0.0
 33
0.0
 16
1.0
 26
0.0
 36
0.0
 17
0.0
 27
1.0
 37
0.0
 76
     0
330
74
  0
LAYOUT
  5
73
102
{ACAD_REACTORS
330
62
102
}
330
62
100
AcDbPlotSettings
  1

  2

  4

  6

 40
0.0
 41
0.0
 42
0.0
 43
0.0
 44
0.0
 45
0.0
 46
0.0
 47
0.0
 48
0.0
 49
0.0
140
0.0
141
0.0
142
1.0
143
1.0
 70
  1712
 72
     0
 73
     0
 74
     0
  7

 75
     0
147
1.0
 76
     0
 77
     2
 78
   300
148
0.0
149
0.0
100
AcDbLayout
  1
Model
 70
     1
 71
     0
 10
0.0
 20
0.0
 11
12.0
 21
9.0
 12
0.0
 22
0.0
 32
0.0
 14
0.0
 24
0.0
 34
0.0
 15
0.0
 25
0.0
 35
0.0
146
0.0
 13
0.0
 23
0.0
 33
0.0
 16
1.0
 26
0.0
 36
0.0
 17
0.0
 27
1.0
 37
0.0
 76
     0
330
70
  0
MATERIAL
  5
19
102
{ACAD_XDICTIONARY
360
1A
102
}
102
{ACAD_REACTORS
330
10
102
}
330
10
100
AcDbMaterial
  1
ByBlock
 72
     0
 43
0.0208333333333333
 43
0.0
 43
0.0
 43
0.0
 43
0.0
 43
0.0208333333333333
 43
0.0
 43
0.0
 43
0.0
 43
0.0
 43
1.0
 43
0.0
 43
0.0
 43
0.0
 43
0.0
 43
1.0
 77
     0
 47
0.0208333333333333
 47
0.0
 47
0.0
 47
0.0
 47
0.0
 47
0.0208333333333333
 47
0.0
 47
0.0
 47
0.0
 47
0.0
 47
1.0
 47
0.0
 47
0.0
 47
0.0
 47
0.0
 47
1.0
171
     0
 49
0.0208333333333333
 49
0.0
 49
0.0
 49
0.0
 49
0.0
 49
0.0208333333333333
 49
0.0
 49
0.0
 49
0.0
 49
0.0
 49
1.0
 49
0.0
 49
0.0
 49
0.0
 49
0.0
 49
1.0
175
     0
142
0.0208333333333333
142
0.0
142
0.0
142
0.0
142
0.0
142
0.0208333333333333
142
0.0
142
0.0
142
0.0
142
0.0
142
1.0
142
0.0
142
0.0
142
0.0
142
0.0
142
1.0
179
     0
144
0.0208333333333333
144
0.0
144
0.0
144
0.0
144
0.0
144
0.0208333333333333
144
0.0
144
0.0
144
0.0
144
0.0
144
1.0
144
0.0
144
0.0
144
0.0
144
0.0
144
1.0
147
0.0208333333333333
147
0.0
147
0.0
147
0.0
147
0.0
147
0.0208333333333333
147
0.0
147
0.0
147
0.0
147
0.0
147
1.0
147
0.0
147
0.0
147
0.0
147
0.0
147
1.0
  0
MATERIAL
  5
11
102
{ACAD_XDICTIONARY
360
12
102
}
102
{ACAD_REACTORS
330
10
102
}
330
10
100
AcDbMaterial
  1
ByLayer
 72
     0
 43
0.0208333333333333
 43
0.0
 43
0.0
 43
0.0
 43
0.0
 43
0.0208333333333333
 43
0.0
 43
0.0
 43
0.0
 43
0.0
 43
1.0
 43
0.0
 43
0.0
 43
0.0
 43
0.0
 43
1.0
 77
     0
 47
0.0208333333333333
 47
0.0
 47
0.0
 47
0.0
 47
0.0
 47
0.0208333333333333
 47
0.0
 47
0.0
 47
0.0
 47
0.0
 47
1.0
 47
0.0
 47
0.0
 47
0.0
 47
0.0
 47
1.0
171
     0
 49
0.0208333333333333
 49
0.0
 49
0.0
 49
0.0
 49
0.0
 49
0.0208333333333333
 49
0.0
 49
0.0
 49
0.0
 49
0.0
 49
1.0
 49
0.0
 49
0.0
 49
0.0
 49
0.0
 49
1.0
175
     0
142
0.0208333333333333
142
0.0
142
0.0
142
0.0
142
0.0
142
0.0208333333333333
142
0.0
142
0.0
142
0.0
142
0.0
142
1.0
142
0.0
142
0.0
142
0.0
142
0.0
142
1.0
179
     0
144
0.0208333333333333
144
0.0
144
0.0
144
0.0
144
0.0
144
0.0208333333333333
144
0.0
144
0.0
144
0.0
144
0.0
144
1.0
144
0.0
144
0.0
144
0.0
144
0.0
144
1.0
147
0.0208333333333333
147
0.0
147
0.0
147
0.0
147
0.0
147
0.0208333333333333
147
0.0
147
0.0
147
0.0
147
0.0
147
1.0
147
0.0
147
0.0
147
0.0
147
0.0
147
1.0
  0
MATERIAL
  5
21
102
{ACAD_XDICTIONARY
360
22
102
}
102
{ACAD_REACTORS
330
10
102
}
330
10
100
AcDbMaterial
  1
Global
 72
     0
 43
0.0208333333333333
 43
0.0
 43
0.0
 43
0.0
 43
0.0
 43
0.0208333333333333
 43
0.0
 43
0.0
 43
0.0
 43
0.0
 43
1.0
 43
0.0
 43
0.0
 43
0.0
 43
0.0
 43
1.0
 77
     0
 47
0.0208333333333333
 47
0.0
 47
0.0
 47
0.0
 47
0.0
 47
0.0208333333333333
 47
0.0
 47
0.0
 47
0.0
 47
0.0
 47
1.0
 47
0.0
 47
0.0
 47
0.0
 47
0.0
 47
1.0
171
     0
 49
0.0208333333333333
 49
0.0
 49
0.0
 49
0.0
 49
0.0
 49
0.0208333333333333
 49
0.0
 49
0.0
 49
0.0
 49
0.0
 49
1.0
 49
0.0
 49
0.0
 49
0.0
 49
0.0
 49
1.0
175
     0
142
0.0208333333333333
142
0.0
142
0.0
142
0.0
142
0.0
142
0.0208333333333333
142
0.0
142
0.0
142
0.0
142
0.0
142
1.0
142
0.0
142
0.0
142
0.0
142
0.0
142
1.0
179
     0
144
0.0208333333333333
144
0.0
144
0.0
144
0.0
144
0.0
144
0.0208333333333333
144
0.0
144
0.0
144
0.0
144
0.0
144
1.0
144
0.0
144
0.0
144
0.0
144
0.0
144
1.0
147
0.0208333333333333
147
0.0
147
0.0
147
0.0
147
0.0
147
0.0208333333333333
147
0.0
147
0.0
147
0.0
147
0.0
147
1.0
147
0.0
147
0.0
147
0.0
147
0.0
147
1.0
  0
MLEADERSTYLE
  5
67
102
{ACAD_REACTORS
330
66
102
}
330
66
100
AcDbMLeaderStyle
179
     2
170
     2
171
     1
172
     0
 90
        2
 40
0.0
 41
0.0
173
     1
 91
-1056964608
340
5B
 92
       -2
290
     1
 42
0.09
291
     1
 43
0.36
  3
Standard
 44
0.18
300

342
55
174
     1
178
     6
175
     1
176
     0
 93
-1056964608
 45
0.18
292
     0
297
     0
 46
0.18
 94
-1056964608
 47
1.0
 49
1.0
140
1.0
293
     1
141
0.0
294
     1
177
     0
142
1.0
295
     1
296
     0
143
0.125
271
     0
272
     9
273
     9
298
     1
  0
MLINESTYLE
  5
60
102
{ACAD_REACTORS
330
5F
102
}
330
5F
100
AcDbMlineStyle
  2
STANDARD
 70
     0
  3

 62
   256
 51
90.0
 52
90.0
 71
     2
 49
0.5
 62
   256
  6
BYLAYER
 49
-0.5
 62
   256
  6
BYLAYER
  0
ACDBPLACEHOLDER
  5
F
102
{ACAD_REACTORS
330
E
102
}
330
E
  0
SCALE
  5
43
102
{ACAD_REACTORS
330
42
102
}
330
42
100
AcDbScale
 70
     0
300
1:1
140
1.0
141
1.0
290
     1
  0
SCALE
  5
44
102
{ACAD_REACTORS
330
42
102
}
330
42
100
AcDbScale
 70
     0
300
1/128" = 1'-0"
140
0.0078125
141
12.0
290
     0
  0
SCALE
  5
45
102
{ACAD_REACTORS
330
42
102
}
330
42
100
AcDbScale
 70
     0
300
1/64" = 1'-0"
140
0.015625
141
12.0
290
     0
  0
SCALE
  5
46
102
{ACAD_REACTORS
330
42
102
}
330
42
100
AcDbScale
 70
     0
300
1/32" = 1'-0"
140
0.03125
141
12.0
290
     0
  0
SCALE
  5
47
102
{ACAD_REACTORS
330
42
102
}
330
42
100
AcDbScale
 70
     0
300
1/16" = 1'-0"
140
0.0625
141
12.0
290
     0
  0
SCALE
  5
48
102
{ACAD_REACTORS
330
42
102
}
330
42
100
AcDbScale
 70
     0
300
3/32" = 1'-0"
140
0.09375
141
12.0
290
     0
  0
SCALE
  5
49
102
{ACAD_REACTORS
330
42
102
}
330
42
100
AcDbScale
 70
     0
300
1/8" = 1'-0"
140
0.125
141
12.0
290
     0
  0
SCALE
  5
4A
102
{ACAD_REACTORS
330
42
102
}
330
42
100
AcDbScale
 70
     0
300
3/16" = 1'-0"
140
0.1875
141
12.0
290
     0
  0
SCALE
  5
4B
102
{ACAD_REACTORS
330
42
102
}
330
42
100
AcDbScale
 70
     0
300
1/4" = 1'-0"
140
0.25
141
12.0
290
     0
  0
SCALE
  5
4C
102
{ACAD_REACTORS
330
42
102
}
330
42
100
AcDbScale
 70
     0
300
3/8" = 1'-0"
140
0.375
141
12.0
290
     0
  0
SCALE
  5
4D
102
{ACAD_REACTORS
330
42
102
}
330
42
100
AcDbScale
 70
     0
300
1/2" = 1'-0"
140
0.5
141
12.0
290
     0
  0
SCALE
  5
4E
102
{ACAD_REACTORS
330
42
102
}
330
42
100
AcDbScale
 70
     0
300
3/4" = 1'-0"
140
0.75
141
12.0
290
     0
  0
SCALE
  5
4F
102
{ACAD_REACTORS
330
42
102
}
330
42
100
AcDbScale
 70
     0
300
1" = 1'-0"
140
1.0
141
12.0
290
     0
  0
SCALE
  5
50
102
{ACAD_REACTORS
330
42
102
}
330
42
100
AcDbScale
 70
     0
300
1-1/2" = 1'-0"
140
1.5
141
12.0
290
     0
  0
SCALE
  5
51
102
{ACAD_REACTORS
330
42
102
}
330
42
100
AcDbScale
 70
     0
300
3" = 1'-0"
140
3.0
141
12.0
290
     0
  0
SCALE
  5
52
102
{ACAD_REACTORS
330
42
102
}
330
42
100
AcDbScale
 70
     0
300
6" = 1'-0"
140
6.0
141
12.0
290
     0
  0
SCALE
  5
53
102
{ACAD_REACTORS
330
42
102
}
330
42
100
AcDbScale
 70
     0
300
1'-0" = 1'-0"
140
12.0
141
12.0
290
     0
  0
ACDBSECTIONVIEWSTYLE
  5
69
102
{ACAD_REACTORS
330
68
102
}
330
68
100
AcDbModelDocViewStyle
 70
     0
  3
Imperial24
290
     1
300
Imperial24
 90
        0
100
AcDbSectionViewStyle
 70
     0
 71
     0
 90
       78
 71
     1
340
55
 62
   256
 40
0.24
340
0
340
0
 62
   256
 40
0.24
300
I, O, Q, S, X, Z
 40
0.48
 90
        3
 40
0.18
 90
        1
 71
     2
340
5D
 90
       25
 62
   256
340
5D
 90
       50
 62
   256
 40
0.24
 40
0.0
 40
0.24
 71
     3
340
55
 62
   256
 40
0.24
 90
        1
 40
0.75
 90
        1
300
%<\AcVar ViewType \f "%tc1">% %<\AcVar ViewSectionStartId>%-%<\AcVar ViewSectionEndId>%\PSCALE %<\AcVar ViewScale \f "%sn">%
 71
     4
 62
   256
 62
   257
300
ANSI31
 40
1.0
 90
        0
290
     0
290
     0
 90
        6
 40
0.0
 40
1.570796326794896
 40
0.2617993877991494
 40
1.308996938995747
 40
-0.2617993877991494
 40
1.832595714594046
  0
TABLESTYLE
  5
65
102
{ACAD_XDICTIONARY
360
26C
102
}
102
{ACAD_REACTORS
330
64
102
}
330
64
100
AcDbTableStyle
280
     0
  3
Standard
 70
     0
 71
     0
 40
0.06
 41
0.06
280
     0
281
     0
  7
Standard
140
0.18
170
     2
 62
     0
 63
     7
283
     0
 90
      512
 91
        0
  1

274
    -2
284
     1
 64
     0
275
    -2
285
     1
 65
     0
276
    -2
286
     1
 66
     0
277
    -2
287
     1
 67
     0
278
    -2
288
     1
 68
     0
279
    -2
289
     1
 69
     0
  7
Standard
140
0.25
170
     5
 62
     0
 63
     7
283
     0
 90
      512
 91
        0
  1

274
    -2
284
     1
 64
     0
275
    -2
285
     1
 65
     0
276
    -2
286
     1
 66
     0
277
    -2
287
     1
 67
     0
278
    -2
288
     1
 68
     0
279
    -2
289
     1
 69
     0
  7
Standard
140
0.18
170
     5
 62
     0
 63
     7
283
     0
 90
      512
 91
        0
  1

274
    -2
284
     1
 64
     0
275
    -2
285
     1
 65
     0
276
    -2
286
     1
 66
     0
277
    -2
287
     1
 67
     0
278
    -2
288
     1
 68
     0
279
    -2
289
     1
 69
     0
  0
VISUALSTYLE
  5
2F
102
{ACAD_REACTORS
330
29
102
}
330
29
100
AcDbVisualStyle
  2
2dWireframe
 70
     4
177
     3
291
     0
 70
    58
 90
        0
176
     1
 90
        2
176
     1
 90
        0
176
     1
 90
        0
176
     1
 40
0.6
176
     1
 40
30.0
176
     1
 62
     7
420
 16777215
176
     1
 90
        1
176
     1
 90
        4
176
     1
 62
     7
176
     1
 62
   257
176
     1
 90
        1
176
     1
 90
        1
176
     1
 40
1.0
176
     1
 90
        0
176
     1
 62
   257
176
     1
 40
1.0
176
     1
 90
        1
176
     1
 90
        6
176
     1
 90
        2
176
     1
 62
     7
176
     1
 90
        5
176
     1
 90
        0
176
     1
 90
        0
176
     1
290
     0
176
     1
 90
        1
176
     1
 40
0.0
176
     1
 90
        0
176
     1
290
     1
176
     1
290
     1
176
     1
290
     0
176
     1
290
     0
176
     1
290
     0
176
     1
290
     0
176
     1
290
     0
176
     1
290
     0
176
     1
290
     0
176
     1
 90
       50
176
     1
 40
0.0
176
     1
 40
1.0
176
     1
 90
        0
176
     1
 62
    18
420
        0
176
     1
 90
       50
176
     1
 90
        3
176
     1
 62
     5
420
      255
176
     1
290
     0
176
     1
 90
       50
176
     1
 90
       50
176
     1
 90
       50
176
     1
290
     0
176
     1
 90
       50
176
     1
 62
   256
176
     0
 40
1.0
176
     0
 90
        2
176
     1
  1
strokes_ogs.tif
176
     1
290
     0
176
     1
 40
1.0
176
     1
 40
1.0
176
     1
  0
VISUALSTYLE
  5
2E
102
{ACAD_REACTORS
330
29
102
}
330
29
100
AcDbVisualStyle
  2
Basic
 70
     7
177
     3
291
     1
 70
    58
 90
        1
176
     1
 90
        0
176
     1
 90
        1
176
     1
 90
        0
176
     1
 40
0.6
176
     1
 40
30.0
176
     1
 62
     7
420
 16777215
176
     1
 90
        0
176
     1
 90
        4
176
     1
 62
     7
176
     1
 62
   257
176
     1
 90
        1
176
     1
 90
        1
176
     1
 40
1.0
176
     1
 90
        8
176
     1
 62
     7
176
     1
 40
1.0
176
     1
 90
        1
176
     1
 90
        6
176
     1
 90
        2
176
     1
 62
     7
176
     1
 90
        5
176
     1
 90
        0
176
     1
 90
        0
176
     1
290
     0
176
     1
 90
        1
176
     1
 40
0.0
176
     1
 90
        0
176
     1
290
     0
176
     1
290
     1
176
     1
290
     1
176
     1
290
     0
176
     1
290
     0
176
     1
290
     0
176
     1
290
     0
176
     1
290
     0
176
     1
290
     0
176
     1
 90
       50
176
     1
 40
0.0
176
     1
 40
1.0
176
     1
 90
        0
176
     1
 62
    18
420
        0
176
     1
 90
       50
176
     1
 90
        3
176
     1
 62
     5
420
      255
176
     1
290
     0
176
     1
 90
       50
176
     1
 90
       50
176
     1
 90
       50
176
     1
290
     0
176
     1
 90
       50
176
     1
 62
   256
176
     0
 40
1.0
176
     0
 90
        2
176
     1
  1
strokes_ogs.tif
176
     1
290
     0
176
     1
 40
1.0
176
     1
 40
1.0
176
     1
  0
VISUALSTYLE
  5
35
102
{ACAD_REACTORS
330
29
102
}
330
29
100
AcDbVisualStyle
  2
Brighten
 70
    12
177
     3
291
     1
 70
    58
 90
        2
176
     1
 90
        2
176
     1
 90
        0
176
     1
 90
        0
176
     1
 40
0.6
176
     1
 40
30.0
176
     1
 62
     7
420
 16777215
176
     1
 90
        1
176
     1
 90
        4
176
     1
 62
     7
176
     1
 62
   257
176
     1
 90
        1
176
     1
 90
        1
176
     1
 40
1.0
176
     1
 90
        8
176
     1
 62
     7
176
     1
 40
1.0
176
     1
 90
        1
176
     1
 90
        6
176
     1
 90
        2
176
     1
 62
     7
176
     1
 90
        5
176
     1
 90
        0
176
     1
 90
        0
176
     1
290
     0
176
     1
 90
        1
176
     1
 40
50.0
176
     1
 90
        0
176
     1
290
     0
176
     1
290
     1
176
     1
290
     1
176
     1
290
     0
176
     1
290
     0
176
     1
290
     0
176
     1
290
     0
176
     1
290
     0
176
     1
290
     0
176
     1
 90
       50
176
     1
 40
0.0
176
     1
 40
1.0
176
     1
 90
        0
176
     1
 62
    18
420
        0
176
     1
 90
       50
176
     1
 90
        3
176
     1
 62
     5
420
      255
176
     1
290
     0
176
     1
 90
       50
176
     1
 90
       50
176
     1
 90
       50
176
     1
290
     0
176
     1
 90
       50
176
     1
 62
   256
176
     0
 40
1.0
176
     0
 90
        2
176
     1
  1
strokes_ogs.tif
176
     1
290
     0
176
     1
 40
1.0
176
     1
 40
1.0
176
     1
  0
VISUALSTYLE
  5
39
102
{ACAD_REACTORS
330
29
102
}
330
29
100
AcDbVisualStyle
  2
ColorChange
 70
    16
177
     3
291
     1
 70
    58
 90
        2
176
     1
 90
        2
176
     1
 90
        3
176
     1
 90
        0
176
     1
 40
0.6
176
     1
 40
30.0
176
     1
 62
     8
420
  8421504
176
     1
 90
        1
176
     1
 90
        4
176
     1
 62
     7
176
     1
 62
   257
176
     1
 90
        1
176
     1
 90
        1
176
     1
 40
1.0
176
     1
 90
        8
176
     1
 62
     8
420
  8421504
176
     1
 40
1.0
176
     1
 90
        1
176
     1
 90
        6
176
     1
 90
        2
176
     1
 62
     7
176
     1
 90
        5
176
     1
 90
        0
176
     1
 90
        0
176
     1
290
     0
176
     1
 90
        1
176
     1
 40
0.0
176
     1
 90
        0
176
     1
290
     0
176
     1
290
     1
176
     1
290
     1
176
     1
290
     0
176
     1
290
     0
176
     1
290
     0
176
     1
290
     0
176
     1
290
     0
176
     1
290
     0
176
     1
 90
       50
176
     1
 40
0.0
176
     1
 40
1.0
176
     1
 90
        0
176
     1
 62
    18
420
        0
176
     1
 90
       50
176
     1
 90
        3
176
     1
 62
     5
420
      255
176
     1
290
     0
176
     1
 90
       50
176
     1
 90
       50
176
     1
 90
       50
176
     1
290
     0
176
     1
 90
       50
176
     1
 62
   256
176
     0
 40
1.0
176
     0
 90
        2
176
     1
  1
strokes_ogs.tif
176
     1
290
     0
176
     1
 40
1.0
176
     1
 40
1.0
176
     1
  0
VISUALSTYLE
  5
32
102
{ACAD_REACTORS
330
29
102
}
330
29
100
AcDbVisualStyle
  2
Conceptual
 70
     9
177
     3
291
     0
 70
    58
 90
        3
176
     1
 90
        2
176
     1
 90
        0
176
     1
 90
        0
176
     1
 40
0.6
176
     1
 40
30.0
176
     1
 62
     7
420
 16777215
176
     1
 90
        2
176
     1
 90
        2
176
     1
 62
     7
176
     1
 62
   257
176
     1
 90
        1
176
     1
 90
        1
176
     1
 40
179.0
176
     1
 90
        8
176
     1
 62
     7
176
     1
 40
1.0
176
     1
 90
        1
176
     1
 90
        6
176
     1
 90
        2
176
     1
 62
     7
176
     1
 90
        3
176
     1
 90
        0
176
     1
 90
        0
176
     1
290
     0
176
     1
 90
        1
176
     1
 40
0.0
176
     1
 90
        0
176
     1
290
     0
176
     1
290
     1
176
     1
290
     1
176
     1
290
     0
176
     1
290
     0
176
     1
290
     0
176
     1
290
     0
176
     1
290
     0
176
     1
290
     0
176
     1
 90
       50
176
     1
 40
0.0
176
     1
 40
1.0
176
     1
 90
        0
176
     1
 62
    18
420
        0
176
     1
 90
       50
176
     1
 90
        3
176
     1
 62
     5
420
      255
176
     1
290
     0
176
     1
 90
       50
176
     1
 90
       50
176
     1
 90
       50
176
     1
290
     0
176
     1
 90
       50
176
     1
 62
   256
176
     0
 40
1.0
176
     0
 90
        2
176
     1
  1
strokes_ogs.tif
176
     1
290
     0
176
     1
 40
1.0
176
     1
 40
1.0
176
     1
  0
VISUALSTYLE
  5
34
102
{ACAD_REACTORS
330
29
102
}
330
29
100
AcDbVisualStyle
  2
Dim
 70
    11
177
     3
291
     1
 70
    58
 90
        2
176
     1
 90
        2
176
     1
 90
        0
176
     1
 90
        0
176
     1
 40
0.6
176
     1
 40
30.0
176
     1
 62
     7
420
 16777215
176
     1
 90
        1
176
     1
 90
        4
176
     1
 62
     7
176
     1
 62
   257
176
     1
 90
        1
176
     1
 90
        1
176
     1
 40
1.0
176
     1
 90
        8
176
     1
 62
     7
176
     1
 40
1.0
176
     1
 90
        1
176
     1
 90
        6
176
     1
 90
        2
176
     1
 62
     7
176
     1
 90
        5
176
     1
 90
        0
176
     1
 90
        0
176
     1
290
     0
176
     1
 90
        1
176
     1
 40
-50.0
176
     1
 90
        0
176
     1
290
     0
176
     1
290
     1
176
     1
290
     1
176
     1
290
     0
176
     1
290
     0
176
     1
290
     0
176
     1
290
     0
176
     1
290
     0
176
     1
290
     0
176
     1
 90
       50
176
     1
 40
0.0
176
     1
 40
1.0
176
     1
 90
        0
176
     1
 62
    18
420
        0
176
     1
 90
       50
176
     1
 90
        3
176
     1
 62
     5
420
      255
176
     1
290
     0
176
     1
 90
       50
176
     1
 90
       50
176
     1
 90
       50
176
     1
290
     0
176
     1
 90
       50
176
     1
 62
   256
176
     0
 40
1.0
176
     0
 90
        2
176
     1
  1
strokes_ogs.tif
176
     1
290
     0
176
     1
 40
1.0
176
     1
 40
1.0
176
     1
  0
VISUALSTYLE
  5
41
102
{ACAD_REACTORS
330
29
102
}
330
29
100
AcDbVisualStyle
  2
EdgeColorOff
 70
    22
177
     3
291
     1
 70
    58
 90
        2
176
     0
 90
        2
176
     0
 90
        0
176
     0
 90
        0
176
     0
 40
0.6
176
     0
 40
30.0
176
     0
 62
     7
420
 16777215
176
     0
 90
        1
176
     0
 90
        4
176
     0
 62
     7
176
     0
 62
   257
176
     0
 90
        1
176
     0
 90
        1
176
     0
 40
1.0
176
     0
 90
        8
176
     2
 62
     7
176
     0
 40
1.0
176
     0
 90
        1
176
     0
 90
        6
176
     0
 90
        2
176
     0
 62
     7
176
     0
 90
        5
176
     0
 90
        0
176
     0
 90
        0
176
     0
290
     0
176
     0
 90
        1
176
     0
 40
0.0
176
     0
 90
        0
176
     0
290
     0
176
     0
290
     1
176
     0
290
     1
176
     0
290
     0
176
     0
290
     0
176
     0
290
     0
176
     0
290
     0
176
     0
290
     0
176
     0
290
     0
176
     0
 90
       50
176
     0
 40
0.0
176
     0
 40
1.0
176
     0
 90
        0
176
     0
 62
    18
420
        0
176
     0
 90
       50
176
     0
 90
        3
176
     0
 62
     5
420
      255
176
     0
290
     0
176
     0
 90
       50
176
     0
 90
       50
176
     0
 90
       50
176
     0
290
     0
176
     0
 90
       50
176
     0
 62
   256
176
     0
 40
1.0
176
     0
 90
        2
176
     0
  1
strokes_ogs.tif
176
     0
290
     0
176
     0
 40
1.0
176
     0
 40
1.0
176
     0
  0
VISUALSTYLE
  5
38
102
{ACAD_REACTORS
330
29
102
}
330
29
100
AcDbVisualStyle
  2
Facepattern
 70
    15
177
     3
291
     1
 70
    58
 90
        2
176
     1
 90
        2
176
     1
 90
        0
176
     1
 90
        0
176
     1
 40
0.6
176
     1
 40
30.0
176
     1
 62
     7
420
 16777215
176
     1
 90
        1
176
     1
 90
        4
176
     1
 62
     7
176
     1
 62
   257
176
     1
 90
        1
176
     1
 90
        1
176
     1
 40
1.0
176
     1
 90
        8
176
     1
 62
     7
176
     1
 40
1.0
176
     1
 90
        1
176
     1
 90
        6
176
     1
 90
        2
176
     1
 62
     7
176
     1
 90
        5
176
     1
 90
        0
176
     1
 90
        0
176
     1
290
     0
176
     1
 90
        1
176
     1
 40
0.0
176
     1
 90
        0
176
     1
290
     0
176
     1
290
     1
176
     1
290
     1
176
     1
290
     0
176
     1
290
     0
176
     1
290
     0
176
     1
290
     0
176
     1
290
     0
176
     1
290
     0
176
     1
 90
       50
176
     1
 40
0.0
176
     1
 40
1.0
176
     1
 90
        0
176
     1
 62
    18
420
        0
176
     1
 90
       50
176
     1
 90
        3
176
     1
 62
     5
420
      255
176
     1
290
     0
176
     1
 90
       50
176
     1
 90
       50
176
     1
 90
       50
176
     1
290
     0
176
     1
 90
       50
176
     1
 62
   256
176
     0
 40
1.0
176
     0
 90
        2
176
     1
  1
strokes_ogs.tif
176
     1
290
     0
176
     1
 40
1.0
176
     1
 40
1.0
176
     1
  0
VISUALSTYLE
  5
2A
102
{ACAD_REACTORS
330
29
102
}
330
29
100
AcDbVisualStyle
  2
Flat
 70
     0
177
     3
291
     1
 70
    58
 90
        2
176
     1
 90
        1
176
     1
 90
        1
176
     1
 90
        2
176
     1
 40
0.6
176
     1
 40
30.0
176
     1
 62
     7
420
 16777215
176
     1
 90
        0
176
     1
 90
        0
176
     1
 62
     7
176
     1
 62
   257
176
     1
 90
        1
176
     1
 90
        1
176
     1
 40
1.0
176
     1
 90
        8
176
     1
 62
     7
176
     1
 40
1.0
176
     1
 90
        1
176
     1
 90
        6
176
     1
 90
        2
176
     1
 62
     7
176
     1
 90
        5
176
     1
 90
        0
176
     1
 90
        0
176
     1
290
     0
176
     1
 90
       13
176
     1
 40
0.0
176
     1
 90
        0
176
     1
290
     0
176
     1
290
     1
176
     1
290
     1
176
     1
290
     0
176
     1
290
     0
176
     1
290
     0
176
     1
290
     0
176
     1
290
     0
176
     1
290
     0
176
     1
 90
       50
176
     1
 40
0.0
176
     1
 40
1.0
176
     1
 90
        0
176
     1
 62
    18
420
        0
176
     1
 90
       50
176
     1
 90
        3
176
     1
 62
     5
420
      255
176
     1
290
     0
176
     1
 90
       50
176
     1
 90
       50
176
     1
 90
       50
176
     1
290
     0
176
     1
 90
       50
176
     1
 62
   256
176
     0
 40
1.0
176
     0
 90
        2
176
     1
  1
strokes_ogs.tif
176
     1
290
     0
176
     1
 40
1.0
176
     1
 40
1.0
176
     1
  0
VISUALSTYLE
  5
2B
102
{ACAD_REACTORS
330
29
102
}
330
29
100
AcDbVisualStyle
  2
FlatWithEdges
 70
     1
177
     3
291
     1
 70
    58
 90
        2
176
     1
 90
        1
176
     1
 90
        1
176
     1
 90
        2
176
     1
 40
0.6
176
     1
 40
30.0
176
     1
 62
     7
420
 16777215
176
     1
 90
        1
176
     1
 90
        0
176
     1
 62
     7
176
     1
 62
   257
176
     1
 90
        1
176
     1
 90
        1
176
     1
 40
1.0
176
     1
 90
        0
176
     1
 62
   257
176
     1
 40
1.0
176
     1
 90
        1
176
     1
 90
        6
176
     1
 90
        2
176
     1
 62
     7
176
     1
 90
        5
176
     1
 90
        0
176
     1
 90
        0
176
     1
290
     0
176
     1
 90
       13
176
     1
 40
0.0
176
     1
 90
        0
176
     1
290
     0
176
     1
290
     1
176
     1
290
     1
176
     1
290
     0
176
     1
290
     0
176
     1
290
     0
176
     1
290
     0
176
     1
290
     0
176
     1
290
     0
176
     1
 90
       50
176
     1
 40
0.0
176
     1
 40
1.0
176
     1
 90
        0
176
     1
 62
    18
420
        0
176
     1
 90
       50
176
     1
 90
        3
176
     1
 62
     5
420
      255
176
     1
290
     0
176
     1
 90
       50
176
     1
 90
       50
176
     1
 90
       50
176
     1
290
     0
176
     1
 90
       50
176
     1
 62
   256
176
     0
 40
1.0
176
     0
 90
        2
176
     1
  1
strokes_ogs.tif
176
     1
290
     0
176
     1
 40
1.0
176
     1
 40
1.0
176
     1
  0
VISUALSTYLE
  5
2C
102
{ACAD_REACTORS
330
29
102
}
330
29
100
AcDbVisualStyle
  2
Gouraud
 70
     2
177
     3
291
     1
 70
    58
 90
        2
176
     1
 90
        2
176
     1
 90
        1
176
     1
 90
        2
176
     1
 40
0.6
176
     1
 40
30.0
176
     1
 62
     7
420
 16777215
176
     1
 90
        0
176
     1
 90
        0
176
     1
 62
     7
176
     1
 62
   257
176
     1
 90
        1
176
     1
 90
        1
176
     1
 40
1.0
176
     1
 90
        0
176
     1
 62
     7
176
     1
 40
1.0
176
     1
 90
        1
176
     1
 90
        6
176
     1
 90
        2
176
     1
 62
     7
176
     1
 90
        5
176
     1
 90
        0
176
     1
 90
        0
176
     1
290
     0
176
     1
 90
       13
176
     1
 40
0.0
176
     1
 90
        0
176
     1
290
     0
176
     1
290
     1
176
     1
290
     1
176
     1
290
     0
176
     1
290
     0
176
     1
290
     0
176
     1
290
     0
176
     1
290
     0
176
     1
290
     0
176
     1
 90
       50
176
     1
 40
0.0
176
     1
 40
1.0
176
     1
 90
        0
176
     1
 62
    18
420
        0
176
     1
 90
       50
176
     1
 90
        3
176
     1
 62
     5
420
      255
176
     1
290
     0
176
     1
 90
       50
176
     1
 90
       50
176
     1
 90
       50
176
     1
290
     0
176
     1
 90
       50
176
     1
 62
   256
176
     0
 40
1.0
176
     0
 90
        2
176
     1
  1
strokes_ogs.tif
176
     1
290
     0
176
     1
 40
1.0
176
     1
 40
1.0
176
     1
  0
VISUALSTYLE
  5
2D
102
{ACAD_REACTORS
330
29
102
}
330
29
100
AcDbVisualStyle
  2
GouraudWithEdges
 70
     3
177
     3
291
     1
 70
    58
 90
        2
176
     1
 90
        2
176
     1
 90
        1
176
     1
 90
        2
176
     1
 40
0.6
176
     1
 40
30.0
176
     1
 62
     7
420
 16777215
176
     1
 90
        1
176
     1
 90
        0
176
     1
 62
     7
176
     1
 62
   257
176
     1
 90
        1
176
     1
 90
        1
176
     1
 40
1.0
176
     1
 90
        0
176
     1
 62
   257
176
     1
 40
1.0
176
     1
 90
        1
176
     1
 90
        6
176
     1
 90
        2
176
     1
 62
     7
176
     1
 90
        5
176
     1
 90
        0
176
     1
 90
        0
176
     1
290
     0
176
     1
 90
       13
176
     1
 40
0.0
176
     1
 90
        0
176
     1
290
     0
176
     1
290
     1
176
     1
290
     1
176
     1
290
     0
176
     1
290
     0
176
     1
290
     0
176
     1
290
     0
176
     1
290
     0
176
     1
290
     0
176
     1
 90
       50
176
     1
 40
0.0
176
     1
 40
1.0
176
     1
 90
        0
176
     1
 62
    18
420
        0
176
     1
 90
       50
176
     1
 90
        3
176
     1
 62
     5
420
      255
176
     1
290
     0
176
     1
 90
       50
176
     1
 90
       50
176
     1
 90
       50
176
     1
290
     0
176
     1
 90
       50
176
     1
 62
   256
176
     0
 40
1.0
176
     0
 90
        2
176
     1
  1
strokes_ogs.tif
176
     1
290
     0
176
     1
 40
1.0
176
     1
 40
1.0
176
     1
  0
VISUALSTYLE
  5
31
102
{ACAD_REACTORS
330
29
102
}
330
29
100
AcDbVisualStyle
  2
Hidden
 70
     6
177
     3
291
     0
 70
    58
 90
        1
176
     1
 90
        2
176
     1
 90
        2
176
     1
 90
        0
176
     1
 40
0.6
176
     1
 40
30.0
176
     1
 62
     7
420
 16777215
176
     1
 90
        2
176
     1
 90
        2
176
     1
 62
     7
176
     1
 62
   257
176
     1
 90
        2
176
     1
 90
        1
176
     1
 40
40.0
176
     1
 90
        0
176
     1
 62
   257
176
     1
 40
1.0
176
     1
 90
        1
176
     1
 90
        6
176
     1
 90
        2
176
     1
 62
     7
176
     1
 90
        3
176
     1
 90
        0
176
     1
 90
        0
176
     1
290
     0
176
     1
 90
        1
176
     1
 40
0.0
176
     1
 90
        0
176
     1
290
     0
176
     1
290
     1
176
     1
290
     1
176
     1
290
     0
176
     1
290
     0
176
     1
290
     0
176
     1
290
     0
176
     1
290
     0
176
     1
290
     0
176
     1
 90
       50
176
     1
 40
0.0
176
     1
 40
1.0
176
     1
 90
        0
176
     1
 62
    18
420
        0
176
     1
 90
       50
176
     1
 90
        3
176
     1
 62
     5
420
      255
176
     1
290
     0
176
     1
 90
       50
176
     1
 90
       50
176
     1
 90
       50
176
     1
290
     0
176
     1
 90
       50
176
     1
 62
   256
176
     0
 40
1.0
176
     0
 90
        2
176
     1
  1
strokes_ogs.tif
176
     1
290
     0
176
     1
 40
1.0
176
     1
 40
1.0
176
     1
  0
VISUALSTYLE
  5
3F
102
{ACAD_REACTORS
330
29
102
}
330
29
100
AcDbVisualStyle
  2
JitterOff
 70
    20
177
     3
291
     1
 70
    58
 90
        2
176
     0
 90
        2
176
     0
 90
        0
176
     0
 90
        0
176
     0
 40
0.6
176
     0
 40
30.0
176
     0
 62
     7
420
 16777215
176
     0
 90
        1
176
     0
 90
        4
176
     0
 62
     7
176
     0
 62
   257
176
     0
 90
        1
176
     0
 90
        1
176
     0
 40
1.0
176
     0
 90
       10
176
     2
 62
     7
176
     0
 40
1.0
176
     0
 90
        1
176
     0
 90
        6
176
     0
 90
        2
176
     0
 62
     7
176
     0
 90
        5
176
     0
 90
        0
176
     0
 90
        0
176
     0
290
     0
176
     0
 90
        1
176
     0
 40
0.0
176
     0
 90
        0
176
     0
290
     0
176
     0
290
     1
176
     0
290
     1
176
     0
290
     0
176
     0
290
     0
176
     0
290
     0
176
     0
290
     0
176
     0
290
     0
176
     0
290
     0
176
     0
 90
       50
176
     0
 40
0.0
176
     0
 40
1.0
176
     0
 90
        0
176
     0
 62
    18
420
        0
176
     0
 90
       50
176
     0
 90
        3
176
     0
 62
     5
420
      255
176
     0
290
     0
176
     0
 90
       50
176
     0
 90
       50
176
     0
 90
       50
176
     0
290
     0
176
     0
 90
       50
176
     0
 62
   256
176
     0
 40
1.0
176
     0
 90
        2
176
     0
  1
strokes_ogs.tif
176
     0
290
     0
176
     0
 40
1.0
176
     0
 40
1.0
176
     0
  0
VISUALSTYLE
  5
37
102
{ACAD_REACTORS
330
29
102
}
330
29
100
AcDbVisualStyle
  2
Linepattern
 70
    14
177
     3
291
     1
 70
    58
 90
        2
176
     1
 90
        2
176
     1
 90
        0
176
     1
 90
        0
176
     1
 40
0.6
176
     1
 40
30.0
176
     1
 62
     7
420
 16777215
176
     1
 90
        1
176
     1
 90
        4
176
     1
 62
     7
176
     1
 62
   257
176
     1
 90
        7
176
     1
 90
        7
176
     1
 40
1.0
176
     1
 90
        8
176
     1
 62
     7
176
     1
 40
1.0
176
     1
 90
        1
176
     1
 90
        6
176
     1
 90
        2
176
     1
 62
     7
176
     1
 90
        5
176
     1
 90
        0
176
     1
 90
        0
176
     1
290
     0
176
     1
 90
        1
176
     1
 40
0.0
176
     1
 90
        0
176
     1
290
     0
176
     1
290
     1
176
     1
290
     1
176
     1
290
     0
176
     1
290
     0
176
     1
290
     0
176
     1
290
     0
176
     1
290
     0
176
     1
290
     0
176
     1
 90
       50
176
     1
 40
0.0
176
     1
 40
1.0
176
     1
 90
        0
176
     1
 62
    18
420
        0
176
     1
 90
       50
176
     1
 90
        3
176
     1
 62
     5
420
      255
176
     1
290
     0
176
     1
 90
       50
176
     1
 90
       50
176
     1
 90
       50
176
     1
290
     0
176
     1
 90
       50
176
     1
 62
   256
176
     0
 40
1.0
176
     0
 90
        2
176
     1
  1
strokes_ogs.tif
176
     1
290
     0
176
     1
 40
1.0
176
     1
 40
1.0
176
     1
  0
VISUALSTYLE
  5
40
102
{ACAD_REACTORS
330
29
102
}
330
29
100
AcDbVisualStyle
  2
OverhangOff
 70
    21
177
     3
291
     1
 70
    58
 90
        2
176
     0
 90
        2
176
     0
 90
        0
176
     0
 90
        0
176
     0
 40
0.6
176
     0
 40
30.0
176
     0
 62
     7
420
 16777215
176
     0
 90
        1
176
     0
 90
        4
176
     0
 62
     7
176
     0
 62
   257
176
     0
 90
        1
176
     0
 90
        1
176
     0
 40
1.0
176
     0
 90
        9
176
     2
 62
     7
176
     0
 40
1.0
176
     0
 90
        1
176
     0
 90
        6
176
     0
 90
        2
176
     0
 62
     7
176
     0
 90
        5
176
     0
 90
        0
176
     0
 90
        0
176
     0
290
     0
176
     0
 90
        1
176
     0
 40
0.0
176
     0
 90
        0
176
     0
290
     0
176
     0
290
     1
176
     0
290
     1
176
     0
290
     0
176
     0
290
     0
176
     0
290
     0
176
     0
290
     0
176
     0
290
     0
176
     0
290
     0
176
     0
 90
       50
176
     0
 40
0.0
176
     0
 40
1.0
176
     0
 90
        0
176
     0
 62
    18
420
        0
176
     0
 90
       50
176
     0
 90
        3
176
     0
 62
     5
420
      255
176
     0
290
     0
176
     0
 90
       50
176
     0
 90
       50
176
     0
 90
       50
176
     0
290
     0
176
     0
 90
       50
176
     0
 62
   256
176
     0
 40
1.0
176
     0
 90
        2
176
     0
  1
strokes_ogs.tif
176
     0
290
     0
176
     0
 40
1.0
176
     0
 40
1.0
176
     0
  0
VISUALSTYLE
  5
33
102
{ACAD_REACTORS
330
29
102
}
330
29
100
AcDbVisualStyle
  2
Realistic
 70
     8
177
     3
291
     0
 70
    58
 90
        2
176
     1
 90
        3
176
     1
 90
        0
176
     1
 90
        2
176
     1
 40
0.6
176
     1
 40
30.0
176
     1
 62
     7
420
 16777215
176
     1
 90
        0
176
     1
 90
        0
176
     1
 62
     7
176
     1
 62
   257
176
     1
 90
        1
176
     1
 90
        1
176
     1
 40
1.0
176
     1
 90
        8
176
     1
 62
   257
176
     1
 40
1.0
176
     1
 90
        1
176
     1
 90
        6
176
     1
 90
        2
176
     1
 62
     7
176
     1
 90
        3
176
     1
 90
        0
176
     1
 90
        0
176
     1
290
     0
176
     1
 90
       13
176
     1
 40
0.0
176
     1
 90
        0
176
     1
290
     0
176
     1
290
     1
176
     1
290
     1
176
     1
290
     0
176
     1
290
     0
176
     1
290
     0
176
     1
290
     0
176
     1
290
     0
176
     1
290
     0
176
     1
 90
       50
176
     1
 40
0.0
176
     1
 40
1.0
176
     1
 90
        0
176
     1
 62
    18
420
        0
176
     1
 90
       50
176
     1
 90
        3
176
     1
 62
     5
420
      255
176
     1
290
     0
176
     1
 90
       50
176
     1
 90
       50
176
     1
 90
       50
176
     1
290
     0
176
     1
 90
       50
176
     1
 62
   256
176
     0
 40
1.0
176
     0
 90
        2
176
     1
  1
strokes_ogs.tif
176
     1
290
     0
176
     1
 40
1.0
176
     1
 40
1.0
176
     1
  0
VISUALSTYLE
  5
3E
102
{ACAD_REACTORS
330
29
102
}
330
29
100
AcDbVisualStyle
  2
Shaded
 70
    27
177
     3
291
     0
 70
    58
 90
        2
176
     1
 90
        2
176
     1
 90
        1
176
     1
 90
        2
176
     1
 40
0.6
176
     1
 40
30.0
176
     1
 62
     7
420
 16777215
176
     1
 90
        0
176
     1
 90
        4
176
     1
 62
     7
176
     1
 62
   257
176
     1
 90
        1
176
     1
 90
        1
176
     1
 40
1.0
176
     1
 90
        8
176
     1
 62
   257
176
     1
 40
1.0
176
     1
 90
        1
176
     1
 90
        6
176
     1
 90
        2
176
     1
 62
     8
420
  7895160
176
     1
 90
        3
176
     1
 90
        0
176
     1
 90
        0
176
     1
290
     0
176
     1
 90
        5
176
     1
 40
0.0
176
     1
 90
        0
176
     1
290
     0
176
     1
290
     1
176
     1
290
     1
176
     1
290
     0
176
     1
290
     0
176
     1
290
     0
176
     1
290
     0
176
     1
290
     0
176
     1
290
     0
176
     1
 90
       50
176
     1
 40
0.0
176
     1
 40
1.0
176
     1
 90
        0
176
     1
 62
    18
420
        0
176
     1
 90
       50
176
     1
 90
        3
176
     1
 62
     5
420
      255
176
     1
290
     0
176
     1
 90
       50
176
     1
 90
       50
176
     1
 90
       50
176
     1
290
     0
176
     1
 90
       50
176
     1
 62
   256
176
     0
 40
1.0
176
     0
 90
        2
176
     1
  1
strokes_ogs.tif
176
     1
290
     0
176
     1
 40
1.0
176
     1
 40
1.0
176
     1
  0
VISUALSTYLE
  5
3D
102
{ACAD_REACTORS
330
29
102
}
330
29
100
AcDbVisualStyle
  2
Shaded with edges
 70
    26
177
     3
291
     0
 70
    58
 90
        2
176
     1
 90
        2
176
     1
 90
        1
176
     1
 90
        2
176
     1
 40
0.6
176
     1
 40
30.0
176
     1
 62
     7
420
 16777215
176
     1
 90
        1
176
     1
 90
        2
176
     1
 62
     7
176
     1
 62
   257
176
     1
 90
        2
176
     1
 90
        1
176
     1
 40
1.0
176
     1
 90
        8
176
     1
 62
   257
176
     1
 40
1.0
176
     1
 90
        1
176
     1
 90
        6
176
     1
 90
        2
176
     1
 62
     7
176
     1
 90
        3
176
     1
 90
        0
176
     1
 90
        0
176
     1
290
     0
176
     1
 90
        5
176
     1
 40
0.0
176
     1
 90
        0
176
     1
290
     0
176
     1
290
     1
176
     1
290
     1
176
     1
290
     0
176
     1
290
     0
176
     1
290
     0
176
     1
290
     0
176
     1
290
     0
176
     1
290
     0
176
     1
 90
       50
176
     1
 40
0.0
176
     1
 40
1.0
176
     1
 90
        0
176
     1
 62
    18
420
        0
176
     1
 90
       50
176
     1
 90
        3
176
     1
 62
     5
420
      255
176
     1
290
     0
176
     1
 90
       50
176
     1
 90
       50
176
     1
 90
       50
176
     1
290
     0
176
     1
 90
       50
176
     1
 62
   256
176
     0
 40
1.0
176
     0
 90
        2
176
     1
  1
strokes_ogs.tif
176
     1
290
     0
176
     1
 40
1.0
176
     1
 40
1.0
176
     1
  0
VISUALSTYLE
  5
3A
102
{ACAD_REACTORS
330
29
102
}
330
29
100
AcDbVisualStyle
  2
Shades of Gray
 70
    23
177
     3
291
     0
 70
    58
 90
        2
176
     1
 90
        2
176
     1
 90
        3
176
     1
 90
        0
176
     1
 40
0.6
176
     1
 40
30.0
176
     1
 62
     7
420
 16777215
176
     1
 90
        2
176
     1
 90
        2
176
     1
 62
     7
176
     1
 62
     7
176
     1
 90
        1
176
     1
 90
        1
176
     1
 40
40.0
176
     1
 90
        8
176
     1
 62
     7
176
     1
 40
1.0
176
     1
 90
        1
176
     1
 90
        6
176
     1
 90
        2
176
     1
 62
     7
176
     1
 90
        3
176
     1
 90
        0
176
     1
 90
        0
176
     1
290
     0
176
     1
 90
        1
176
     1
 40
0.0
176
     1
 90
        0
176
     1
290
     0
176
     1
290
     1
176
     1
290
     1
176
     1
290
     0
176
     1
290
     0
176
     1
290
     0
176
     1
290
     0
176
     1
290
     0
176
     1
290
     0
176
     1
 90
       50
176
     1
 40
0.0
176
     1
 40
1.0
176
     1
 90
        0
176
     1
 62
    18
420
        0
176
     1
 90
       50
176
     1
 90
        3
176
     1
 62
     5
420
      255
176
     1
290
     0
176
     1
 90
       50
176
     1
 90
       50
176
     1
 90
       50
176
     1
290
     0
176
     1
 90
       50
176
     1
 62
   256
176
     0
 40
1.0
176
     0
 90
        2
176
     1
  1
strokes_ogs.tif
176
     1
290
     0
176
     1
 40
1.0
176
     1
 40
1.0
176
     1
  0
VISUALSTYLE
  5
3B
102
{ACAD_REACTORS
330
29
102
}
330
29
100
AcDbVisualStyle
  2
Sketchy
 70
    24
177
     3
291
     0
 70
    58
 90
        1
176
     1
 90
        2
176
     1
 90
        2
176
     1
 90
        0
176
     1
 40
0.6
176
     1
 40
30.0
176
     1
 62
     7
420
 16777215
176
     1
 90
        2
176
     1
 90
        2
176
     1
 62
     7
176
     1
 62
     7
176
     1
 90
        1
176
     1
 90
        1
176
     1
 40
40.0
176
     1
 90
       11
176
     1
 62
     7
176
     1
 40
1.0
176
     1
 90
        1
176
     1
 90
        6
176
     1
 90
        2
176
     1
 62
     7
176
     1
 90
        6
176
     1
 90
        0
176
     1
 90
        0
176
     1
290
     0
176
     1
 90
        1
176
     1
 40
0.0
176
     1
 90
        0
176
     1
290
     0
176
     1
290
     1
176
     1
290
     1
176
     1
290
     0
176
     1
290
     0
176
     1
290
     0
176
     1
290
     0
176
     1
290
     0
176
     1
290
     0
176
     1
 90
       50
176
     1
 40
0.0
176
     1
 40
1.0
176
     1
 90
        0
176
     1
 62
    18
420
        0
176
     1
 90
       50
176
     1
 90
        3
176
     1
 62
     5
420
      255
176
     1
290
     0
176
     1
 90
       50
176
     1
 90
       50
176
     1
 90
       50
176
     1
290
     0
176
     1
 90
       50
176
     1
 62
   256
176
     0
 40
1.0
176
     0
 90
        2
176
     1
  1
strokes_ogs.tif
176
     1
290
     0
176
     1
 40
1.0
176
     1
 40
1.0
176
     1
  0
VISUALSTYLE
  5
36
102
{ACAD_REACTORS
330
29
102
}
330
29
100
AcDbVisualStyle
  2
Thicken
 70
    13
177
     3
291
     1
 70
    58
 90
        2
176
     1
 90
        2
176
     1
 90
        0
176
     1
 90
        0
176
     1
 40
0.6
176
     1
 40
30.0
176
     1
 62
     7
420
 16777215
176
     1
 90
        1
176
     1
 90
        4
176
     1
 62
     7
176
     1
 62
   257
176
     1
 90
        1
176
     1
 90
        1
176
     1
 40
1.0
176
     1
 90
       12
176
     1
 62
     7
176
     1
 40
1.0
176
     1
 90
        1
176
     1
 90
        6
176
     1
 90
        2
176
     1
 62
     7
176
     1
 90
        5
176
     1
 90
        0
176
     1
 90
        0
176
     1
290
     0
176
     1
 90
        1
176
     1
 40
0.0
176
     1
 90
        0
176
     1
290
     0
176
     1
290
     1
176
     1
290
     1
176
     1
290
     0
176
     1
290
     0
176
     1
290
     0
176
     1
290
     0
176
     1
290
     0
176
     1
290
     0
176
     1
 90
       50
176
     1
 40
0.0
176
     1
 40
1.0
176
     1
 90
        0
176
     1
 62
    18
420
        0
176
     1
 90
       50
176
     1
 90
        3
176
     1
 62
     5
420
      255
176
     1
290
     0
176
     1
 90
       50
176
     1
 90
       50
176
     1
 90
       50
176
     1
290
     0
176
     1
 90
       50
176
     1
 62
   256
176
     0
 40
1.0
176
     0
 90
        2
176
     1
  1
strokes_ogs.tif
176
     1
290
     0
176
     1
 40
1.0
176
     1
 40
1.0
176
     1
  0
VISUALSTYLE
  5
30
102
{ACAD_REACTORS
330
29
102
}
330
29
100
AcDbVisualStyle
  2
Wireframe
 70
     5
177
     3
291
     0
 70
    58
 90
        0
176
     1
 90
        2
176
     1
 90
        0
176
     1
 90
        0
176
     1
 40
0.6
176
     1
 40
30.0
176
     1
 62
     7
420
 16777215
176
     1
 90
        1
176
     1
 90
        4
176
     1
 62
     7
176
     1
 62
   257
176
     1
 90
        1
176
     1
 90
        1
176
     1
 40
1.0
176
     1
 90
        0
176
     1
 62
   257
176
     1
 40
1.0
176
     1
 90
        1
176
     1
 90
        6
176
     1
 90
        2
176
     1
 62
     7
176
     1
 90
        3
176
     1
 90
        0
176
     1
 90
        0
176
     1
290
     0
176
     1
 90
        1
176
     1
 40
0.0
176
     1
 90
        0
176
     1
290
     0
176
     1
290
     1
176
     1
290
     1
176
     1
290
     0
176
     1
290
     0
176
     1
290
     0
176
     1
290
     0
176
     1
290
     0
176
     1
290
     0
176
     1
 90
       50
176
     1
 40
0.0
176
     1
 40
1.0
176
     1
 90
        0
176
     1
 62
    18
420
        0
176
     1
 90
       50
176
     1
 90
        3
176
     1
 62
     5
420
      255
176
     1
290
     0
176
     1
 90
       50
176
     1
 90
       50
176
     1
 90
       50
176
     1
290
     0
176
     1
 90
       50
176
     1
 62
   256
176
     0
 40
1.0
176
     0
 90
        2
176
     1
  1
strokes_ogs.tif
176
     1
290
     0
176
     1
 40
1.0
176
     1
 40
1.0
176
     1
  0
VISUALSTYLE
  5
3C
102
{ACAD_REACTORS
330
29
102
}
330
29
100
AcDbVisualStyle
  2
X-Ray
 70
    25
177
     3
291
     0
 70
    58
 90
        2
176
     1
 90
        2
176
     1
 90
        1
176
     1
 90
        1
176
     1
 40
0.5
176
     1
 40
30.0
176
     1
 62
     7
420
 16777215
176
     1
 90
        1
176
     1
 90
        0
176
     1
 62
     7
176
     1
 62
   257
176
     1
 90
        1
176
     1
 90
        1
176
     1
 40
1.0
176
     1
 90
        8
176
     1
 62
     7
176
     1
 40
1.0
176
     1
 90
        1
176
     1
 90
        6
176
     1
 90
        2
176
     1
 62
     7
176
     1
 90
        3
176
     1
 90
        0
176
     1
 90
        0
176
     1
290
     0
176
     1
 90
       13
176
     1
 40
0.0
176
     1
 90
        0
176
     1
290
     0
176
     1
290
     1
176
     1
290
     1
176
     1
290
     0
176
     1
290
     0
176
     1
290
     0
176
     1
290
     0
176
     1
290
     0
176
     1
290
     0
176
     1
 90
       50
176
     1
 40
0.0
176
     1
 40
1.0
176
     1
 90
        0
176
     1
 62
    18
420
        0
176
     1
 90
       50
176
     1
 90
        3
176
     1
 62
     5
420
      255
176
     1
290
     0
176
     1
 90
       50
176
     1
 90
       50
176
     1
 90
       50
176
     1
290
     0
176
     1
 90
       50
176
     1
 62
   256
176
     0
 40
1.0
176
     0
 90
        2
176
     1
  1
strokes_ogs.tif
176
     1
290
     0
176
     1
 40
1.0
176
     1
 40
1.0
176
     1
  0
DICTIONARYVAR
  5
26B
102
{ACAD_REACTORS
330
266
102
}
330
266
100
DictionaryVariables
280
     0
  1
1:1
  0
DICTIONARYVAR
  5
268
102
{ACAD_REACTORS
330
266
102
}
330
266
100
DictionaryVariables
280
     0
  1
STANDARD
  0
DICTIONARYVAR
  5
267
102
{ACAD_REACTORS
330
266
102
}
330
266
100
DictionaryVariables
280
     0
  1
STANDARD
  0
DICTIONARYVAR
  5
269
102
{ACAD_REACTORS
330
266
102
}
330
266
100
DictionaryVariables
280
     0
  1
Imperial24
  0
DICTIONARYVAR
  5
26A
102
{ACAD_REACTORS
330
266
102
}
330
266
100
DictionaryVariables
280
     0
  1
Imperial24
  0
DICTIONARY
  5
1A
330
19
100
AcDbDictionary
280
     1
281
     1
  3
BUMPTILE
360
1C
  3
DIFFUSETILE
360
1B
  3
OPACITYTILE
360
1F
  3
REFLECTIONTILE
360
1E
  3
REFRACTIONTILE
360
20
  3
SPECULARTILE
360
1D
  0
DICTIONARY
  5
12
330
11
100
AcDbDictionary
280
     1
281
     1
  3
BUMPTILE
360
14
  3
DIFFUSETILE
360
13
  3
OPACITYTILE
360
17
  3
REFLECTIONTILE
360
16
  3
REFRACTIONTILE
360
18
  3
SPECULARTILE
360
15
  0
DICTIONARY
  5
22
330
21
100
AcDbDictionary
280
     1
281
     1
  3
BUMPTILE
360
24
  3
DIFFUSETILE
360
23
  3
OPACITYTILE
360
27
  3
REFLECTIONTILE
360
26
  3
REFRACTIONTILE
360
28
  3
SPECULARTILE
360
25
  0
DICTIONARY
  5
26C
330
65
100
AcDbDictionary
280
     1
281
     1
  3
ACAD_ROUNDTRIP_2008_TABLESTYLE_CELLSTYLEMAP
360
26D
  0
XRECORD
  5
1C
102
{ACAD_REACTORS
330
1A
102
}
330
1A
100
AcDbXrecord
280
     1
270
     1
271
     1
  0
XRECORD
  5
1B
102
{ACAD_REACTORS
330
1A
102
}
330
1A
100
AcDbXrecord
280
     1
270
     1
271
     1
  0
XRECORD
  5
1F
102
{ACAD_REACTORS
330
1A
102
}
330
1A
100
AcDbXrecord
280
     1
270
     1
271
     1
  0
XRECORD
  5
1E
102
{ACAD_REACTORS
330
1A
102
}
330
1A
100
AcDbXrecord
280
     1
270
     1
271
     1
  0
XRECORD
  5
20
102
{ACAD_REACTORS
330
1A
102
}
330
1A
100
AcDbXrecord
280
     1
270
     1
271
     1
  0
XRECORD
  5
1D
102
{ACAD_REACTORS
330
1A
102
}
330
1A
100
AcDbXrecord
280
     1
270
     1
271
     1
  0
XRECORD
  5
14
102
{ACAD_REACTORS
330
12
102
}
330
12
100
AcDbXrecord
280
     1
270
     1
271
     1
  0
XRECORD
  5
13
102
{ACAD_REACTORS
330
12
102
}
330
12
100
AcDbXrecord
280
     1
270
     1
271
     1
  0
XRECORD
  5
17
102
{ACAD_REACTORS
330
12
102
}
330
12
100
AcDbXrecord
280
     1
270
     1
271
     1
  0
XRECORD
  5
16
102
{ACAD_REACTORS
330
12
102
}
330
12
100
AcDbXrecord
280
     1
270
     1
271
     1
  0
XRECORD
  5
18
102
{ACAD_REACTORS
330
12
102
}
330
12
100
AcDbXrecord
280
     1
270
     1
271
     1
  0
XRECORD
  5
15
102
{ACAD_REACTORS
330
12
102
}
330
12
100
AcDbXrecord
280
     1
270
     1
271
     1
  0
XRECORD
  5
24
102
{ACAD_REACTORS
330
22
102
}
330
22
100
AcDbXrecord
280
     1
270
     1
271
     1
  0
XRECORD
  5
23
102
{ACAD_REACTORS
330
22
102
}
330
22
100
AcDbXrecord
280
     1
270
     1
271
     1
  0
XRECORD
  5
27
102
{ACAD_REACTORS
330
22
102
}
330
22
100
AcDbXrecord
280
     1
270
     1
271
     1
  0
XRECORD
  5
26
102
{ACAD_REACTORS
330
22
102
}
330
22
100
AcDbXrecord
280
     1
270
     1
271
     1
  0
XRECORD
  5
28
102
{ACAD_REACTORS
330
22
102
}
330
22
100
AcDbXrecord
280
     1
270
     1
271
     1
  0
XRECORD
  5
25
102
{ACAD_REACTORS
330
22
102
}
330
22
100
AcDbXrecord
280
     1
270
     1
271
     1
  0
CELLSTYLEMAP
  5
26D
102
{ACAD_REACTORS
330
26C
102
}
330
26C
100
AcDbCellStyleMap
 90
        3
300
CELLSTYLE
  1
TABLEFORMAT_BEGIN
 90
        5
170
     1
 91
        0
 92
    32768
 62
   257
 93
        1
300
CONTENTFORMAT
  1
CONTENTFORMAT_BEGIN
 90
        0
 91
        0
 92
      512
 93
        0
300

 40
0.0
140
1.0
 94
        5
 62
     0
340
55
144
0.25
309
CONTENTFORMAT_END
171
     0
 94
        0
309
TABLEFORMAT_END
  1
CELLSTYLE_BEGIN
 90
        1
 91
        1
300
_TITLE
309
CELLSTYLE_END
300
CELLSTYLE
  1
TABLEFORMAT_BEGIN
 90
        5
170
     1
 91
        0
 92
        0
 62
   257
 93
        1
300
CONTENTFORMAT
  1
CONTENTFORMAT_BEGIN
 90
        0
 91
        0
 92
      512
 93
        0
300

 40
0.0
140
1.0
 94
        5
 62
     0
340
55
144
0.18
309
CONTENTFORMAT_END
171
     0
 94
        0
309
TABLEFORMAT_END
  1
CELLSTYLE_BEGIN
 90
        2
 91
        1
300
_HEADER
309
CELLSTYLE_END
300
CELLSTYLE
  1
TABLEFORMAT_BEGIN
 90
        5
170
     1
 91
        0
 92
        0
 62
   257
 93
        1
300
CONTENTFORMAT
  1
CONTENTFORMAT_BEGIN
 90
        0
 91
        0
 92
      512
 93
        0
300

 40
0.0
140
1.0
 94
        2
 62
     0
340
55
144
0.18
309
CONTENTFORMAT_END
171
     0
 94
        0
309
TABLEFORMAT_END
  1
CELLSTYLE_BEGIN
 90
        3
 91
        2
300
_DATA
309
CELLSTYLE_END
  0
ENDSEC
  0
EOF
