  0
SECTION
  2
HEADER
  9
$ACADVER
  1
AC1032
  9
$ACADMAINTVER
 90
      251
  9
$DWGCODEPAGE
  3
ANSI_1252
  9
$REQUIREDVERSIONS
160
                 0
  9
$INSBASE
 10
0.0
 20
0.0
 30
0.0
  9
$EXTMIN
 10
1.000000000000000E+20
 20
1.000000000000000E+20
 30
1.000000000000000E+20
  9
$EXTMAX
 10
-1.000000000000000E+20
 20
-1.000000000000000E+20
 30
-1.000000000000000E+20
  9
$LIMMIN
 10
0.0
 20
0.0
  9
$LIMMAX
 10
12.0
 20
9.0
  9
$ORTHOMODE
 70
     0
  9
$REGENMODE
 70
     1
  9
$FILLMODE
 70
     1
  9
$QTEXTMODE
 70
     0
  9
$MIRRTEXT
 70
     0
  9
$LTSCALE
 40
1.0
  9
$ATTMODE
 70
     1
  9
$TEXTSIZE
 40
0.2
  9
$TRACEWID
 40
0.05
  9
$TEXTSTYLE
  7
Standard
  9
$CLAYER
  8
0
  9
$CELTYPE
  6
ByLayer
  9
$CECOLOR
 62
   256
  9
$CELTSCALE
 40
1.0
  9
$DISPSILH
 70
     0
  9
$DIMSCALE
 40
1.0
  9
$DIMASZ
 40
0.18
  9
$DIMEXO
 40
0.0625
  9
$DIMDLI
 40
0.38
  9
$DIMRND
 40
0.0
  9
$DIMDLE
 40
0.0
  9
$DIMEXE
 40
0.18
  9
$DIMTP
 40
0.0
  9
$DIMTM
 40
0.0
  9
$DIMTXT
 40
0.18
  9
$DIMCEN
 40
0.09
  9
$DIMTSZ
 40
0.0
  9
$DIMTOL
 70
     0
  9
$DIMLIM
 70
     0
  9
$DIMTIH
 70
     1
  9
$DIMTOH
 70
     1
  9
$DIMSE1
 70
     0
  9
$DIMSE2
 70
     0
  9
$DIMTAD
 70
     0
  9
$DIMZIN
 70
     0
  9
$DIMBLK
  1

  9
$DIMASO
 70
     1
  9
$DIMSHO
 70
     1
  9
$DIMPOST
  1

  9
$DIMAPOST
  1

  9
$DIMALT
 70
     0
  9
$DIMALTD
 70
     2
  9
$DIMALTF
 40
25.4
  9
$DIMLFAC
 40
1.0
  9
$DIMTOFL
 70
     0
  9
$DIMTVP
 40
0.0
  9
$DIMTIX
 70
     0
  9
$DIMSOXD
 70
     0
  9
$DIMSAH
 70
     0
  9
$DIMBLK1
  1

  9
$DIMBLK2
  1

  9
$DIMSTYLE
  2
Standard
  9
$DIMCLRD
 70
     0
  9
$DIMCLRE
 70
     0
  9
$DIMCLRT
 70
     0
  9
$DIMTFAC
 40
1.0
  9
$DIMGAP
 40
0.09
  9
$DIMJUST
 70
     0
  9
$DIMSD1
 70
     0
  9
$DIMSD2
 70
     0
  9
$DIMTOLJ
 70
     1
  9
$DIMTZIN
 70
     0
  9
$DIMALTZ
 70
     0
  9
$DIMALTTZ
 70
     0
  9
$DIMUPT
 70
     0
  9
$DIMDEC
 70
     4
  9
$DIMTDEC
 70
     4
  9
$DIMALTU
 70
     2
  9
$DIMALTTD
 70
     2
  9
$DIMTXSTY
  7
Standard
  9
$DIMAUNIT
 70
     0
  9
$DIMADEC
 70
     0
  9
$DIMALTRND
 40
0.0
  9
$DIMAZIN
 70
     0
  9
$DIMDSEP
 70
    46
  9
$DIMATFIT
 70
     3
  9
$DIMFRAC
 70
     0
  9
$DIMLDRBLK
  1

  9
$DIMLUNIT
 70
     2
  9
$DIMLWD
 70
    -2
  9
$DIMLWE
 70
    -2
  9
$DIMTMOVE
 70
     0
  9
$DIMFXL
 40
1.0
  9
$DIMFXLON
 70
     0
  9
$DIMJOGANG
 40
0.7853981633974483
  9
$DIMTFILL
 70
     0
  9
$DIMTFILLCLR
 70
     0
  9
$DIMARCSYM
 70
     0
  9
$DIMLTYPE
  6

  9
$DIMLTEX1
  6

  9
$DIMLTEX2
  6

  9
$DIMTXTDIRECTION
 70
     0
  9
$LUNITS
 70
     2
  9
$LUPREC
 70
     4
  9
$SKETCHINC
 40
0.1
  9
$FILLETRAD
 40
0.0
  9
$AUNITS
 70
     0
  9
$AUPREC
 70
     0
  9
$MENU
  1
.
  9
$ELEVATION
 40
0.0
  9
$PELEVATION
 40
0.0
  9
$THICKNESS
 40
0.0
  9
$LIMCHECK
 70
     0
  9
$CHAMFERA
 40
0.0
  9
$CHAMFERB
 40
0.0
  9
$CHAMFERC
 40
0.0
  9
$CHAMFERD
 40
0.0
  9
$SKPOLY
 70
     0
  9
$TDCREATE
 40
2460566.555370371
  9
$TDUCREATE
 40
2460566.472037037
  9
$TDUPDATE
 40
2460566.555370371
  9
$TDUUPDATE
 40
2460566.472037037
  9
$TDINDWG
 40
0.0000000000
  9
$TDUSRTIMER
 40
0.0000000000
  9
$USRTIMER
 70
     1
  9
$ANGBASE
 50
0.0
  9
$ANGDIR
 70
     0
  9
$PDMODE
 70
     0
  9
$PDSIZE
 40
0.0
  9
$PLINEWID
 40
0.0
  9
$SPLFRAME
 70
     0
  9
$SPLINETYPE
 70
     6
  9
$SPLINESEGS
 70
     8
  9
$HANDSEED
  5
27A
  9
$SURFTAB1
 70
     6
  9
$SURFTAB2
 70
     6
  9
$SURFTYPE
 70
     6
  9
$SURFU
 70
     6
  9
$SURFV
 70
     6
  9
$UCSBASE
  2

  9
$UCSNAME
  2

  9
$UCSORG
 10
0.0
 20
0.0
 30
0.0
  9
$UCSXDIR
 10
1.0
 20
0.0
 30
0.0
  9
$UCSYDIR
 10
0.0
 20
1.0
 30
0.0
  9
$UCSORTHOREF
  2

  9
$UCSORTHOVIEW
 70
     0
  9
$UCSORGTOP
 10
0.0
 20
0.0
 30
0.0
  9
$UCSORGBOTTOM
 10
0.0
 20
0.0
 30
0.0
  9
$UCSORGLEFT
 10
0.0
 20
0.0
 30
0.0
  9
$UCSORGRIGHT
 10
0.0
 20
0.0
 30
0.0
  9
$UCSORGFRONT
 10
0.0
 20
0.0
 30
0.0
  9
$UCSORGBACK
 10
0.0
 20
0.0
 30
0.0
  9
$PUCSBASE
  2

  9
$PUCSNAME
  2

  9
$PUCSORG
 10
0.0
 20
0.0
 30
0.0
  9
$PUCSXDIR
 10
1.0
 20
0.0
 30
0.0
  9
$PUCSYDIR
 10
0.0
 20
1.0
 30
0.0
  9
$PUCSORTHOREF
  2

  9
$PUCSORTHOVIEW
 70
     0
  9
$PUCSORGTOP
 10
0.0
 20
0.0
 30
0.0
  9
$PUCSORGBOTTOM
 10
0.0
 20
0.0
 30
0.0
  9
$PUCSORGLEFT
 10
0.0
 20
0.0
 30
0.0
  9
$PUCSORGRIGHT
 10
0.0
 20
0.0
 30
0.0
  9
$PUCSORGFRONT
 10
0.0
 20
0.0
 30
0.0
  9
$PUCSORGBACK
 10
0.0
 20
0.0
 30
0.0
  9
$USERI1
 70
     0
  9
$USERI2
 70
     0
  9
$USERI3
 70
     0
  9
$USERI4
 70
     0
  9
$USERI5
 70
     0
  9
$USERR1
 40
0.0
  9
$USERR2
 40
0.0
  9
$USERR3
 40
0.0
  9
$USERR4
 40
0.0
  9
$USERR5
 40
0.0
  9
$WORLDVIEW
 70
     1
  9
$SHADEDGE
 70
     3
  9
$SHADEDIF
 70
    70
  9
$TILEMODE
 70
     1
  9
$MAXACTVP
 70
    64
  9
$PINSBASE
 10
0.0
 20
0.0
 30
0.0
  9
$PLIMCHECK
 70
     0
  9
$PEXTMIN
 10
1.000000000000000E+20
 20
1.000000000000000E+20
 30
1.000000000000000E+20
  9
$PEXTMAX
 10
-1.000000000000000E+20
 20
-1.000000000000000E+20
 30
-1.000000000000000E+20
  9
$PLIMMIN
 10
0.0
 20
0.0
  9
$PLIMMAX
 10
12.0
 20
9.0
  9
$UNITMODE
 70
     0
  9
$VISRETAIN
 70
     1
  9
$PLINEGEN
 70
     0
  9
$PSLTSCALE
 70
     1
  9
$TREEDEPTH
 70
  3020
  9
$CMLSTYLE
  2
Standard
  9
$CMLJUST
 70
     0
  9
$CMLSCALE
 40
1.0
  9
$PROXYGRAPHICS
 70
     1
  9
$MEASUREMENT
 70
     0
  9
$CELWEIGHT
370
    -1
  9
$ENDCAPS
280
     0
  9
$JOINSTYLE
280
     0
  9
$LWDISPLAY
290
     1
  9
$INSUNITS
 70
     4
  9
$HYPERLINKBASE
  1

  9
$STYLESHEET
  1

  9
$XEDIT
290
     1
  9
$CEPSNTYPE
380
     0
  9
$PSTYLEMODE
290
     1
  9
$FINGERPRINTGUID
  2
{37B0BBBF-0398-FD4A-877A-5D477227A1D5}
  9
$VERSIONGUID
  2
{D097EE86-DA89-724D-B339-97CEB54F797B}
  9
$EXTNAMES
290
     1
  9
$PSVPSCALE
 40
0.0
  9
$OLESTARTUP
290
     0
  9
$SORTENTS
280
   127
  9
$INDEXCTL
280
     0
  9
$HIDETEXT
280
     1
  9
$XCLIPFRAME
280
     2
  9
$HALOGAP
280
     0
  9
$OBSCOLOR
 70
   257
  9
$OBSLTYPE
280
     0
  9
$INTERSECTIONDISPLAY
280
     0
  9
$INTERSECTIONCOLOR
 70
   257
  9
$DIMASSOC
280
     2
  9
$PROJECTNAME
  1

  9
$CAMERADISPLAY
290
     0
  9
$LENSLENGTH
 40
50.0
  9
$CAMERAHEIGHT
 40
0.0
  9
$STEPSPERSEC
 40
2.0
  9
$STEPSIZE
 40
6.0
  9
$3DDWFPREC
 40
2.0
  9
$PSOLWIDTH
 40
0.25
  9
$PSOLHEIGHT
 40
4.0
  9
$LOFTANG1
 40
1.570796326794896
  9
$LOFTANG2
 40
1.570796326794896
  9
$LOFTMAG1
 40
0.0
  9
$LOFTMAG2
 40
0.0
  9
$LOFTPARAM
 70
     7
  9
$LOFTNORMALS
280
     1
  9
$LATITUDE
 40
37.795
  9
$LONGITUDE
 40
-122.394
  9
$NORTHDIRECTION
 40
0.0
  9
$TIMEZONE
 70
 -8000
  9
$LIGHTGLYPHDISPLAY
280
     1
  9
$TILEMODELIGHTSYNCH
280
     1
  9
$CMATERIAL
347
11
  9
$SOLIDHIST
280
     0
  9
$SHOWHIST
280
     1
  9
$DWFFRAME
280
     2
  9
$DGNFRAME
280
     0
  9
$REALWORLDSCALE
290
     1
  9
$INTERFERECOLOR
 62
     1
  9
$INTERFEREOBJVS
345
33
  9
$INTERFEREVPVS
346
30
  9
$CSHADOW
280
     0
  9
$SHADOWPLANELOCATION
 40
0.0
  0
ENDSEC
  0
SECTION
  2
CLASSES
  0
CLASS
  1
ACDBDICTIONARYWDFLT
  2
AcDbDictionaryWithDefault
  3
ObjectDBX Classes
 90
        0
 91
        1
280
     0
281
     0
  0
CLASS
  1
MATERIAL
  2
AcDbMaterial
  3
ObjectDBX Classes
 90
     1153
 91
        3
280
     0
281
     0
  0
CLASS
  1
VISUALSTYLE
  2
AcDbVisualStyle
  3
ObjectDBX Classes
 90
     4095
 91
       24
280
     0
281
     0
  0
CLASS
  1
SCALE
  2
AcDbScale
  3
ObjectDBX Classes
 90
     1153
 91
       17
280
     0
281
     0
  0
CLASS
  1
TABLESTYLE
  2
AcDbTableStyle
  3
ObjectDBX Classes
 90
     4095
 91
        1
280
     0
281
     0
  0
CLASS
  1
MLEADERSTYLE
  2
AcDbMLeaderStyle
  3
ACDB_MLEADERSTYLE_CLASS
 90
     4095
 91
        1
280
     0
281
     0
  0
CLASS
  1
ACDBSECTIONVIEWSTYLE
  2
AcDbSectionViewStyle
  3
ObjectDBX Classes
 90
     1025
 91
        1
280
     0
281
     0
  0
CLASS
  1
ACDBDETAILVIEWSTYLE
  2
AcDbDetailViewStyle
  3
ObjectDBX Classes
 90
     1025
 91
        1
280
     0
281
     0
  0
CLASS
  1
DICTIONARYVAR
  2
AcDbDictionaryVar
  3
ObjectDBX Classes
 90
        0
 91
        5
280
     0
281
     0
  0
CLASS
  1
CELLSTYLEMAP
  2
AcDbCellStyleMap
  3
ObjectDBX Classes
 90
     1152
 91
        1
280
     0
281
     0
  0
ENDSEC
  0
SECTION
  2
TABLES
  0
TABLE
  2
VPORT
  5
8
330
0
100
AcDbSymbolTable
 70
     1
  0
VPORT
  5
57
330
8
100
AcDbSymbolTableRecord
100
AcDbViewportTableRecord
  2
*Active
 70
     0
 10
0.0
 20
0.0
 11
1.0
 21
1.0
 12
0.0
 22
0.0
 13
0.0
 23
0.0
 14
1.0
 24
1.0
 15
0.0
 25
0.0
 16
0.0
 26
0.0
 36
1.0
 17
105.0007398212079
 27
148.5000555170035
 37
0.0
 40
302.9401132546872
 41
0.7070754246902298
 42
50.0
 43
0.0
 44
0.0
 50
0.0
 51
0.0
 71
     0
 72
   100
 73
     1
 74
     1
 75
     0
 76
     0
 77
     0
 78
     0
281
     0
 65
     1
110
0.0
120
0.0
130
0.0
111
1.0
121
0.0
131
0.0
112
0.0
122
1.0
132
0.0
 79
     0
146
0.0
 60
     3
 61
     5
292
     1
282
     1
141
0.0
142
0.0
 63
   250
421
  3355443
  0
ENDTAB
  0
TABLE
  2
LTYPE
  5
5
330
0
100
AcDbSymbolTable
 70
     4
  0
LTYPE
  5
5B
330
5
100
AcDbSymbolTableRecord
100
AcDbLinetypeTableRecord
  2
ByBlock
 70
     0
  3

 72
    65
 73
     0
 40
0.0
  0
LTYPE
  5
5C
330
5
100
AcDbSymbolTableRecord
100
AcDbLinetypeTableRecord
  2
ByLayer
 70
     0
  3

 72
    65
 73
     0
 40
0.0
  0
LTYPE
  5
5D
330
5
100
AcDbSymbolTableRecord
100
AcDbLinetypeTableRecord
  2
Continuous
 70
     0
  3
Solid line
 72
    65
 73
     0
 40
0.0
  0
LTYPE
  5
248
330
5
100
AcDbSymbolTableRecord
100
AcDbLinetypeTableRecord
  2
AI-Linetype-0
 70
     0
  3
Adobe Illustrator Linetype No. 0
 72
    65
 73
     4
 40
41.63486906571143
 49
20.81568813863221
 74
     0
 49
-10.40782657469059
 74
     0
 49
0.0035277776980439
 74
     0
 49
-10.40782657469059
 74
     0
  0
LTYPE
  5
253
330
5
100
AcDbSymbolTableRecord
100
AcDbLinetypeTableRecord
  2
AI-Linetype-1
 70
     0
  3
Adobe Illustrator Linetype No. 1
 72
    65
 73
     6
 40
52.87186392680905
 49
26.43593213162209
 74
     0
 49
-5.287186359037395
 74
     0
 49
5.287186359037395
 74
     0
 49
-5.287186359037395
 74
     0
 49
5.287186359037395
 74
     0
 49
-5.287186359037395
 74
     0
  0
LTYPE
  5
267
330
5
100
AcDbSymbolTableRecord
100
AcDbLinetypeTableRecord
  2
AI-Linetype-2
 70
     0
  3
Adobe Illustrator Linetype No. 2
 72
    65
 73
     6
 40
52.87186392680905
 49
26.43593213162209
 74
     0
 49
-5.287186359037395
 74
     0
 49
5.287186359037395
 74
     0
 49
-5.287186359037395
 74
     0
 49
5.287186359037395
 74
     0
 49
-5.287186359037395
 74
     0
  0
ENDTAB
  0
TABLE
  2
LAYER
  5
2
330
0
100
AcDbSymbolTable
 70
     7
  0
LAYER
  5
54
330
2
100
AcDbSymbolTableRecord
100
AcDbLayerTableRecord
  2
0
 70
     0
 62
     7
  6
Continuous
370
    -3
390
F
347
21
348
0
  0
LAYER
  5
78
330
2
100
AcDbSymbolTableRecord
100
AcDbLayerTableRecord
  2
CAJETIN
 70
     0
 62
     7
  6
Continuous
370
     0
390
F
347
21
348
0
  0
LAYER
  5
80
330
2
100
AcDbSymbolTableRecord
100
AcDbLayerTableRecord
  2
TEXTO-NOMBRE
 70
     0
 62
     7
  6
Continuous
370
     0
390
F
347
21
348
0
  0
LAYER
  5
81
330
2
100
AcDbSymbolTableRecord
100
AcDbLayerTableRecord
  2
PIEZA
 70
     0
 62
     7
  6
Continuous
370
     0
390
F
347
21
348
0
  0
LAYER
  5
1E5
330
2
100
AcDbSymbolTableRecord
100
AcDbLayerTableRecord
  2
025
 70
     0
 62
     7
  6
Continuous
370
     0
390
F
347
21
348
0
  0
LAYER
  5
1E7
330
2
100
AcDbSymbolTableRecord
100
AcDbLayerTableRecord
  2
COTAS
 70
     0
 62
     7
  6
Continuous
370
     0
390
F
347
21
348
0
  0
LAYER
  5
249
330
2
100
AcDbSymbolTableRecord
100
AcDbLayerTableRecord
  2
010
 70
     0
 62
     7
  6
Continuous
370
     0
390
F
347
21
348
0
  0
ENDTAB
  0
TABLE
  2
STYLE
  5
3
330
0
100
AcDbSymbolTable
 70
     2
  0
STYLE
  5
55
330
3
100
AcDbSymbolTableRecord
100
AcDbTextStyleTableRecord
  2
Standard
 70
     0
 40
0.0
 41
1.0
 50
0.0
 71
     0
 42
0.2
  3
txt
  4

  0
STYLE
  5
5A
330
3
100
AcDbSymbolTableRecord
100
AcDbTextStyleTableRecord
  2
Annotative
 70
     0
 40
0.0
 41
1.0
 50
0.0
 71
     0
 42
0.2
  3
txt
  4

1001
AcadAnnotative
1000
AnnotativeData
1002
{
1070
     1
1070
     1
1002
}
  0
ENDTAB
  0
TABLE
  2
VIEW
  5
6
330
0
100
AcDbSymbolTable
 70
     0
  0
ENDTAB
  0
TABLE
  2
UCS
  5
7
330
0
100
AcDbSymbolTable
 70
     0
  0
ENDTAB
  0
TABLE
  2
APPID
  5
9
330
0
100
AcDbSymbolTable
 70
     2
  0
APPID
  5
56
330
9
100
AcDbSymbolTableRecord
100
AcDbRegAppTableRecord
  2
ACAD
 70
     0
  0
APPID
  5
5E
330
9
100
AcDbSymbolTableRecord
100
AcDbRegAppTableRecord
  2
AcadAnnotative
 70
     0
  0
ENDTAB
  0
TABLE
  2
DIMSTYLE
  5
A
330
0
100
AcDbSymbolTable
 70
     2
100
AcDbDimStyleTable
 71
     0
  0
DIMSTYLE
105
58
330
A
100
AcDbSymbolTableRecord
100
AcDbDimStyleTableRecord
  2
Standard
 70
     0
340
55
  0
DIMSTYLE
105
59
330
A
100
AcDbSymbolTableRecord
100
AcDbDimStyleTableRecord
  2
Annotative
 70
     0
340
55
1001
AcadAnnotative
1000
AnnotativeData
1002
{
1070
     1
1070
     1
1002
}
  0
ENDTAB
  0
TABLE
  2
BLOCK_RECORD
  5
1
330
0
100
AcDbSymbolTable
 70
     8
  0
BLOCK_RECORD
  5
70
330
1
100
AcDbSymbolTableRecord
100
AcDbBlockTableRecord
  2
*Model_Space
340
73
 70
     0
280
     1
281
     0
  0
BLOCK_RECORD
  5
6C
330
1
100
AcDbSymbolTableRecord
100
AcDbBlockTableRecord
  2
*Paper_Space
340
6F
 70
     0
280
     1
281
     0
  0
BLOCK_RECORD
  5
74
330
1
100
AcDbSymbolTableRecord
100
AcDbBlockTableRecord
  2
*Paper_Space0
340
77
 70
     0
280
     1
281
     0
  0
BLOCK_RECORD
  5
79
330
1
100
AcDbSymbolTableRecord
100
AcDbBlockTableRecord
  2
Block_0
340
0
102
{BLKREFS
331
7A
102
}
 70
     0
280
     1
281
     0
  0
BLOCK_RECORD
  5
1E8
330
1
100
AcDbSymbolTableRecord
100
AcDbBlockTableRecord
  2
Block_1
340
0
102
{BLKREFS
331
1E9
102
}
 70
     0
280
     1
281
     0
  0
BLOCK_RECORD
  5
1F7
330
1
100
AcDbSymbolTableRecord
100
AcDbBlockTableRecord
  2
Block_2
340
0
102
{BLKREFS
331
1F8
102
}
 70
     0
280
     1
281
     0
  0
BLOCK_RECORD
  5
206
330
1
100
AcDbSymbolTableRecord
100
AcDbBlockTableRecord
  2
Block_3
340
0
102
{BLKREFS
331
207
102
}
 70
     0
280
     1
281
     0
  0
BLOCK_RECORD
  5
215
330
1
100
AcDbSymbolTableRecord
100
AcDbBlockTableRecord
  2
Block_4
340
0
102
{BLKREFS
331
216
102
}
 70
     0
280
     1
281
     0
  0
BLOCK_RECORD
  5
228
330
1
100
AcDbSymbolTableRecord
100
AcDbBlockTableRecord
  2
Block_5
340
0
102
{BLKREFS
331
229
102
}
 70
     0
280
     1
281
     0
  0
BLOCK_RECORD
  5
237
330
1
100
AcDbSymbolTableRecord
100
AcDbBlockTableRecord
  2
Block_6
340
0
102
{BLKREFS
331
238
102
}
 70
     0
280
     1
281
     0
  0
ENDTAB
  0
ENDSEC
  0
SECTION
  2
BLOCKS
  0
BLOCK
  5
71
330
70
100
AcDbEntity
  8
0
100
AcDbBlockBegin
  2
*Model_Space
 70
     0
 10
0.0
 20
0.0
 30
0.0
  3
*Model_Space
  1

  0
ENDBLK
  5
72
330
70
100
AcDbEntity
  8
0
100
AcDbBlockEnd
  0
BLOCK
  5
6D
330
6C
100
AcDbEntity
 67
     1
  8
0
100
AcDbBlockBegin
  2
*Paper_Space
 70
     0
 10
0.0
 20
0.0
 30
0.0
  3
*Paper_Space
  1

  0
ENDBLK
  5
6E
330
6C
100
AcDbEntity
 67
     1
  8
0
100
AcDbBlockEnd
  0
BLOCK
  5
75
330
74
100
AcDbEntity
 67
     1
  8
0
100
AcDbBlockBegin
  2
*Paper_Space0
 70
     0
 10
0.0
 20
0.0
 30
0.0
  3
*Paper_Space0
  1

  0
ENDBLK
  5
76
330
74
100
AcDbEntity
 67
     1
  8
0
100
AcDbBlockEnd
  0
BLOCK
  5
7B
330
79
100
AcDbEntity
  8
0
100
AcDbBlockBegin
  2
Block_0
 70
     0
 10
0.0
 20
0.0
 30
0.0
  3
Block_0
  1

  0
LWPOLYLINE
  5
7D
330
79
100
AcDbEntity
  8
CAJETIN
 62
    18
420
        0
370
    25
100
AcDbPolyline
 90
        1
 70
     0
 43
0.0
 10
0.0403076833231184
 20
0.1453828971861526
  0
LWPOLYLINE
  5
7E
330
79
100
AcDbEntity
  8
CAJETIN
 62
    18
420
        0
370
    25
100
AcDbPolyline
 90
        1
 70
     0
 43
0.0
 10
209.8623088126331
 20
0.1453828971861526
  0
LWPOLYLINE
  5
7F
330
79
100
AcDbEntity
  8
CAJETIN
 62
    18
420
        0
370
    25
100
AcDbPolyline
 90
        1
 70
     0
 43
0.0
 10
0.0403076833231184
 20
0.1453828971861526
  0
ENDBLK
  5
7C
330
79
100
AcDbEntity
  8
0
100
AcDbBlockEnd
  0
BLOCK
  5
1EA
330
1E8
100
AcDbEntity
  8
0
100
AcDbBlockBegin
  2
Block_1
 70
     0
 10
0.0
 20
0.0
 30
0.0
  3
Block_1
  1

  0
LINE
  5
1EC
330
1E8
100
AcDbEntity
  8
COTAS
 62
    18
420
        0
370
     9
100
AcDbLine
 10
73.04926924746898
 20
152.6270438839375
 30
0.0
 11
58.01903129758898
 21
152.6270438839375
 31
0.0
  0
LINE
  5
1ED
330
1E8
100
AcDbEntity
  8
COTAS
 62
    18
420
        0
370
     9
100
AcDbLine
 10
114.4283376362454
 20
185.8732441468673
 30
0.0
 11
58.01903129758898
 21
185.8732441468673
 31
0.0
  0
LINE
  5
1EE
330
1E8
100
AcDbEntity
  8
COTAS
 62
    18
420
        0
370
     9
100
AcDbLine
 10
59.51780764824089
 20
156.123988794723
 30
0.0
 11
59.51780764824089
 21
182.3761228471975
 31
0.0
  0
LWPOLYLINE
  5
1EF
330
1E8
100
AcDbEntity
  8
COTAS
100
AcDbPolyline
 90
        3
 70
     1
 43
0.0
 10
58.93491294088955
 20
156.123988794723
 10
60.10056124448472
 20
156.123988794723
 10
59.51780764824089
 20
152.6270438839375
  0
HATCH
  5
1F0
330
1E8
100
AcDbEntity
  8
COTAS
 62
    18
420
        0
440
 33554687
100
AcDbHatch
 10
0.0
 20
0.0
 30
0.0
210
0.0
220
0.0
230
1.0
  2
SOLID
 70
     1
 71
     1
 91
        1
 92
        1
 93
        3
 72
     1
 10
58.93491294088955
 20
156.123988794723
 11
60.10056124448472
 21
156.123988794723
 72
     1
 10
60.10056124448472
 20
156.123988794723
 11
59.51780764824089
 21
152.6270438839375
 72
     1
 10
59.51780764824089
 20
152.6270438839375
 11
58.93491294088955
 21
156.123988794723
 97
        1
330
1EF
 75
     2
 76
     1
 98
        1
 10
0.0
 20
0.0
450
        0
451
        0
460
0.0
461
0.0
452
        0
462
0.0
453
        0
470

  0
LWPOLYLINE
  5
1F1
330
1E8
100
AcDbEntity
  8
COTAS
100
AcDbPolyline
 90
        3
 70
     1
 43
0.0
 10
58.93491294088955
 20
182.3761228471975
 10
60.10056124448472
 20
182.3761228471975
 10
59.51780764824089
 20
185.8732441468673
  0
HATCH
  5
1F2
330
1E8
100
AcDbEntity
  8
COTAS
 62
    18
420
        0
440
 33554687
100
AcDbHatch
 10
0.0
 20
0.0
 30
0.0
210
0.0
220
0.0
230
1.0
  2
SOLID
 70
     1
 71
     1
 91
        1
 92
        1
 93
        3
 72
     1
 10
58.93491294088955
 20
182.3761228471975
 11
60.10056124448472
 21
182.3761228471975
 72
     1
 10
60.10056124448472
 20
182.3761228471975
 11
59.51780764824089
 21
185.8732441468673
 72
     1
 10
59.51780764824089
 20
185.8732441468673
 11
58.93491294088955
 21
182.3761228471975
 97
        1
330
1F1
 75
     2
 76
     1
 98
        1
 10
0.0
 20
0.0
450
        0
451
        0
460
0.0
461
0.0
452
        0
462
0.0
453
        0
470

  0
MTEXT
  5
1F3
330
1E8
100
AcDbEntity
  8
COTAS
100
AcDbMText
 10
58.4718675173002
 20
166.2019055885306
 30
0.0
 40
0.2
 41
0.0
 46
0.0
 71
     7
 72
     1
  1
\C18;\c0;\FArial Bold|b1|i0|c1;\H2.600735;\W1.000000;100
 11
0.0000000000000001
 21
1.0
 31
0.0
 73
     1
 44
1.0
  0
LINE
  5
1F4
330
1E8
100
AcDbEntity
  8
COTAS
 62
     3
420
    65280
370
     9
100
AcDbLine
 10
73.04926924746898
 20
152.6270438839375
 30
0.0
 11
73.04926924746898
 21
152.6270438839375
 31
0.0
  0
LINE
  5
1F5
330
1E8
100
AcDbEntity
  8
COTAS
 62
     3
420
    65280
370
     9
100
AcDbLine
 10
114.4283376362454
 20
185.8732441468673
 30
0.0
 11
114.4283376362454
 21
185.8732441468673
 31
0.0
  0
LINE
  5
1F6
330
1E8
100
AcDbEntity
  8
COTAS
 62
     3
420
    65280
370
     0
100
AcDbLine
 10
59.51780764824089
 20
185.8732441468673
 30
0.0
 11
59.51780764824089
 21
185.8732441468673
 31
0.0
  0
ENDBLK
  5
1EB
330
1E8
100
AcDbEntity
  8
0
100
AcDbBlockEnd
  0
BLOCK
  5
1F9
330
1F7
100
AcDbEntity
  8
0
100
AcDbBlockBegin
  2
Block_2
 70
     0
 10
0.0
 20
0.0
 30
0.0
  3
Block_2
  1

  0
LINE
  5
1FB
330
1F7
100
AcDbEntity
  8
COTAS
 62
    18
420
        0
370
     9
100
AcDbLine
 10
83.04074704812071
 20
182.0295539671503
 30
0.0
 11
83.04074704812071
 21
200.6314904370198
 31
0.0
  0
LINE
  5
1FC
330
1F7
100
AcDbEntity
  8
COTAS
 62
    18
420
        0
370
     9
100
AcDbLine
 10
123.0069757507195
 20
179.2710434819702
 30
0.0
 11
123.0069757507195
 21
200.6314904370198
 31
0.0
  0
LINE
  5
1FD
330
1F7
100
AcDbEntity
  8
COTAS
 62
    18
420
        0
370
     9
100
AcDbLine
 10
86.5378683477906
 20
199.1327140863679
 30
0.0
 11
119.5098544510496
 21
199.1327140863679
 31
0.0
  0
LWPOLYLINE
  5
1FE
330
1F7
100
AcDbEntity
  8
COTAS
100
AcDbPolyline
 90
        3
 70
     1
 43
0.0
 10
86.5378683477906
 20
199.7156138389598
 10
86.5378683477906
 20
198.549960490124
 10
83.04074704812071
 20
199.1327140863679
  0
HATCH
  5
1FF
330
1F7
100
AcDbEntity
  8
COTAS
 62
    18
420
        0
440
 33554687
100
AcDbHatch
 10
0.0
 20
0.0
 30
0.0
210
0.0
220
0.0
230
1.0
  2
SOLID
 70
     1
 71
     1
 91
        1
 92
        1
 93
        3
 72
     1
 10
86.5378683477906
 20
199.7156138389598
 11
86.5378683477906
 21
198.549960490124
 72
     1
 10
86.5378683477906
 20
198.549960490124
 11
83.04074704812071
 21
199.1327140863679
 72
     1
 10
83.04074704812071
 20
199.1327140863679
 11
86.5378683477906
 21
199.7156138389598
 97
        1
330
1FE
 75
     2
 76
     1
 98
        1
 10
0.0
 20
0.0
450
        0
451
        0
460
0.0
461
0.0
452
        0
462
0.0
453
        0
470

  0
LWPOLYLINE
  5
200
330
1F7
100
AcDbEntity
  8
COTAS
100
AcDbPolyline
 90
        3
 70
     1
 43
0.0
 10
119.5098544510496
 20
199.7156138389598
 10
119.5098544510496
 20
198.549960490124
 10
123.0069757507195
 20
199.1327140863679
  0
HATCH
  5
201
330
1F7
100
AcDbEntity
  8
COTAS
 62
    18
420
        0
440
 33554687
100
AcDbHatch
 10
0.0
 20
0.0
 30
0.0
210
0.0
220
0.0
230
1.0
  2
SOLID
 70
     1
 71
     1
 91
        1
 92
        1
 93
        3
 72
     1
 10
119.5098544510496
 20
199.7156138389598
 11
119.5098544510496
 21
198.549960490124
 72
     1
 10
119.5098544510496
 20
198.549960490124
 11
123.0069757507195
 21
199.1327140863679
 72
     1
 10
123.0069757507195
 20
199.1327140863679
 11
119.5098544510496
 21
199.7156138389598
 97
        1
330
200
 75
     2
 76
     1
 98
        1
 10
0.0
 20
0.0
450
        0
451
        0
460
0.0
461
0.0
452
        0
462
0.0
453
        0
470

  0
MTEXT
  5
202
330
1F7
100
AcDbEntity
  8
COTAS
100
AcDbMText
 10
99.97562184720203
 20
200.1786430474844
 30
0.0
 40
0.2
 41
0.0
 46
0.0
 71
     7
 72
     1
  1
\C18;\c0;\FArial Bold|b1|i0|c1;\H2.600735;\W1.000000;120
 73
     1
 44
1.0
  0
LINE
  5
203
330
1F7
100
AcDbEntity
  8
COTAS
 62
     3
420
    65280
370
     9
100
AcDbLine
 10
83.04074704812071
 20
182.0295539671503
 30
0.0
 11
83.04074704812071
 21
182.0295539671503
 31
0.0
  0
LINE
  5
204
330
1F7
100
AcDbEntity
  8
COTAS
 62
     3
420
    65280
370
     9
100
AcDbLine
 10
123.0069757507195
 20
179.2710434819702
 30
0.0
 11
123.0069757507195
 21
179.2710434819702
 31
0.0
  0
LINE
  5
205
330
1F7
100
AcDbEntity
  8
COTAS
 62
     3
420
    65280
370
     0
100
AcDbLine
 10
123.0069757507195
 20
199.1327140863679
 30
0.0
 11
123.0069757507195
 21
199.1327140863679
 31
0.0
  0
ENDBLK
  5
1FA
330
1F7
100
AcDbEntity
  8
0
100
AcDbBlockEnd
  0
BLOCK
  5
208
330
206
100
AcDbEntity
  8
0
100
AcDbBlockBegin
  2
Block_3
 70
     0
 10
0.0
 20
0.0
 30
0.0
  3
Block_3
  1

  0
LINE
  5
20A
330
206
100
AcDbEntity
  8
COTAS
 62
    18
420
        0
370
     9
100
AcDbLine
 10
93.03222484877244
 20
152.6270438839375
 30
0.0
 11
141.8292219371906
 21
152.6270438839375
 31
0.0
  0
LINE
  5
20B
330
206
100
AcDbEntity
  8
COTAS
 62
    18
420
        0
370
     9
100
AcDbLine
 10
123.0069757507195
 20
179.2710434819702
 30
0.0
 11
141.8292219371906
 21
179.2710434819702
 31
0.0
  0
LINE
  5
20C
330
206
100
AcDbEntity
  8
COTAS
 62
    18
420
        0
370
     9
100
AcDbLine
 10
140.3306219754231
 20
156.123988794723
 30
0.0
 11
140.3306219754231
 21
175.7740985711847
 31
0.0
  0
LWPOLYLINE
  5
20D
330
206
100
AcDbEntity
  8
COTAS
100
AcDbPolyline
 90
        3
 70
     1
 43
0.0
 10
139.7477272680718
 20
156.123988794723
 10
140.9135166827744
 20
156.123988794723
 10
140.3306219754231
 20
152.6270438839375
  0
HATCH
  5
20E
330
206
100
AcDbEntity
  8
COTAS
 62
    18
420
        0
440
 33554687
100
AcDbHatch
 10
0.0
 20
0.0
 30
0.0
210
0.0
220
0.0
230
1.0
  2
SOLID
 70
     1
 71
     1
 91
        1
 92
        1
 93
        3
 72
     1
 10
139.7477272680718
 20
156.123988794723
 11
140.9135166827744
 21
156.123988794723
 72
     1
 10
140.9135166827744
 20
156.123988794723
 11
140.3306219754231
 21
152.6270438839375
 72
     1
 10
140.3306219754231
 20
152.6270438839375
 11
139.7477272680718
 21
156.123988794723
 97
        1
330
20D
 75
     2
 76
     1
 98
        1
 10
0.0
 20
0.0
450
        0
451
        0
460
0.0
461
0.0
452
        0
462
0.0
453
        0
470

  0
LWPOLYLINE
  5
20F
330
206
100
AcDbEntity
  8
COTAS
100
AcDbPolyline
 90
        3
 70
     1
 43
0.0
 10
139.7477272680718
 20
175.7740985711847
 10
140.9135166827744
 20
175.7740985711847
 10
140.3306219754231
 20
179.2710434819702
  0
HATCH
  5
210
330
206
100
AcDbEntity
  8
COTAS
 62
    18
420
        0
440
 33554687
100
AcDbHatch
 10
0.0
 20
0.0
 30
0.0
210
0.0
220
0.0
230
1.0
  2
SOLID
 70
     1
 71
     1
 91
        1
 92
        1
 93
        3
 72
     1
 10
139.7477272680718
 20
175.7740985711847
 11
140.9135166827744
 21
175.7740985711847
 72
     1
 10
140.9135166827744
 20
175.7740985711847
 11
140.3306219754231
 21
179.2710434819702
 72
     1
 10
140.3306219754231
 20
179.2710434819702
 11
139.7477272680718
 21
175.7740985711847
 97
        1
330
20F
 75
     2
 76
     1
 98
        1
 10
0.0
 20
0.0
450
        0
451
        0
460
0.0
461
0.0
452
        0
462
0.0
453
        0
470

  0
MTEXT
  5
211
330
206
100
AcDbEntity
  8
COTAS
100
AcDbMText
 10
139.2845058434512
 20
163.9894652679032
 30
0.0
 40
0.2
 41
0.0
 46
0.0
 71
     7
 72
     1
  1
\C18;\c0;\FArial Bold|b1|i0|c1;\H2.600735;\W1.000000;80
 11
0.0000000000000001
 21
1.0
 31
0.0
 73
     1
 44
1.0
  0
LINE
  5
212
330
206
100
AcDbEntity
  8
COTAS
 62
     3
420
    65280
370
     9
100
AcDbLine
 10
93.03222484877244
 20
152.6270438839375
 30
0.0
 11
93.03222484877244
 21
152.6270438839375
 31
0.0
  0
LINE
  5
213
330
206
100
AcDbEntity
  8
COTAS
 62
     3
420
    65280
370
     9
100
AcDbLine
 10
123.0069757507195
 20
179.2710434819702
 30
0.0
 11
123.0069757507195
 21
179.2710434819702
 31
0.0
  0
LINE
  5
214
330
206
100
AcDbEntity
  8
COTAS
 62
     3
420
    65280
370
     0
100
AcDbLine
 10
140.3306219754231
 20
179.2710434819702
 30
0.0
 11
140.3306219754231
 21
179.2710434819702
 31
0.0
  0
ENDBLK
  5
209
330
206
100
AcDbEntity
  8
0
100
AcDbBlockEnd
  0
BLOCK
  5
217
330
215
100
AcDbEntity
  8
0
100
AcDbBlockBegin
  2
Block_4
 70
     0
 10
0.0
 20
0.0
 30
0.0
  3
Block_4
  1

  0
LINE
  5
219
330
215
100
AcDbEntity
  8
COTAS
 62
    18
420
        0
370
     9
100
AcDbLine
 10
90.03481325857611
 20
152.6270438839375
 30
0.0
 11
108.1892511287511
 21
152.6270438839375
 31
0.0
  0
LINE
  5
21A
330
215
100
AcDbEntity
  8
COTAS
 62
   250
420
  2301728
370
     9
100
AcDbLine
 10
86.65188612265955
 20
141.7115705513033
 30
0.0
 11
108.1892511287511
 21
141.7115705513033
 31
0.0
  0
LINE
  5
21B
330
215
100
AcDbEntity
  8
COTAS
 62
    18
420
        0
370
     9
100
AcDbLine
 10
106.6906511669836
 20
149.1299225842676
 30
0.0
 11
106.6906511669836
 21
145.2086918509732
 31
0.0
  0
LWPOLYLINE
  5
21C
330
215
100
AcDbEntity
  8
COTAS
100
AcDbPolyline
 90
        3
 70
     1
 43
0.0
 10
106.1077211818554
 20
156.123988794723
 10
107.2731930965661
 20
156.123988794723
 10
106.6906511669836
 20
152.6270438839375
  0
HATCH
  5
21D
330
215
100
AcDbEntity
  8
COTAS
 62
    18
420
        0
440
 33554687
100
AcDbHatch
 10
0.0
 20
0.0
 30
0.0
210
0.0
220
0.0
230
1.0
  2
SOLID
 70
     1
 71
     1
 91
        1
 92
        1
 93
        3
 72
     1
 10
106.1077211818554
 20
156.123988794723
 11
107.2731930965661
 21
156.123988794723
 72
     1
 10
107.2731930965661
 20
156.123988794723
 11
106.6906511669836
 21
152.6270438839375
 72
     1
 10
106.6906511669836
 20
152.6270438839375
 11
106.1077211818554
 21
156.123988794723
 97
        1
330
21C
 75
     2
 76
     1
 98
        1
 10
0.0
 20
0.0
450
        0
451
        0
460
0.0
461
0.0
452
        0
462
0.0
453
        0
470

  0
LINE
  5
21E
330
215
100
AcDbEntity
  8
COTAS
 62
    18
420
        0
370
     9
100
AcDbLine
 10
106.6906511669836
 20
156.123988794723
 30
0.0
 11
106.6906511669836
 21
159.621074816616
 31
0.0
  0
LINE
  5
21F
330
215
100
AcDbEntity
  8
COTAS
 62
    18
420
        0
370
     9
100
AcDbLine
 10
106.6906511669836
 20
152.6270438839375
 30
0.0
 11
106.6906511669836
 21
149.1299225842676
 31
0.0
  0
LWPOLYLINE
  5
220
330
215
100
AcDbEntity
  8
COTAS
100
AcDbPolyline
 90
        3
 70
     1
 43
0.0
 10
106.1077211818554
 20
138.2148055210022
 10
107.2731930965661
 20
138.2148055210022
 10
106.6906511669836
 20
141.7115705513033
  0
HATCH
  5
221
330
215
100
AcDbEntity
  8
COTAS
 62
    18
420
        0
440
 33554687
100
AcDbHatch
 10
0.0
 20
0.0
 30
0.0
210
0.0
220
0.0
230
1.0
  2
SOLID
 70
     1
 71
     1
 91
        1
 92
        1
 93
        3
 72
     1
 10
106.1077211818554
 20
138.2148055210022
 11
107.2731930965661
 21
138.2148055210022
 72
     1
 10
107.2731930965661
 20
138.2148055210022
 11
106.6906511669836
 21
141.7115705513033
 72
     1
 10
106.6906511669836
 20
141.7115705513033
 11
106.1077211818554
 21
138.2148055210022
 97
        1
330
220
 75
     2
 76
     1
 98
        1
 10
0.0
 20
0.0
450
        0
451
        0
460
0.0
461
0.0
452
        0
462
0.0
453
        0
470

  0
LINE
  5
222
330
215
100
AcDbEntity
  8
COTAS
 62
    18
420
        0
370
     9
100
AcDbLine
 10
106.6906511669836
 20
138.2148055210022
 30
0.0
 11
106.6906511669836
 21
134.7177194107652
 31
0.0
  0
LINE
  5
223
330
215
100
AcDbEntity
  8
COTAS
 62
    18
420
        0
370
     9
100
AcDbLine
 10
106.6906511669836
 20
141.7115705513033
 30
0.0
 11
106.6906511669836
 21
145.2086918509732
 31
0.0
  0
MTEXT
  5
224
330
215
100
AcDbEntity
  8
COTAS
100
AcDbMText
 10
105.6496941114085
 20
140.2572359986627
 30
0.0
 40
0.2
 41
0.0
 46
0.0
 71
     7
 72
     1
  1
\C18;\c0;\FArial Bold|b1|i0|c1;\H2.600735;\W1.000000;max.45
 11
0.0000000000000001
 21
1.0
 31
0.0
 73
     1
 44
1.0
  0
LINE
  5
225
330
215
100
AcDbEntity
  8
COTAS
 62
     3
420
    65280
370
     9
100
AcDbLine
 10
90.03481325857611
 20
152.6270438839375
 30
0.0
 11
90.03481325857611
 21
152.6270438839375
 31
0.0
  0
LINE
  5
226
330
215
100
AcDbEntity
  8
COTAS
 62
   250
420
  2301728
370
     9
100
AcDbLine
 10
86.65188612265955
 20
141.7115705513033
 30
0.0
 11
86.65188612265955
 21
141.7115705513033
 31
0.0
  0
LINE
  5
227
330
215
100
AcDbEntity
  8
COTAS
 62
     3
420
    65280
370
     0
100
AcDbLine
 10
106.6906511669836
 20
141.7115705513033
 30
0.0
 11
106.6906511669836
 21
141.7115705513033
 31
0.0
  0
ENDBLK
  5
218
330
215
100
AcDbEntity
  8
0
100
AcDbBlockEnd
  0
BLOCK
  5
22A
330
228
100
AcDbEntity
  8
0
100
AcDbBlockBegin
  2
Block_5
 70
     0
 10
0.0
 20
0.0
 30
0.0
  3
Block_5
  1

  0
LINE
  5
22C
330
228
100
AcDbEntity
  8
COTAS
 62
    18
420
        0
370
     9
100
AcDbLine
 10
73.04926924746898
 20
152.6270438839375
 30
0.0
 11
58.01903129758898
 21
152.6270438839375
 31
0.0
  0
LINE
  5
22D
330
228
100
AcDbEntity
  8
COTAS
 62
    18
420
        0
370
     9
100
AcDbLine
 10
79.11298992610392
 20
98.8742246997306
 30
0.0
 11
58.01903129758898
 21
98.8742246997306
 31
0.0
  0
LINE
  5
22E
330
228
100
AcDbEntity
  8
COTAS
 62
    18
420
        0
370
     9
100
AcDbLine
 10
59.51780764824089
 20
149.1299225842676
 30
0.0
 11
59.51780764824089
 21
102.3709932216317
 31
0.0
  0
LWPOLYLINE
  5
22F
330
228
100
AcDbEntity
  8
COTAS
100
AcDbPolyline
 90
        3
 70
     1
 43
0.0
 10
58.93491294088955
 20
149.1299225842676
 10
60.10056124448472
 20
149.1299225842676
 10
59.51780764824089
 20
152.6270438839375
  0
HATCH
  5
230
330
228
100
AcDbEntity
  8
COTAS
 62
    18
420
        0
440
 33554687
100
AcDbHatch
 10
0.0
 20
0.0
 30
0.0
210
0.0
220
0.0
230
1.0
  2
SOLID
 70
     1
 71
     1
 91
        1
 92
        1
 93
        3
 72
     1
 10
58.93491294088955
 20
149.1299225842676
 11
60.10056124448472
 21
149.1299225842676
 72
     1
 10
60.10056124448472
 20
149.1299225842676
 11
59.51780764824089
 21
152.6270438839375
 72
     1
 10
59.51780764824089
 20
152.6270438839375
 11
58.93491294088955
 21
149.1299225842676
 97
        1
330
22F
 75
     2
 76
     1
 98
        1
 10
0.0
 20
0.0
450
        0
451
        0
460
0.0
461
0.0
452
        0
462
0.0
453
        0
470

  0
LWPOLYLINE
  5
231
330
228
100
AcDbEntity
  8
COTAS
100
AcDbPolyline
 90
        3
 70
     1
 43
0.0
 10
58.93491294088955
 20
102.3709932216317
 10
60.10056124448472
 20
102.3709932216317
 10
59.51780764824089
 20
98.8742246997306
  0
HATCH
  5
232
330
228
100
AcDbEntity
  8
COTAS
 62
    18
420
        0
440
 33554687
100
AcDbHatch
 10
0.0
 20
0.0
 30
0.0
210
0.0
220
0.0
230
1.0
  2
SOLID
 70
     1
 71
     1
 91
        1
 92
        1
 93
        3
 72
     1
 10
58.93491294088955
 20
102.3709932216317
 11
60.10056124448472
 21
102.3709932216317
 72
     1
 10
60.10056124448472
 20
102.3709932216317
 11
59.51780764824089
 21
98.8742246997306
 72
     1
 10
59.51780764824089
 20
98.8742246997306
 11
58.93491294088955
 21
102.3709932216317
 97
        1
330
231
 75
     2
 76
     1
 98
        1
 10
0.0
 20
0.0
450
        0
451
        0
460
0.0
461
0.0
452
        0
462
0.0
453
        0
470

  0
MTEXT
  5
233
330
228
100
AcDbEntity
  8
COTAS
100
AcDbMText
 10
58.46911144091199
 20
122.8164401045854
 30
0.0
 40
0.2
 41
0.0
 46
0.0
 71
     7
 72
     1
  1
\C18;\c0;\FArial Bold|b1|i0|c1;\H2.600735;\W1.000000;370
 11
0.0000000000000001
 21
1.0
 31
0.0
 73
     1
 44
1.0
  0
LINE
  5
234
330
228
100
AcDbEntity
  8
COTAS
 62
     3
420
    65280
370
     9
100
AcDbLine
 10
73.04926924746898
 20
152.6270438839375
 30
0.0
 11
73.04926924746898
 21
152.6270438839375
 31
0.0
  0
LINE
  5
235
330
228
100
AcDbEntity
  8
COTAS
 62
     3
420
    65280
370
     9
100
AcDbLine
 10
79.11298992610392
 20
98.8742246997306
 30
0.0
 11
79.11298992610392
 21
98.8742246997306
 31
0.0
  0
LINE
  5
236
330
228
100
AcDbEntity
  8
COTAS
 62
     3
420
    65280
370
     0
100
AcDbLine
 10
59.51780764824089
 20
98.8742246997306
 30
0.0
 11
59.51780764824089
 21
98.8742246997306
 31
0.0
  0
ENDBLK
  5
22B
330
228
100
AcDbEntity
  8
0
100
AcDbBlockEnd
  0
BLOCK
  5
239
330
237
100
AcDbEntity
  8
0
100
AcDbBlockBegin
  2
Block_6
 70
     0
 10
0.0
 20
0.0
 30
0.0
  3
Block_6
  1

  0
LINE
  5
23B
330
237
100
AcDbEntity
  8
COTAS
 62
    18
420
        0
370
     9
100
AcDbLine
 10
79.11298992610392
 20
99.04062997326303
 30
0.0
 11
79.11298992610392
 21
75.93989500705632
 31
0.0
  0
LINE
  5
23C
330
237
100
AcDbEntity
  8
COTAS
 62
    18
420
        0
370
     9
100
AcDbLine
 10
86.10292863666462
 20
99.04062997326303
 30
0.0
 11
86.10292863666462
 21
75.93989500705632
 31
0.0
  0
LINE
  5
23D
330
237
100
AcDbEntity
  8
COTAS
 62
    18
420
        0
370
     9
100
AcDbLine
 10
89.60004993633452
 20
77.43849496882384
 30
0.0
 11
93.09699719894796
 21
77.43849496882384
 31
0.0
  0
LINE
  5
23E
330
237
100
AcDbEntity
  8
COTAS
 62
    18
420
        0
370
     9
100
AcDbLine
 10
75.61604501531842
 20
77.43849496882384
 30
0.0
 11
61.94883609562392
 21
77.43849496882384
 31
0.0
  0
LWPOLYLINE
  5
23F
330
237
100
AcDbEntity
  8
COTAS
100
AcDbPolyline
 90
        3
 70
     1
 43
0.0
 10
89.60004993633452
 20
78.02142495395206
 10
89.60004993633452
 20
76.85595303924128
 10
86.10292863666462
 20
77.43849496882384
  0
HATCH
  5
240
330
237
100
AcDbEntity
  8
COTAS
 62
    18
420
        0
440
 33554687
100
AcDbHatch
 10
0.0
 20
0.0
 30
0.0
210
0.0
220
0.0
230
1.0
  2
SOLID
 70
     1
 71
     1
 91
        1
 92
        1
 93
        3
 72
     1
 10
89.60004993633452
 20
78.02142495395206
 11
89.60004993633452
 21
76.85595303924128
 72
     1
 10
89.60004993633452
 20
76.85595303924128
 11
86.10292863666462
 21
77.43849496882384
 72
     1
 10
86.10292863666462
 20
77.43849496882384
 11
89.60004993633452
 21
78.02142495395206
 97
        1
330
23F
 75
     2
 76
     1
 98
        1
 10
0.0
 20
0.0
450
        0
451
        0
460
0.0
461
0.0
452
        0
462
0.0
453
        0
470

  0
LWPOLYLINE
  5
241
330
237
100
AcDbEntity
  8
COTAS
100
AcDbPolyline
 90
        3
 70
     1
 43
0.0
 10
75.61604501531842
 20
78.02142495395206
 10
75.61604501531842
 20
76.85595303924128
 10
79.11298992610392
 20
77.43849496882384
  0
HATCH
  5
242
330
237
100
AcDbEntity
  8
COTAS
 62
    18
420
        0
440
 33554687
100
AcDbHatch
 10
0.0
 20
0.0
 30
0.0
210
0.0
220
0.0
230
1.0
  2
SOLID
 70
     1
 71
     1
 91
        1
 92
        1
 93
        3
 72
     1
 10
75.61604501531842
 20
78.02142495395206
 11
75.61604501531842
 21
76.85595303924128
 72
     1
 10
75.61604501531842
 20
76.85595303924128
 11
79.11298992610392
 21
77.43849496882384
 72
     1
 10
79.11298992610392
 20
77.43849496882384
 11
75.61604501531842
 21
78.02142495395206
 97
        1
330
241
 75
     2
 76
     1
 98
        1
 10
0.0
 20
0.0
450
        0
451
        0
460
0.0
461
0.0
452
        0
462
0.0
453
        0
470

  0
MTEXT
  5
243
330
237
100
AcDbEntity
  8
COTAS
100
AcDbMText
 10
62.63957178058118
 20
78.50338804419826
 30
0.0
 40
0.2
 41
0.0
 46
0.0
 71
     7
 72
     1
  1
\C18;\c0;\FArial Bold|b1|i0|c1;\H2.600735;\W1.000000;R3/8"
 73
     1
 44
1.0
  0
LINE
  5
244
330
237
100
AcDbEntity
  8
COTAS
 62
     3
420
    65280
370
     9
100
AcDbLine
 10
79.11298992610392
 20
99.04062997326303
 30
0.0
 11
79.11298992610392
 21
99.04062997326303
 31
0.0
  0
LINE
  5
245
330
237
100
AcDbEntity
  8
COTAS
 62
     3
420
    65280
370
     9
100
AcDbLine
 10
86.10292863666462
 20
99.04062997326303
 30
0.0
 11
86.10292863666462
 21
99.04062997326303
 31
0.0
  0
LINE
  5
246
330
237
100
AcDbEntity
  8
COTAS
 62
     3
420
    65280
370
     0
100
AcDbLine
 10
86.10292863666462
 20
77.43849496882384
 30
0.0
 11
86.10292863666462
 21
77.43849496882384
 31
0.0
  0
ENDBLK
  5
23A
330
237
100
AcDbEntity
  8
0
100
AcDbBlockEnd
  0
ENDSEC
  0
SECTION
  2
ENTITIES
  0
INSERT
  5
7A
330
70
100
AcDbEntity
  8
CAJETIN
100
AcDbBlockReference
  2
Block_0
 10
0.0
 20
0.0
 30
0.0
  0
SPLINE
  5
82
330
70
100
AcDbEntity
  8
PIEZA
 62
    18
420
        0
370
     9
100
AcDbSpline
210
0.0
220
0.0
230
1.0
 70
     8
 71
     3
 72
    14
 73
    10
 74
     0
 42
0.0000000001
 43
0.0000000001
 40
0.0
 40
0.0
 40
0.0
 40
0.0
 40
1.0
 40
1.0
 40
1.0
 40
2.0
 40
2.0
 40
2.0
 40
3.0
 40
3.0
 40
3.0
 40
3.0
 10
86.3165355756595
 20
180.9431395504226
 30
0.0
 10
85.8559136429665
 20
181.5270573133034
 30
0.0
 10
85.00928227567696
 20
181.6271403663056
 30
0.0
 10
84.4253292350193
 20
181.1667301002738
 30
0.0
 10
83.84137619436163
 20
180.7061081675809
 30
0.0
 10
83.74133053462037
 20
179.8594768002914
 30
0.0
 10
84.2019150740524
 20
179.2755237596336
 30
0.0
 10
84.28527646081457
 20
179.1587543181682
 30
0.0
 10
84.47443590043315
 20
178.99749960006
 30
0.0
 10
84.60291756382197
 20
178.9336115461343
 30
0.0
  0
SPLINE
  5
83
330
70
100
AcDbEntity
  8
PIEZA
 62
    18
420
        0
370
     9
100
AcDbSpline
210
0.0
220
0.0
230
1.0
 70
     8
 71
     3
 72
     8
 73
     4
 74
     0
 42
0.0000000001
 43
0.0000000001
 40
0.0
 40
0.0
 40
0.0
 40
0.0
 40
1.0
 40
1.0
 40
1.0
 40
1.0
 10
83.15187204528568
 20
174.7195752647545
 30
0.0
 10
84.0341360901027
 20
174.4417274940652
 30
0.0
 10
85.487790041247
 20
174.5517941579238
 30
0.0
 10
86.31822890894962
 20
174.9591819253083
 30
0.0
  0
SPLINE
  5
84
330
70
100
AcDbEntity
  8
PIEZA
 62
    18
420
        0
370
     9
100
AcDbSpline
210
0.0
220
0.0
230
1.0
 70
     8
 71
     3
 72
    11
 73
     7
 74
     0
 42
0.0000000001
 43
0.0000000001
 40
0.0
 40
0.0
 40
0.0
 40
0.0
 40
1.0
 40
1.0
 40
1.0
 40
2.0
 40
2.0
 40
2.0
 40
2.0
 10
85.8114636441005
 20
177.2866685325958
 30
0.0
 10
85.94721252952615
 20
178.0550890685473
 30
0.0
 10
85.43423837594655
 20
178.7882318276211
 30
0.0
 10
84.66581783999503
 20
178.9239499552689
 30
0.0
 10
84.64994284040004
 20
178.9268734907507
 30
0.0
 10
84.61879256341697
 20
178.931711066378
 30
0.0
 10
84.60291756382197
 20
178.9336115461343
 30
0.0
  0
LINE
  5
85
330
70
100
AcDbEntity
  8
PIEZA
 62
    18
420
        0
370
     9
100
AcDbLine
 10
85.20324164536576
 20
175.520028022111
 30
0.0
 11
86.24866113294666
 21
178.5563555109165
 31
0.0
  0
SPLINE
  5
86
330
70
100
AcDbEntity
  8
PIEZA
 62
    18
420
        0
370
     9
100
AcDbSpline
210
0.0
220
0.0
230
1.0
 70
     8
 71
     3
 72
     8
 73
     4
 74
     0
 42
0.0000000001
 43
0.0000000001
 40
0.0
 40
0.0
 40
0.0
 40
0.0
 40
1.0
 40
1.0
 40
1.0
 40
1.0
 10
86.33685557514109
 20
172.7686083700833
 30
0.0
 10
85.41286004315862
 20
173.1877083593912
 30
0.0
 10
84.13767424235798
 20
172.9120830886452
 30
0.0
 10
83.46933886802148
 20
172.1486719970104
 30
0.0
  0
SPLINE
  5
87
330
70
100
AcDbEntity
  8
PIEZA
 62
    18
420
        0
370
     9
100
AcDbSpline
210
0.0
220
0.0
230
1.0
 70
     8
 71
     3
 72
     8
 73
     4
 74
     0
 42
0.0000000001
 43
0.0000000001
 40
0.0
 40
0.0
 40
0.0
 40
0.0
 40
1.0
 40
1.0
 40
1.0
 40
1.0
 10
87.69557915158827
 20
164.8164682951815
 30
0.0
 10
86.94525831159696
 20
165.4041960579652
 30
0.0
 10
85.47505476379411
 20
165.9102910450536
 30
0.0
 10
84.52195506588749
 20
165.9092327117473
 30
0.0
  0
SPLINE
  5
88
330
70
100
AcDbEntity
  8
PIEZA
 62
    18
420
        0
370
     9
100
AcDbSpline
210
0.0
220
0.0
230
1.0
 70
     8
 71
     3
 72
     8
 73
     4
 74
     0
 42
0.0000000001
 43
0.0000000001
 40
0.0
 40
0.0
 40
0.0
 40
0.0
 40
1.0
 40
1.0
 40
1.0
 40
1.0
 10
84.41001867985434
 20
165.584042164488
 30
0.0
 10
85.1815436601711
 20
165.1225777364972
 30
0.0
 10
86.69150306609328
 20
164.6025085784179
 30
0.0
 10
87.58346637667072
 20
164.4912424701454
 30
0.0
  0
SPLINE
  5
89
330
70
100
AcDbEntity
  8
PIEZA
 62
    18
420
        0
370
     9
100
AcDbSpline
210
0.0
220
0.0
230
1.0
 70
     8
 71
     3
 72
   104
 73
   100
 74
     0
 42
0.0000000001
 43
0.0000000001
 40
0.0
 40
0.0
 40
0.0
 40
0.0
 40
1.0
 40
1.0
 40
1.0
 40
2.0
 40
2.0
 40
2.0
 40
3.0
 40
3.0
 40
3.0
 40
4.0
 40
4.0
 40
4.0
 40
5.0
 40
5.0
 40
5.0
 40
6.0
 40
6.0
 40
6.0
 40
7.0
 40
7.0
 40
7.0
 40
8.0
 40
8.0
 40
8.0
 40
9.0
 40
9.0
 40
9.0
 40
10.0
 40
10.0
 40
10.0
 40
11.0
 40
11.0
 40
11.0
 40
12.0
 40
12.0
 40
12.0
 40
13.0
 40
13.0
 40
13.0
 40
14.0
 40
14.0
 40
14.0
 40
15.0
 40
15.0
 40
15.0
 40
16.0
 40
16.0
 40
16.0
 40
17.0
 40
17.0
 40
17.0
 40
18.0
 40
18.0
 40
18.0
 40
19.0
 40
19.0
 40
19.0
 40
20.0
 40
20.0
 40
20.0
 40
21.0
 40
21.0
 40
21.0
 40
22.0
 40
22.0
 40
22.0
 40
23.0
 40
23.0
 40
23.0
 40
24.0
 40
24.0
 40
24.0
 40
25.0
 40
25.0
 40
25.0
 40
26.0
 40
26.0
 40
26.0
 40
27.0
 40
27.0
 40
27.0
 40
28.0
 40
28.0
 40
28.0
 40
29.0
 40
29.0
 40
29.0
 40
30.0
 40
30.0
 40
30.0
 40
31.0
 40
31.0
 40
31.0
 40
32.0
 40
32.0
 40
32.0
 40
33.0
 40
33.0
 40
33.0
 40
33.0
 10
84.72074533859371
 20
178.8207932156792
 30
0.0
 10
84.62394311884112
 20
178.8068277330762
 30
0.0
 10
84.52643534355097
 20
178.7994193997444
 30
0.0
 10
84.42878645715332
 20
178.7987446051307
 30
0.0
 10
84.42878645715332
 20
178.7987446051307
 30
0.0
 10
84.42878645715332
 20
178.7987446051307
 30
0.0
 10
84.42878645715332
 20
178.7987446051307
 30
0.0
 10
84.22897312891764
 20
178.797192382948
 30
0.0
 10
84.02965368955827
 20
178.8237212711601
 30
0.0
 10
83.83742508335132
 20
178.8810829363634
 30
0.0
 10
83.83742508335132
 20
178.8810829363634
 30
0.0
 10
83.83742508335132
 20
178.8810829363634
 30
0.0
 10
83.83742508335132
 20
178.8810829363634
 30
0.0
 10
83.6453749790885
 20
178.9384446015666
 30
0.0
 10
83.4633042595626
 20
179.0261098771078
 30
0.0
 10
83.29982704151104
 20
179.1416798741594
 30
0.0
 10
83.29982704151104
 20
179.1416798741594
 30
0.0
 10
83.29982704151104
 20
179.1416798741594
 30
0.0
 10
83.29982704151104
 20
179.1416798741594
 30
0.0
 10
83.18993886809151
 20
179.2195379277287
 30
0.0
 10
83.08847788023632
 20
179.3101665365276
 30
0.0
 10
82.99890760474367
 20
179.4114490339437
 30
0.0
 10
82.99890760474367
 20
179.4114490339437
 30
0.0
 10
82.99890760474367
 20
179.4114490339437
 30
0.0
 10
82.99890760474367
 20
179.4114490339437
 30
0.0
 10
82.88711232981803
 20
179.5378845862736
 30
0.0
 10
82.79426122107576
 20
179.6796306937685
 30
0.0
 10
82.72261205623701
 20
179.8321012454342
 30
0.0
 10
82.72261205623701
 20
179.8321012454342
 30
0.0
 10
82.72261205623701
 20
179.8321012454342
 30
0.0
 10
82.72261205623701
 20
179.8321012454342
 30
0.0
 10
82.60545455922594
 20
180.0816915168444
 30
0.0
 10
82.54791650513832
 20
180.355411787639
 30
0.0
 10
82.54689344960885
 20
180.6304726139549
 30
0.0
 10
82.54689344960885
 20
180.6304726139549
 30
0.0
 10
82.54689344960885
 20
180.6304726139549
 30
0.0
 10
82.54689344960885
 20
180.6304726139549
 30
0.0
 10
82.5458703940794
 20
180.9055687180477
 30
0.0
 10
82.60115275712765
 20
181.1787598221892
 30
0.0
 10
82.70243316786293
 20
181.4357937045206
 30
0.0
 10
82.70243316786293
 20
181.4357937045206
 30
0.0
 10
82.70243316786293
 20
181.4357937045206
 30
0.0
 10
82.70243316786293
 20
181.4357937045206
 30
0.0
 10
82.803715665279
 20
181.6927923090751
 30
0.0
 10
82.95064760597488
 20
181.9318698029757
 30
0.0
 10
83.13275149021793
 20
182.1423722976054
 30
0.0
 10
83.13275149021793
 20
182.1423722976054
 30
0.0
 10
83.13275149021793
 20
182.1423722976054
 30
0.0
 10
83.13275149021793
 20
182.1423722976054
 30
0.0
 10
83.3148222013934
 20
182.3526984033506
 30
0.0
 10
83.53117870227542
 20
182.5333911765185
 30
0.0
 10
83.77061109016848
 20
182.6744670062527
 30
0.0
 10
83.77061109016848
 20
182.6744670062527
 30
0.0
 10
83.77061109016848
 20
182.6744670062527
 30
0.0
 10
83.77061109016848
 20
182.6744670062527
 30
0.0
 10
84.01003924561422
 20
182.8155428359869
 30
0.0
 10
84.27187090560101
 20
182.9164725556342
 30
0.0
 10
84.54245145425348
 20
182.9685072765289
 30
0.0
 10
84.54245145425348
 20
182.9685072765289
 30
0.0
 10
84.54245145425348
 20
182.9685072765289
 30
0.0
 10
84.54245145425348
 20
182.9685072765289
 30
0.0
 10
84.81324366956723
 20
183.0203656085392
 30
0.0
 10
85.09246942317146
 20
183.0225881084825
 30
0.0
 10
85.36153087780148
 20
182.9683308876445
 30
0.0
 10
85.36153087780148
 20
182.9683308876445
 30
0.0
 10
85.36153087780148
 20
182.9683308876445
 30
0.0
 10
85.36153087780148
 20
182.9683308876445
 30
0.0
 10
85.63059448204819
 20
182.9138972779221
 30
0.0
 10
85.88829864214028
 20
182.8019256141121
 30
0.0
 10
86.10896113651071
 20
182.6365832876742
 30
0.0
 10
86.10896113651071
 20
182.6365832876742
 30
0.0
 10
86.10896113651071
 20
182.6365832876742
 30
0.0
 10
86.10896113651071
 20
182.6365832876742
 30
0.0
 10
86.2389972006626
 20
182.5390708985959
 30
0.0
 10
86.35579974132445
 20
182.4226189571224
 30
0.0
 10
86.45380140549088
 20
182.293431738196
 30
0.0
 10
86.45380140549088
 20
182.293431738196
 30
0.0
 10
86.45380140549088
 20
182.293431738196
 30
0.0
 10
86.45380140549088
 20
182.293431738196
 30
0.0
 10
86.5518383474342
 20
182.1642445192696
 30
0.0
 10
86.63227167871552
 20
182.021263689584
 30
0.0
 10
86.69185584386205
 20
181.870027860109
 30
0.0
 10
86.69185584386205
 20
181.870027860109
 30
0.0
 10
86.69185584386205
 20
181.870027860109
 30
0.0
 10
86.69185584386205
 20
181.870027860109
 30
0.0
 10
86.75147528678548
 20
181.7186156417496
 30
0.0
 10
86.79021028579727
 20
181.5605006457835
 30
0.0
 10
86.80915445198063
 20
181.3997750943284
 30
0.0
 10
86.80915445198063
 20
181.3997750943284
 30
0.0
 10
86.80915445198063
 20
181.3997750943284
 30
0.0
 10
86.80915445198063
 20
181.3997750943284
 30
0.0
 10
86.83381361801819
 20
181.1890962108144
 30
0.0
 10
86.8236536182774
 20
180.9741487162981
 30
0.0
 10
86.78280195265292
 20
180.7655512216199
 30
0.0
 10
86.78280195265292
 20
180.7655512216199
 30
0.0
 10
86.78280195265292
 20
180.7655512216199
 30
0.0
 10
86.78280195265292
 20
180.7655512216199
 30
0.0
 10
86.77800417499756
 20
180.7410684444667
 30
0.0
 10
86.77281834179652
 20
180.7166209450904
 30
0.0
 10
86.7671386197192
 20
180.6921381679373
 30
0.0
  0
SPLINE
  5
8A
330
70
100
AcDbEntity
  8
PIEZA
 62
    18
420
        0
370
     9
100
AcDbSpline
210
0.0
220
0.0
230
1.0
 70
     8
 71
     3
 72
     8
 73
     4
 74
     0
 42
0.0000000001
 43
0.0000000001
 40
0.0
 40
0.0
 40
0.0
 40
0.0
 40
1.0
 40
1.0
 40
1.0
 40
1.0
 10
91.13449442166077
 20
171.0564014693209
 30
0.0
 10
89.22864550136537
 20
170.4440145404998
 30
0.0
 10
86.77849806387385
 20
171.287576741201
 30
0.0
 10
85.65384253701065
 20
172.9436214211739
 30
0.0
  0
SPLINE
  5
8B
330
70
100
AcDbEntity
  8
PIEZA
 62
    18
420
        0
370
     9
100
AcDbSpline
210
0.0
220
0.0
230
1.0
 70
     8
 71
     3
 72
    14
 73
    10
 74
     0
 42
0.0000000001
 43
0.0000000001
 40
0.0
 40
0.0
 40
0.0
 40
0.0
 40
1.0
 40
1.0
 40
1.0
 40
2.0
 40
2.0
 40
2.0
 40
3.0
 40
3.0
 40
3.0
 40
3.0
 10
91.83902460143572
 20
168.673599307889
 30
0.0
 10
92.32423514461252
 20
167.3977079515509
 30
0.0
 10
91.77287876978992
 20
165.7964143812922
 30
0.0
 10
90.60479629959017
 20
165.089659399323
 30
0.0
 10
88.71517745890947
 20
163.7982810989355
 30
0.0
 10
85.62216309337442
 20
164.1863719223677
 30
0.0
 10
83.69652775685365
 20
165.9564343772097
 30
0.0
 10
81.77088819162861
 20
167.7265321098285
 30
0.0
 10
81.74196041458884
 20
170.2083942687332
 30
0.0
 10
83.63157925526953
 20
171.4995961802363
 30
0.0
  0
SPLINE
  5
8C
330
70
100
AcDbEntity
  8
PIEZA
 62
    18
420
        0
370
     9
100
AcDbSpline
210
0.0
220
0.0
230
1.0
 70
     8
 71
     3
 72
    11
 73
     7
 74
     0
 42
0.0000000001
 43
0.0000000001
 40
0.0
 40
0.0
 40
0.0
 40
0.0
 40
1.0
 40
1.0
 40
1.0
 40
2.0
 40
2.0
 40
2.0
 40
2.0
 10
90.46114519214391
 20
164.99613801282
 30
0.0
 10
89.92492298360186
 20
164.5093399696837
 30
0.0
 10
88.69827940378504
 20
164.1477780344635
 30
0.0
 10
87.77361359404189
 20
164.2039444033934
 30
0.0
 10
85.31277699015639
 20
164.2404527543214
 30
0.0
 10
82.93068038426207
 20
165.8296813248879
 30
0.0
 10
82.4531956742215
 20
167.753594402506
 30
0.0
  0
SPLINE
  5
8D
330
70
100
AcDbEntity
  8
PIEZA
 62
    18
420
        0
370
     9
100
AcDbSpline
210
0.0
220
0.0
230
1.0
 70
     8
 71
     3
 72
    14
 73
    10
 74
     0
 42
0.0000000001
 43
0.0000000001
 40
0.0
 40
0.0
 40
0.0
 40
0.0
 40
1.0
 40
1.0
 40
1.0
 40
2.0
 40
2.0
 40
2.0
 40
3.0
 40
3.0
 40
3.0
 40
3.0
 10
91.84781108814908
 20
168.4847926460392
 30
0.0
 10
91.97646682015152
 20
167.8231579406967
 30
0.0
 10
91.65505099501817
 20
166.8895668534035
 30
0.0
 10
91.14620434133327
 20
166.4475363091251
 30
0.0
 10
89.7914318758964
 20
165.0817218995255
 30
0.0
 10
86.98332083642617
 20
165.0734668997361
 30
0.0
 10
84.8740625569045
 20
166.4289449207105
 30
0.0
 10
82.7649806662672
 20
167.7844229416849
 30
0.0
 10
82.15365207075238
 20
169.9904834409592
 30
0.0
 10
83.50842453618927
 20
171.3561214616744
 30
0.0
  0
SPLINE
  5
8E
330
70
100
AcDbEntity
  8
PIEZA
 62
    18
420
        0
370
     9
100
AcDbSpline
210
0.0
220
0.0
230
1.0
 70
     8
 71
     3
 72
    11
 73
     7
 74
     0
 42
0.0000000001
 43
0.0000000001
 40
0.0
 40
0.0
 40
0.0
 40
0.0
 40
1.0
 40
1.0
 40
1.0
 40
2.0
 40
2.0
 40
2.0
 40
2.0
 10
91.27366294919264
 20
170.9652832905921
 30
0.0
 10
90.81099719951961
 20
170.2905562110815
 30
0.0
 10
89.60901049166146
 20
169.8895537213119
 30
0.0
 10
88.58133357343524
 20
170.0667892723458
 30
0.0
 10
86.87272500591436
 20
170.2943309332074
 30
0.0
 10
85.48761365236261
 20
171.5884961779683
 30
0.0
 10
85.48796643013139
 20
172.9573797541563
 30
0.0
  0
SPLINE
  5
8F
330
70
100
AcDbEntity
  8
PIEZA
 62
    18
420
        0
370
     9
100
AcDbSpline
210
0.0
220
0.0
230
1.0
 70
     8
 71
     3
 72
    14
 73
    10
 74
     0
 42
0.0000000001
 43
0.0000000001
 40
0.0
 40
0.0
 40
0.0
 40
0.0
 40
1.0
 40
1.0
 40
1.0
 40
2.0
 40
2.0
 40
2.0
 40
3.0
 40
3.0
 40
3.0
 40
3.0
 10
93.87593053208643
 20
178.0859218455385
 30
0.0
 10
94.71945508350538
 20
176.5986813279256
 30
0.0
 10
94.1291520430097
 20
174.8838991494511
 30
0.0
 10
92.54870763888575
 20
174.2312249994355
 30
0.0
 10
90.71814379669843
 20
173.4288672421276
 30
0.0
 10
88.17585080600219
 20
174.1080702803553
 30
0.0
 10
86.87050250597106
 20
175.7482752385102
 30
0.0
 10
85.56515420593994
 20
177.3883082889861
 30
0.0
 10
85.99078058397019
 20
179.3683748683759
 30
0.0
 10
87.82134442615751
 20
180.1707326256839
 30
0.0
  0
SPLINE
  5
90
330
70
100
AcDbEntity
  8
PIEZA
 62
    18
420
        0
370
     9
100
AcDbSpline
210
0.0
220
0.0
230
1.0
 70
     8
 71
     3
 72
    14
 73
    10
 74
     0
 42
0.0000000001
 43
0.0000000001
 40
0.0
 40
0.0
 40
0.0
 40
0.0
 40
1.0
 40
1.0
 40
1.0
 40
2.0
 40
2.0
 40
2.0
 40
3.0
 40
3.0
 40
3.0
 40
3.0
 10
93.80632510680127
 20
175.9541210665919
 30
0.0
 10
93.80632510680127
 20
175.9541210665919
 30
0.0
 10
93.80632510680127
 20
175.9541210665919
 30
0.0
 10
93.80632510680127
 20
175.9541210665919
 30
0.0
 10
93.27888706470178
 20
174.4219013834599
 30
0.0
 10
91.22974442163711
 20
173.7382180675688
 30
0.0
 10
89.22970383467172
 20
174.4269108277765
 30
0.0
 10
87.22963027458673
 20
175.1155683102074
 30
0.0
 10
86.03607724948124
 20
176.9158285420567
 30
0.0
 10
86.56355275613703
 20
178.4480129474119
 30
0.0
  0
SPLINE
  5
91
330
70
100
AcDbEntity
  8
PIEZA
 62
    18
420
        0
370
     9
100
AcDbSpline
210
0.0
220
0.0
230
1.0
 70
     9
 71
     3
 72
    20
 73
    16
 74
     0
 42
0.0000000001
 43
0.0000000001
 40
0.0
 40
0.0
 40
0.0
 40
0.0
 40
1.0
 40
1.0
 40
1.0
 40
2.0
 40
2.0
 40
2.0
 40
3.0
 40
3.0
 40
3.0
 40
4.0
 40
4.0
 40
4.0
 40
5.0
 40
5.0
 40
5.0
 40
5.0
 10
93.94584871435283
 20
176.358902733688
 30
0.0
 10
93.94584871435283
 20
176.358902733688
 30
0.0
 10
93.94584871435283
 20
176.358902733688
 30
0.0
 10
93.94584871435283
 20
176.358902733688
 30
0.0
 10
93.41823428336896
 20
174.8267138731323
 30
0.0
 10
91.36926572453139
 20
174.1430305572411
 30
0.0
 10
89.36922744222327
 20
174.831688039672
 30
0.0
 10
87.36915388213828
 20
175.5203807998798
 30
0.0
 10
86.1754597459253
 20
177.3206057539522
 30
0.0
 10
86.70289997832425
 20
178.8528254370842
 30
0.0
 10
87.23051221900867
 20
180.384833453555
 30
0.0
 10
89.27948077784625
 20
181.0686931583306
 30
0.0
 10
91.27951906015434
 20
180.3800356758997
 30
0.0
 10
93.27959262023933
 20
179.6913429156919
 30
0.0
 10
94.47328675645232
 20
177.8909415727351
 30
0.0
 10
93.94584871435283
 20
176.358902733688
 30
0.0
  0
LINE
  5
92
330
70
100
AcDbEntity
  8
PIEZA
 62
    18
420
        0
370
     9
100
AcDbLine
 10
92.42467097538353
 20
153.9592385721725
 30
0.0
 11
73.67647284257881
 21
153.9592385721725
 31
0.0
  0
SPLINE
  5
93
330
70
100
AcDbEntity
  8
PIEZA
 62
    18
420
        0
370
     9
100
AcDbSpline
210
0.0
220
0.0
230
1.0
 70
     8
 71
     3
 72
     8
 73
     4
 74
     0
 42
0.0000000001
 43
0.0000000001
 40
0.0
 40
0.0
 40
0.0
 40
0.0
 40
1.0
 40
1.0
 40
1.0
 40
1.0
 10
85.07010116301424
 20
174.616387767387
 30
0.0
 10
85.04992227464015
 20
174.8642494277302
 30
0.0
 10
85.11366921745828
 20
175.2969666389129
 30
0.0
 10
85.20324164536576
 20
175.520028022111
 30
0.0
  0
SPLINE
  5
94
330
70
100
AcDbEntity
  8
PIEZA
 62
    18
420
        0
370
     9
100
AcDbSpline
210
0.0
220
0.0
230
1.0
 70
     9
 71
     3
 72
   116
 73
   112
 74
     0
 42
0.0000000001
 43
0.0000000001
 40
0.0
 40
0.0
 40
0.0
 40
0.0
 40
1.0
 40
1.0
 40
1.0
 40
2.0
 40
2.0
 40
2.0
 40
3.0
 40
3.0
 40
3.0
 40
4.0
 40
4.0
 40
4.0
 40
5.0
 40
5.0
 40
5.0
 40
6.0
 40
6.0
 40
6.0
 40
7.0
 40
7.0
 40
7.0
 40
8.0
 40
8.0
 40
8.0
 40
9.0
 40
9.0
 40
9.0
 40
10.0
 40
10.0
 40
10.0
 40
11.0
 40
11.0
 40
11.0
 40
12.0
 40
12.0
 40
12.0
 40
13.0
 40
13.0
 40
13.0
 40
14.0
 40
14.0
 40
14.0
 40
15.0
 40
15.0
 40
15.0
 40
16.0
 40
16.0
 40
16.0
 40
17.0
 40
17.0
 40
17.0
 40
18.0
 40
18.0
 40
18.0
 40
19.0
 40
19.0
 40
19.0
 40
20.0
 40
20.0
 40
20.0
 40
21.0
 40
21.0
 40
21.0
 40
22.0
 40
22.0
 40
22.0
 40
23.0
 40
23.0
 40
23.0
 40
24.0
 40
24.0
 40
24.0
 40
25.0
 40
25.0
 40
25.0
 40
26.0
 40
26.0
 40
26.0
 40
27.0
 40
27.0
 40
27.0
 40
28.0
 40
28.0
 40
28.0
 40
29.0
 40
29.0
 40
29.0
 40
30.0
 40
30.0
 40
30.0
 40
31.0
 40
31.0
 40
31.0
 40
32.0
 40
32.0
 40
32.0
 40
33.0
 40
33.0
 40
33.0
 40
34.0
 40
34.0
 40
34.0
 40
35.0
 40
35.0
 40
35.0
 40
36.0
 40
36.0
 40
36.0
 40
37.0
 40
37.0
 40
37.0
 40
37.0
 10
81.28839403727139
 20
175.4778358009652
 30
0.0
 10
81.12251793039215
 20
175.4471794128584
 30
0.0
 10
80.96196876782142
 20
175.3925694142516
 30
0.0
 10
80.81179127165277
 20
175.3164444006153
 30
0.0
 10
80.81179127165277
 20
175.3164444006153
 30
0.0
 10
80.81179127165277
 20
175.3164444006153
 30
0.0
 10
80.81179127165277
 20
175.3164444006153
 30
0.0
 10
80.56597775763636
 20
175.191874141594
 30
0.0
 10
80.35184164657879
 20
175.0117105350793
 30
0.0
 10
80.18165962106211
 20
174.7955283183723
 30
0.0
 10
80.18165962106211
 20
174.7955283183723
 30
0.0
 10
80.18165962106211
 20
174.7955283183723
 30
0.0
 10
80.18165962106211
 20
174.7955283183723
 30
0.0
 10
80.01165601428814
 20
174.5793461016654
 30
0.0
 10
79.88694907302525
 20
174.3301086080239
 30
0.0
 10
79.80856386893684
 20
174.0651725036719
 30
0.0
 10
79.80856386893684
 20
174.0651725036719
 30
0.0
 10
79.80856386893684
 20
174.0651725036719
 30
0.0
 10
79.80856386893684
 20
174.0651725036719
 30
0.0
 10
79.73017463258045
 20
173.8004127882043
 30
0.0
 10
79.69884998007517
 20
173.5213655731011
 30
0.0
 10
79.71260831340529
 20
173.2435221789113
 30
0.0
 10
79.71260831340529
 20
173.2435221789113
 30
0.0
 10
79.71260831340529
 20
173.2435221789113
 30
0.0
 10
79.71260831340529
 20
173.2435221789113
 30
0.0
 10
79.72657629933891
 20
172.9656700317225
 30
0.0
 10
79.7859860911646
 20
172.6900447609765
 30
0.0
 10
79.88779573967031
 20
172.4314939342394
 30
0.0
 10
79.88779573967031
 20
172.4314939342394
 30
0.0
 10
79.88779573967031
 20
172.4314939342394
 30
0.0
 10
79.88779573967031
 20
172.4314939342394
 30
0.0
 10
79.98943101485515
 20
172.1727667186178
 30
0.0
 10
80.13361128895459
 20
171.9321370025346
 30
0.0
 10
80.31500961766006
 20
171.7245625633858
 30
0.0
 10
80.31500961766006
 20
171.7245625633858
 30
0.0
 10
80.31500961766006
 20
171.7245625633858
 30
0.0
 10
80.31500961766006
 20
171.7245625633858
 30
0.0
 10
80.49637266858866
 20
171.5169881242371
 30
0.0
 10
80.71495377412331
 20
171.3432097953372
 30
0.0
 10
80.96041654563881
 20
171.2203725762488
 30
0.0
 10
80.96041654563881
 20
171.2203725762488
 30
0.0
 10
80.96041654563881
 20
171.2203725762488
 30
0.0
 10
80.96041654563881
 20
171.2203725762488
 30
0.0
 10
81.20605570603869
 20
171.0975749572257
 30
0.0
 10
81.47804736576629
 20
171.0272973033968
 30
0.0
 10
81.75367263651228
 20
171.021758692427
 30
0.0
 10
81.75367263651228
 20
171.021758692427
 30
0.0
 10
81.75367263651228
 20
171.021758692427
 30
0.0
 10
81.75367263651228
 20
171.021758692427
 30
0.0
 10
81.9162679101419
 20
171.0185131369542
 30
0.0
 10
82.07974720170241
 20
171.0383082905736
 30
0.0
 10
82.23666067974578
 20
171.0798259131678
 30
0.0
 10
82.23666067974578
 20
171.0798259131678
 30
0.0
 10
82.23666067974578
 20
171.0798259131678
 30
0.0
 10
82.23666067974578
 20
171.0798259131678
 30
0.0
 10
82.39343512019058
 20
171.1211714676685
 30
0.0
 10
82.54498844965745
 20
171.1843892438335
 30
0.0
 10
82.68504122386218
 20
171.2669082905165
 30
0.0
 10
82.68504122386218
 20
171.2669082905165
 30
0.0
 10
82.68504122386218
 20
171.2669082905165
 30
0.0
 10
82.68504122386218
 20
171.2669082905165
 30
0.0
 10
82.82509399806691
 20
171.3493834062908
 30
0.0
 10
82.95308177257947
 20
171.4501720148306
 30
0.0
 10
83.06674676967963
 20
171.5652481230058
 30
0.0
 10
83.06674676967963
 20
171.5652481230058
 30
0.0
 10
83.06674676967963
 20
171.5652481230058
 30
0.0
 10
83.06674676967963
 20
171.5652481230058
 30
0.0
 10
83.21593648809571
 20
171.716131174712
 30
0.0
 10
83.34046704047421
 20
171.891677734805
 30
0.0
 10
83.43659898246613
 20
172.0811503320663
 30
0.0
 10
83.43659898246613
 20
172.0811503320663
 30
0.0
 10
83.43659898246613
 20
172.0811503320663
 30
0.0
 10
83.43659898246613
 20
172.0811503320663
 30
0.0
 10
83.53269564668115
 20
172.2708036605612
 30
0.0
 10
83.60163053465507
 20
172.4749208775759
 30
0.0
 10
83.64226842166351
 20
172.6850749568288
 30
0.0
 10
83.64226842166351
 20
172.6850749568288
 30
0.0
 10
83.64226842166351
 20
172.6850749568288
 30
0.0
 10
83.64226842166351
 20
172.6850749568288
 30
0.0
 10
83.6829084206267
 20
172.8950439224133
 30
0.0
 10
83.69582220129812
 20
173.1108777344999
 30
0.0
 10
83.68171109019057
 20
173.3256797447602
 30
0.0
 10
83.68171109019057
 20
173.3256797447602
 30
0.0
 10
83.68171109019057
 20
173.3256797447602
 30
0.0
 10
83.68171109019057
 20
173.3256797447602
 30
0.0
 10
83.65588564353833
 20
173.7165222347889
 30
0.0
 10
83.53978647983359
 20
174.1023905582779
 30
0.0
 10
83.34339720138631
 20
174.4389758274687
 30
0.0
 10
83.34339720138631
 20
174.4389758274687
 30
0.0
 10
83.34339720138631
 20
174.4389758274687
 30
0.0
 10
83.34339720138631
 20
174.4389758274687
 30
0.0
 10
83.20009676627758
 20
174.6847560989761
 30
0.0
 10
83.01372427103235
 20
174.9049247044703
 30
0.0
 10
82.79253261000874
 20
175.0804360673411
 30
0.0
 10
82.79253261000874
 20
175.0804360673411
 30
0.0
 10
82.79253261000874
 20
175.0804360673411
 30
0.0
 10
82.79253261000874
 20
175.0804360673411
 30
0.0
 10
82.63596983622521
 20
175.2046446968238
 30
0.0
 10
82.46265011842474
 20
175.3064210831161
 30
0.0
 10
82.27592484541073
 20
175.37948135903
 30
0.0
 10
82.27592484541073
 20
175.37948135903
 30
0.0
 10
82.27592484541073
 20
175.37948135903
 30
0.0
 10
82.27592484541073
 20
175.37948135903
 30
0.0
 10
82.08905846128919
 20
175.4526827460514
 30
0.0
 10
81.89182041076561
 20
175.4955805227347
 30
0.0
 10
81.69165430476116
 20
175.5052113558223
 30
0.0
 10
81.69165430476116
 20
175.5052113558223
 30
0.0
 10
81.69165430476116
 20
175.5052113558223
 30
0.0
 10
81.69165430476116
 20
175.5052113558223
 30
0.0
 10
81.55710486374935
 20
175.5115966334372
 30
0.0
 10
81.42139125610059
 20
175.5024596892259
 30
0.0
 10
81.28839403727139
 20
175.4778358009652
 30
0.0
  0
SPLINE
  5
95
330
70
100
AcDbEntity
  8
PIEZA
 62
    18
420
        0
370
     9
100
AcDbSpline
210
0.0
220
0.0
230
1.0
 70
     8
 71
     3
 72
     8
 73
     4
 74
     0
 42
0.0000000001
 43
0.0000000001
 40
0.0
 40
0.0
 40
0.0
 40
0.0
 40
1.0
 40
1.0
 40
1.0
 40
1.0
 10
73.42377812680336
 20
154.1223630124554
 30
0.0
 10
74.46023921147214
 20
154.5530027391395
 30
0.0
 10
75.57350001640383
 20
155.8070179694762
 30
0.0
 10
75.87822945307398
 20
156.8870471085891
 30
0.0
  0
SPLINE
  5
96
330
70
100
AcDbEntity
  8
PIEZA
 62
    18
420
        0
370
     9
100
AcDbSpline
210
0.0
220
0.0
230
1.0
 70
     8
 71
     3
 72
     8
 73
     4
 74
     0
 42
0.0000000001
 43
0.0000000001
 40
0.0
 40
0.0
 40
0.0
 40
0.0
 40
1.0
 40
1.0
 40
1.0
 40
1.0
 10
73.42377812680336
 20
154.1223630124554
 30
0.0
 10
73.20533813237623
 20
154.0279596815305
 30
0.0
 10
73.03843896996752
 20
153.7611538550039
 30
0.0
 10
73.04926924746898
 20
153.5234521944015
 30
0.0
  0
LINE
  5
97
330
70
100
AcDbEntity
  8
PIEZA
 62
    18
420
        0
370
     9
100
AcDbLine
 10
73.04926924746898
 20
152.6270438839375
 30
0.0
 11
73.04926924746898
 21
153.5234521944015
 31
0.0
  0
LINE
  5
98
330
70
100
AcDbEntity
  8
PIEZA
 62
    18
420
        0
370
     9
100
AcDbLine
 10
75.87822945307398
 20
156.8870471085891
 30
0.0
 11
76.2733777587093
 21
162.9335522321077
 31
0.0
  0
LINE
  5
99
330
70
100
AcDbEntity
  8
PIEZA
 62
    18
420
        0
370
     9
100
AcDbLine
 10
82.70917122324659
 20
168.4127907034318
 30
0.0
 11
82.59374442379593
 21
168.0775812675392
 31
0.0
  0
LINE
  5
9A
330
70
100
AcDbEntity
  8
PIEZA
 62
    18
420
        0
370
     9
100
AcDbLine
 10
83.52341759136232
 20
166.7963629668925
 30
0.0
 11
83.43211870480265
 21
166.5314268625404
 31
0.0
  0
SPLINE
  5
9B
330
70
100
AcDbEntity
  8
PIEZA
 62
    18
420
        0
370
     9
100
AcDbSpline
210
0.0
220
0.0
230
1.0
 70
     8
 71
     3
 72
     8
 73
     4
 74
     0
 42
0.0000000001
 43
0.0000000001
 40
0.0
 40
0.0
 40
0.0
 40
0.0
 40
1.0
 40
1.0
 40
1.0
 40
1.0
 10
82.59374442379593
 20
168.0775812675392
 30
0.0
 10
82.6383687250529
 20
167.5580807252372
 30
0.0
 10
83.0210973263998
 20
166.8521724099131
 30
0.0
 10
83.43211870480265
 20
166.5314268625404
 30
0.0
  0
SPLINE
  5
9C
330
70
100
AcDbEntity
  8
PIEZA
 62
    18
420
        0
370
     9
100
AcDbSpline
210
0.0
220
0.0
230
1.0
 70
     8
 71
     3
 72
     8
 73
     4
 74
     0
 42
0.0000000001
 43
0.0000000001
 40
0.0
 40
0.0
 40
0.0
 40
0.0
 40
1.0
 40
1.0
 40
1.0
 40
1.0
 10
83.52341759136232
 20
166.7963629668925
 30
0.0
 10
83.55354481281592
 20
167.3698032300405
 30
0.0
 10
83.187855377701
 20
168.0958551559619
 30
0.0
 10
82.70917122324659
 20
168.4127907034318
 30
0.0
  0
LINE
  5
9D
330
70
100
AcDbEntity
  8
PIEZA
 62
    18
420
        0
370
     9
100
AcDbLine
 10
84.52195506588749
 20
165.9092327117473
 30
0.0
 11
84.41001867985434
 21
165.584042164488
 31
0.0
  0
LINE
  5
9E
330
70
100
AcDbEntity
  8
PIEZA
 62
    18
420
        0
370
     9
100
AcDbLine
 10
83.26038648696169
 20
171.0674081357068
 30
0.0
 11
84.84270275656703
 21
172.9095078109331
 31
0.0
  0
SPLINE
  5
9F
330
70
100
AcDbEntity
  8
PIEZA
 62
    18
420
        0
370
     9
100
AcDbSpline
210
0.0
220
0.0
230
1.0
 70
     8
 71
     3
 72
     8
 73
     4
 74
     0
 42
0.0000000001
 43
0.0000000001
 40
0.0
 40
0.0
 40
0.0
 40
0.0
 40
1.0
 40
1.0
 40
1.0
 40
1.0
 10
84.72074533859371
 20
178.8207932156792
 30
0.0
 10
84.76897220102996
 20
178.8264729377566
 30
0.0
 10
84.85977505726898
 20
178.8452407150555
 30
0.0
 10
84.90627116719389
 20
178.8591754369222
 30
0.0
  0
SPLINE
  5
A0
330
70
100
AcDbEntity
  8
PIEZA
 62
    18
420
        0
370
     9
100
AcDbSpline
210
0.0
220
0.0
230
1.0
 70
     8
 71
     3
 72
   104
 73
   100
 74
     0
 42
0.0000000001
 43
0.0000000001
 40
0.0
 40
0.0
 40
0.0
 40
0.0
 40
1.0
 40
1.0
 40
1.0
 40
2.0
 40
2.0
 40
2.0
 40
3.0
 40
3.0
 40
3.0
 40
4.0
 40
4.0
 40
4.0
 40
5.0
 40
5.0
 40
5.0
 40
6.0
 40
6.0
 40
6.0
 40
7.0
 40
7.0
 40
7.0
 40
8.0
 40
8.0
 40
8.0
 40
9.0
 40
9.0
 40
9.0
 40
10.0
 40
10.0
 40
10.0
 40
11.0
 40
11.0
 40
11.0
 40
12.0
 40
12.0
 40
12.0
 40
13.0
 40
13.0
 40
13.0
 40
14.0
 40
14.0
 40
14.0
 40
15.0
 40
15.0
 40
15.0
 40
16.0
 40
16.0
 40
16.0
 40
17.0
 40
17.0
 40
17.0
 40
18.0
 40
18.0
 40
18.0
 40
19.0
 40
19.0
 40
19.0
 40
20.0
 40
20.0
 40
20.0
 40
21.0
 40
21.0
 40
21.0
 40
22.0
 40
22.0
 40
22.0
 40
23.0
 40
23.0
 40
23.0
 40
24.0
 40
24.0
 40
24.0
 40
25.0
 40
25.0
 40
25.0
 40
26.0
 40
26.0
 40
26.0
 40
27.0
 40
27.0
 40
27.0
 40
28.0
 40
28.0
 40
28.0
 40
29.0
 40
29.0
 40
29.0
 40
30.0
 40
30.0
 40
30.0
 40
31.0
 40
31.0
 40
31.0
 40
32.0
 40
32.0
 40
32.0
 40
33.0
 40
33.0
 40
33.0
 40
33.0
 10
95.48805200834129
 20
175.1131694213797
 30
0.0
 10
95.55592645105411
 20
175.0427197009548
 30
0.0
 10
95.62810478254602
 20
174.9767502581934
 30
0.0
 10
95.70458700281703
 20
174.9161077597405
 30
0.0
 10
95.70458700281703
 20
174.9161077597405
 30
0.0
 10
95.70458700281703
 20
174.9161077597405
 30
0.0
 10
95.70458700281703
 20
174.9161077597405
 30
0.0
 10
95.86114977660054
 20
174.7918947073539
 30
0.0
 10
96.03443421662413
 20
174.6901183210615
 30
0.0
 10
96.22115948963816
 20
174.6170580451477
 30
0.0
 10
96.22115948963816
 20
174.6170580451477
 30
0.0
 10
96.22115948963816
 20
174.6170580451477
 30
0.0
 10
96.22115948963816
 20
174.6170580451477
 30
0.0
 10
96.40806115153656
 20
174.5438610674753
 30
0.0
 10
96.60529920206016
 20
174.500958881443
 30
0.0
 10
96.80546530806459
 20
174.4913280483553
 30
0.0
 10
96.80546530806459
 20
174.4913280483553
 30
0.0
 10
96.80546530806459
 20
174.4913280483553
 30
0.0
 10
96.80546530806459
 20
174.4913280483553
 30
0.0
 10
96.93997947129952
 20
174.484947178601
 30
0.0
 10
97.07572835672518
 20
174.4940797149518
 30
0.0
 10
97.20869029777748
 20
174.5187036032125
 30
0.0
 10
97.20869029777748
 20
174.5187036032125
 30
0.0
 10
97.20869029777748
 20
174.5187036032125
 30
0.0
 10
97.20869029777748
 20
174.5187036032125
 30
0.0
 10
97.37460168243362
 20
174.5493599913193
 30
0.0
 10
97.53497445611994
 20
174.603969989926
 30
0.0
 10
97.685328341173
 20
174.6801347102051
 30
0.0
 10
97.685328341173
 20
174.6801347102051
 30
0.0
 10
97.685328341173
 20
174.6801347102051
 30
0.0
 10
97.685328341173
 20
174.6801347102051
 30
0.0
 10
97.93114389045726
 20
174.8046652625837
 30
0.0
 10
98.14524719768604
 20
174.9848332895873
 30
0.0
 10
98.3152860865324
 20
175.2010110858054
 30
0.0
 10
98.3152860865324
 20
175.2010110858054
 30
0.0
 10
98.3152860865324
 20
175.2010110858054
 30
0.0
 10
98.3152860865324
 20
175.2010110858054
 30
0.0
 10
98.48546359853761
 20
175.4171933025123
 30
0.0
 10
98.61017053980052
 20
175.6664307961537
 30
0.0
 10
98.68855776002291
 20
175.9311905116214
 30
0.0
 10
98.68855776002291
 20
175.9311905116214
 30
0.0
 10
98.68855776002291
 20
175.9311905116214
 30
0.0
 10
98.68855776002291
 20
175.9311905116214
 30
0.0
 10
98.76690970246844
 20
176.1961266159734
 30
0.0
 10
98.79827164611278
 20
176.4751738310765
 30
0.0
 10
98.78448053085953
 20
176.7530216017658
 30
0.0
 10
98.78448053085953
 20
176.7530216017658
 30
0.0
 10
98.78448053085953
 20
176.7530216017658
 30
0.0
 10
98.78448053085953
 20
176.7530216017658
 30
0.0
 10
98.77054331348684
 20
177.0308693724551
 30
0.0
 10
98.71110275309989
 20
177.3064946432011
 30
0.0
 10
98.60932387315545
 20
177.5650499556087
 30
0.0
 10
98.60932387315545
 20
177.5650499556087
 30
0.0
 10
98.60932387315545
 20
177.5650499556087
 30
0.0
 10
98.60932387315545
 20
177.5650499556087
 30
0.0
 10
98.50751220908621
 20
177.8235962966754
 30
0.0
 10
98.36350832387118
 20
178.0644024016431
 30
0.0
 10
98.18210999516569
 20
178.2719768407918
 30
0.0
 10
98.18210999516569
 20
178.2719768407918
 30
0.0
 10
98.18210999516569
 20
178.2719768407918
 30
0.0
 10
98.18210999516569
 20
178.2719768407918
 30
0.0
 10
98.0007469442371
 20
178.4795512799406
 30
0.0
 10
97.78213056092559
 20
178.653188497733
 30
0.0
 10
97.53666778941008
 20
178.7761668279289
 30
0.0
 10
97.53666778941008
 20
178.7761668279289
 30
0.0
 10
97.53666778941008
 20
178.7761668279289
 30
0.0
 10
97.53666778941008
 20
178.7761668279289
 30
0.0
 10
97.29102862901019
 20
178.8989687692404
 30
0.0
 10
97.01903696928262
 20
178.9692773785578
 30
0.0
 10
96.74344697631349
 20
178.9747807117507
 30
0.0
 10
96.74344697631349
 20
178.9747807117507
 30
0.0
 10
96.74344697631349
 20
178.9747807117507
 30
0.0
 10
96.74344697631349
 20
178.9747807117507
 30
0.0
 10
96.58085170268385
 20
178.9780615450003
 30
0.0
 10
96.4173744846323
 20
178.958235434395
 30
0.0
 10
96.26045893307999
 20
178.9167134910099
 30
0.0
 10
96.26045893307999
 20
178.9167134910099
 30
0.0
 10
96.26045893307999
 20
178.9167134910099
 30
0.0
 10
96.26045893307999
 20
178.9167134910099
 30
0.0
 10
96.10350810375081
 20
178.8753679365091
 30
0.0
 10
95.95209588539143
 20
178.8121501603442
 30
0.0
 10
95.81207838896357
 20
178.729670718004
 30
0.0
 10
95.81207838896357
 20
178.729670718004
 30
0.0
 10
95.81207838896357
 20
178.729670718004
 30
0.0
 10
95.81207838896357
 20
178.729670718004
 30
0.0
 10
95.67202561475884
 20
178.6471559978869
 30
0.0
 10
95.5440378402463
 20
178.5461910004627
 30
0.0
 10
95.43016117648488
 20
178.4313265589487
 30
0.0
 10
95.43016117648488
 20
178.4313265589487
 30
0.0
 10
95.43016117648488
 20
178.4313265589487
 30
0.0
 10
95.43016117648488
 20
178.4313265589487
 30
0.0
 10
95.28118312473006
 20
178.2804082294656
 30
0.0
 10
95.15665257235154
 20
178.1049012894987
 30
0.0
 10
95.06052063035964
 20
177.9152479610038
 30
0.0
 10
95.06052063035964
 20
177.9152479610038
 30
0.0
 10
95.06052063035964
 20
177.9152479610038
 30
0.0
 10
95.06052063035964
 20
177.9152479610038
 30
0.0
 10
95.04916118620498
 20
177.8930229615709
 30
0.0
 10
95.03829563092663
 20
177.8704451843691
 30
0.0
 10
95.02778285341706
 20
177.8478674071673
 30
0.0
  0
SPLINE
  5
A1
330
70
100
AcDbEntity
  8
PIEZA
 62
    18
420
        0
370
     9
100
AcDbSpline
210
0.0
220
0.0
230
1.0
 70
     9
 71
     3
 72
   116
 73
   112
 74
     0
 42
0.0000000001
 43
0.0000000001
 40
0.0
 40
0.0
 40
0.0
 40
0.0
 40
1.0
 40
1.0
 40
1.0
 40
2.0
 40
2.0
 40
2.0
 40
3.0
 40
3.0
 40
3.0
 40
4.0
 40
4.0
 40
4.0
 40
5.0
 40
5.0
 40
5.0
 40
6.0
 40
6.0
 40
6.0
 40
7.0
 40
7.0
 40
7.0
 40
8.0
 40
8.0
 40
8.0
 40
9.0
 40
9.0
 40
9.0
 40
10.0
 40
10.0
 40
10.0
 40
11.0
 40
11.0
 40
11.0
 40
12.0
 40
12.0
 40
12.0
 40
13.0
 40
13.0
 40
13.0
 40
14.0
 40
14.0
 40
14.0
 40
15.0
 40
15.0
 40
15.0
 40
16.0
 40
16.0
 40
16.0
 40
17.0
 40
17.0
 40
17.0
 40
18.0
 40
18.0
 40
18.0
 40
19.0
 40
19.0
 40
19.0
 40
20.0
 40
20.0
 40
20.0
 40
21.0
 40
21.0
 40
21.0
 40
22.0
 40
22.0
 40
22.0
 40
23.0
 40
23.0
 40
23.0
 40
24.0
 40
24.0
 40
24.0
 40
25.0
 40
25.0
 40
25.0
 40
26.0
 40
26.0
 40
26.0
 40
27.0
 40
27.0
 40
27.0
 40
28.0
 40
28.0
 40
28.0
 40
29.0
 40
29.0
 40
29.0
 40
30.0
 40
30.0
 40
30.0
 40
31.0
 40
31.0
 40
31.0
 40
32.0
 40
32.0
 40
32.0
 40
33.0
 40
33.0
 40
33.0
 40
34.0
 40
34.0
 40
34.0
 40
35.0
 40
35.0
 40
35.0
 40
36.0
 40
36.0
 40
36.0
 40
37.0
 40
37.0
 40
37.0
 40
37.0
 10
96.13469365851074
 20
170.3658389869387
 30
0.0
 10
96.24648893343639
 20
170.2395445457162
 30
0.0
 10
96.33934004217868
 20
170.097622049337
 30
0.0
 10
96.41081281813303
 20
169.9451867754482
 30
0.0
 10
96.41081281813303
 20
169.9451867754482
 30
0.0
 10
96.41081281813303
 20
169.9451867754482
 30
0.0
 10
96.41081281813303
 20
169.9451867754482
 30
0.0
 10
96.5279703151441
 20
169.6957376151455
 30
0.0
 10
96.58564948033925
 20
169.4218805132002
 30
0.0
 10
96.58670781364557
 20
169.1467801291506
 30
0.0
 10
96.58670781364557
 20
169.1467801291506
 30
0.0
 10
96.58670781364557
 20
169.1467801291506
 30
0.0
 10
96.58670781364557
 20
169.1467801291506
 30
0.0
 10
96.58773330918654
 20
168.8716840250577
 30
0.0
 10
96.53245059280756
 20
168.5986693098007
 30
0.0
 10
96.43113281761463
 20
168.3416749579147
 30
0.0
 10
96.43113281761463
 20
168.3416749579147
 30
0.0
 10
96.43113281761463
 20
168.3416749579147
 30
0.0
 10
96.43113281761463
 20
168.3416749579147
 30
0.0
 10
96.3298527536952
 20
168.0846368229147
 30
0.0
 10
96.18274442039885
 20
167.8453829401297
 30
0.0
 10
96.00084977303652
 20
167.6350610692022
 30
0.0
 10
96.00084977303652
 20
167.6350610692022
 30
0.0
 10
96.00084977303652
 20
167.6350610692022
 30
0.0
 10
96.00084977303652
 20
167.6350610692022
 30
0.0
 10
95.81878116657035
 20
167.4247307286393
 30
0.0
 10
95.60224617209462
 20
167.2440379554713
 30
0.0
 10
95.3629922893096
 20
167.1029621257371
 30
0.0
 10
95.3629922893096
 20
167.1029621257371
 30
0.0
 10
95.3629922893096
 20
167.1029621257371
 30
0.0
 10
95.3629922893096
 20
167.1029621257371
 30
0.0
 10
95.12356201764019
 20
166.9617099071186
 30
0.0
 10
94.86173035765341
 20
166.8607801874713
 30
0.0
 10
94.59093814233968
 20
166.8089218554609
 30
0.0
 10
94.59093814233968
 20
166.8089218554609
 30
0.0
 10
94.59093814233968
 20
166.8089218554609
 30
0.0
 10
94.59093814233968
 20
166.8089218554609
 30
0.0
 10
94.32032231591033
 20
166.7569224123431
 30
0.0
 10
94.04109871192281
 20
166.7546646346229
 30
0.0
 10
93.77203510767607
 20
166.8090982443453
 30
0.0
 10
93.77203510767607
 20
166.8090982443453
 30
0.0
 10
93.77203510767607
 20
166.8090982443453
 30
0.0
 10
93.77203510767607
 20
166.8090982443453
 30
0.0
 10
93.50283039232184
 20
166.8633554651833
 30
0.0
 10
93.24530262111414
 20
166.9755035178778
 30
0.0
 10
93.02464012674372
 20
167.1408857358807
 30
0.0
 10
93.02464012674372
 20
167.1408857358807
 30
0.0
 10
93.02464012674372
 20
167.1408857358807
 30
0.0
 10
93.02464012674372
 20
167.1408857358807
 30
0.0
 10
92.89442985228786
 20
167.238358233394
 30
0.0
 10
92.77780152192997
 20
167.3546337859831
 30
0.0
 10
92.67979985776355
 20
167.4838210049095
 30
0.0
 10
92.67979985776355
 20
167.4838210049095
 30
0.0
 10
92.67979985776355
 20
167.4838210049095
 30
0.0
 10
92.67979985776355
 20
167.4838210049095
 30
0.0
 10
92.58158886574339
 20
167.6131888469855
 30
0.0
 10
92.50115553243015
 20
167.7561654424058
 30
0.0
 10
92.44156903050798
 20
167.9074055135785
 30
0.0
 10
92.44156903050798
 20
167.9074055135785
 30
0.0
 10
92.44156903050798
 20
167.9074055135785
 30
0.0
 10
92.44156903050798
 20
167.9074055135785
 30
0.0
 10
92.38194958758455
 20
168.0586371013558
 30
0.0
 10
92.34321458857278
 20
168.2169284862064
 30
0.0
 10
92.32441386580791
 20
168.377658291239
 30
0.0
 10
92.32441386580791
 20
168.377658291239
 30
0.0
 10
92.32441386580791
 20
168.377658291239
 30
0.0
 10
92.32441386580791
 20
168.377658291239
 30
0.0
 10
92.29978764523623
 20
168.5883329211755
 30
0.0
 10
92.30977125609264
 20
168.8033156934686
 30
0.0
 10
92.35076403282461
 20
169.0119131881469
 30
0.0
 10
92.35076403282461
 20
169.0119131881469
 30
0.0
 10
92.35076403282461
 20
169.0119131881469
 30
0.0
 10
92.35076403282461
 20
169.0119131881469
 30
0.0
 10
92.39161569844908
 20
169.2203342939407
 30
0.0
 10
92.46308847440342
 20
169.4236048443104
 30
0.0
 10
92.5604221990822
 20
169.6142812283347
 30
0.0
 10
92.5604221990822
 20
169.6142812283347
 30
0.0
 10
92.5604221990822
 20
169.6142812283347
 30
0.0
 10
92.5604221990822
 20
169.6142812283347
 30
0.0
 10
92.65775124721493
 20
169.8047812234747
 30
0.0
 10
92.78037679964205
 20
169.9828987189305
 30
0.0
 10
92.92371040709642
 20
170.1434478815012
 30
0.0
 10
92.92371040709642
 20
170.1434478815012
 30
0.0
 10
92.92371040709642
 20
170.1434478815012
 30
0.0
 10
92.92371040709642
 20
170.1434478815012
 30
0.0
 10
93.18466012266126
 20
170.435583151826
 30
0.0
 10
93.51383705870771
 20
170.6679578681199
 30
0.0
 10
93.8757517716967
 20
170.8123145311037
 30
0.0
 10
93.8757517716967
 20
170.8123145311037
 30
0.0
 10
93.8757517716967
 20
170.8123145311037
 30
0.0
 10
93.8757517716967
 20
170.8123145311037
 30
0.0
 10
94.14016108757618
 20
170.9179009172988
 30
0.0
 10
94.42231036886395
 20
170.9766384158003
 30
0.0
 10
94.70463841721672
 20
170.9787198046361
 30
0.0
 10
94.70463841721672
 20
170.9787198046361
 30
0.0
 10
94.70463841721672
 20
170.9787198046361
 30
0.0
 10
94.70463841721672
 20
170.9787198046361
 30
0.0
 10
94.90463053182931
 20
170.9800999572548
 30
0.0
 10
95.10391229591929
 20
170.9537431386066
 30
0.0
 10
95.29599979101872
 20
170.8963814734034
 30
0.0
 10
95.29599979101872
 20
170.8963814734034
 30
0.0
 10
95.29599979101872
 20
170.8963814734034
 30
0.0
 10
95.29599979101872
 20
170.8963814734034
 30
0.0
 10
95.48822839722566
 20
170.8390198082001
 30
0.0
 10
95.67029700369182
 20
170.751319254882
 30
0.0
 10
95.8337742217434
 20
170.6355728689461
 30
0.0
 10
95.8337742217434
 20
170.6355728689461
 30
0.0
 10
95.8337742217434
 20
170.6355728689461
 30
0.0
 10
95.8337742217434
 20
170.6355728689461
 30
0.0
 10
95.94366449671765
 20
170.5578912042612
 30
0.0
 10
96.04494699413372
 20
170.4671214843547
 30
0.0
 10
96.13469365851074
 20
170.3658389869387
 30
0.0
  0
SPLINE
  5
A2
330
70
100
AcDbEntity
  8
PIEZA
 62
    18
420
        0
370
     9
100
AcDbSpline
210
0.0
220
0.0
230
1.0
 70
     8
 71
     3
 72
     8
 73
     4
 74
     0
 42
0.0000000001
 43
0.0000000001
 40
0.0
 40
0.0
 40
0.0
 40
0.0
 40
1.0
 40
1.0
 40
1.0
 40
1.0
 10
89.41039660783962
 20
170.8745092517392
 30
0.0
 10
88.56203886674851
 20
170.6755425901486
 30
0.0
 10
87.44634165794684
 20
171.0596823025706
 30
0.0
 10
86.90045553383056
 20
171.7388500630213
 30
0.0
  0
SPLINE
  5
A3
330
70
100
AcDbEntity
  8
PIEZA
 62
    18
420
        0
370
     9
100
AcDbSpline
210
0.0
220
0.0
230
1.0
 70
     8
 71
     3
 72
     8
 73
     4
 74
     0
 42
0.0000000001
 43
0.0000000001
 40
0.0
 40
0.0
 40
0.0
 40
0.0
 40
1.0
 40
1.0
 40
1.0
 40
1.0
 10
93.07579290321648
 20
172.8092527345755
 30
0.0
 10
93.00897679380998
 20
172.5784258749353
 30
0.0
 10
92.79279457710302
 20
172.1982725513005
 30
0.0
 10
92.62430791473482
 20
172.0151808893049
 30
0.0
  0
SPLINE
  5
A4
330
70
100
AcDbEntity
  8
PIEZA
 62
    18
420
        0
370
     9
100
AcDbSpline
210
0.0
220
0.0
230
1.0
 70
     9
 71
     3
 72
    20
 73
    16
 74
     0
 42
0.0000000001
 43
0.0000000001
 40
0.0
 40
0.0
 40
0.0
 40
0.0
 40
1.0
 40
1.0
 40
1.0
 40
2.0
 40
2.0
 40
2.0
 40
3.0
 40
3.0
 40
3.0
 40
4.0
 40
4.0
 40
4.0
 40
5.0
 40
5.0
 40
5.0
 40
5.0
 10
93.00104164341641
 20
176.6841241035235
 30
0.0
 10
93.00104164341641
 20
176.6841241035235
 30
0.0
 10
93.00104164341641
 20
176.6841241035235
 30
0.0
 10
93.00104164341641
 20
176.6841241035235
 30
0.0
 10
92.61122219906956
 20
175.5517471783344
 30
0.0
 10
91.09660378704312
 20
175.0463180341964
 30
0.0
 10
89.61828854698032
 20
175.5553410767656
 30
0.0
 10
88.14000858469439
 20
176.064364119335
 30
0.0
 10
87.25771138498144
 20
177.3950418631643
 30
0.0
 10
87.64770720836514
 20
178.5274277331459
 30
0.0
 10
88.03770303174886
 20
179.6600162498244
 30
0.0
 10
89.55214271533449
 20
180.1652292924909
 30
0.0
 10
91.03045795539731
 20
179.6562062499216
 30
0.0
 10
92.50873791768325
 20
179.1471832073523
 30
0.0
 10
93.39103511739621
 20
177.8165407412999
 30
0.0
 10
93.00104164341641
 20
176.6841241035235
 30
0.0
  0
SPLINE
  5
A5
330
70
100
AcDbEntity
  8
PIEZA
 62
    18
420
        0
370
     9
100
AcDbSpline
210
0.0
220
0.0
230
1.0
 70
     8
 71
     3
 72
    11
 73
     7
 74
     0
 42
0.0000000001
 43
0.0000000001
 40
0.0
 40
0.0
 40
0.0
 40
0.0
 40
1.0
 40
1.0
 40
1.0
 40
2.0
 40
2.0
 40
2.0
 40
2.0
 10
91.85193626777298
 20
173.0536880850326
 30
0.0
 10
91.33758628089514
 20
173.3789139100687
 30
0.0
 10
90.65700740936927
 20
173.2257730806423
 30
0.0
 10
90.33178158433313
 20
172.7114230937645
 30
0.0
 10
90.0529107581144
 20
172.2935225488705
 30
0.0
 10
90.12265492300175
 20
171.6833933977695
 30
0.0
 10
90.48852074700105
 20
171.3390470176656
 30
0.0
  0
LINE
  5
A6
330
70
100
AcDbEntity
  8
PIEZA
 62
    18
420
        0
370
     9
100
AcDbLine
 10
93.07579290321648
 20
172.8092527345755
 30
0.0
 11
94.1213909320966
 21
175.8456110671497
 31
0.0
  0
SPLINE
  5
A7
330
70
100
AcDbEntity
  8
PIEZA
 62
    18
420
        0
370
     9
100
AcDbSpline
210
0.0
220
0.0
230
1.0
 70
     8
 71
     3
 72
    11
 73
     7
 74
     0
 42
0.0000000001
 43
0.0000000001
 40
0.0
 40
0.0
 40
0.0
 40
0.0
 40
1.0
 40
1.0
 40
1.0
 40
2.0
 40
2.0
 40
2.0
 40
2.0
 10
86.33685557514109
 20
172.7686083700833
 30
0.0
 10
86.94130500416475
 20
172.8392388456791
 30
0.0
 10
87.37381054868617
 20
173.3864986320974
 30
0.0
 10
87.30318443937688
 20
173.9907363944598
 30
0.0
 10
87.25721749610514
 20
174.491151659471
 30
0.0
 10
86.81917334061392
 20
174.9216110929334
 30
0.0
 10
86.31822890894962
 20
174.9591819253083
 30
0.0
  0
SPLINE
  5
A8
330
70
100
AcDbEntity
  8
PIEZA
 62
    18
420
        0
370
     9
100
AcDbSpline
210
0.0
220
0.0
230
1.0
 70
     8
 71
     3
 72
     8
 73
     4
 74
     0
 42
0.0000000001
 43
0.0000000001
 40
0.0
 40
0.0
 40
0.0
 40
0.0
 40
1.0
 40
1.0
 40
1.0
 40
1.0
 10
91.32827294779941
 20
161.7742892061273
 30
0.0
 10
90.64236942178396
 20
160.2761831332361
 30
0.0
 10
90.41962324875878
 20
157.6217420898454
 30
0.0
 10
90.84630796009538
 20
156.0302557415587
 30
0.0
  0
SPLINE
  5
A9
330
70
100
AcDbEntity
  8
PIEZA
 62
    18
420
        0
370
     9
100
AcDbSpline
210
0.0
220
0.0
230
1.0
 70
     8
 71
     3
 72
     8
 73
     4
 74
     0
 42
0.0000000001
 43
0.0000000001
 40
0.0
 40
0.0
 40
0.0
 40
0.0
 40
1.0
 40
1.0
 40
1.0
 40
1.0
 10
90.84630796009538
 20
156.0302557415587
 30
0.0
 10
91.13551517493929
 20
155.317472183393
 30
0.0
 10
91.97562015350644
 20
154.443108559828
 30
0.0
 10
92.67616624674513
 20
154.125643845705
 30
0.0
  0
SPLINE
  5
AA
330
70
100
AcDbEntity
  8
PIEZA
 62
    18
420
        0
370
     9
100
AcDbSpline
210
0.0
220
0.0
230
1.0
 70
     8
 71
     3
 72
     8
 73
     4
 74
     0
 42
0.0000000001
 43
0.0000000001
 40
0.0
 40
0.0
 40
0.0
 40
0.0
 40
1.0
 40
1.0
 40
1.0
 40
1.0
 10
93.03222484877244
 20
153.53601108297
 30
0.0
 10
93.04305512627392
 20
153.765457743783
 30
0.0
 10
92.88441096365458
 20
154.0283124592992
 30
0.0
 10
92.67616624674513
 20
154.125643845705
 30
0.0
  0
LINE
  5
AB
330
70
100
AcDbEntity
  8
PIEZA
 62
    18
420
        0
370
     9
100
AcDbLine
 10
93.03222484877244
 20
152.6270438839375
 30
0.0
 11
93.03222484877244
 21
153.53601108297
 31
0.0
  0
LINE
  5
AC
330
70
100
AcDbEntity
  8
PIEZA
 62
    18
420
        0
370
     9
100
AcDbLine
 10
89.02865578424531
 20
164.9007116263657
 30
0.0
 11
88.93753328657004
 21
164.6357755220136
 31
0.0
  0
SPLINE
  5
AD
330
70
100
AcDbEntity
  8
PIEZA
 62
    18
420
        0
370
     9
100
AcDbSpline
210
0.0
220
0.0
230
1.0
 70
     8
 71
     3
 72
     8
 73
     4
 74
     0
 42
0.0000000001
 43
0.0000000001
 40
0.0
 40
0.0
 40
0.0
 40
0.0
 40
1.0
 40
1.0
 40
1.0
 40
1.0
 10
88.93753328657004
 20
164.6357755220136
 30
0.0
 10
89.45897410660032
 20
164.6354227442449
 30
0.0
 10
90.19500964337805
 20
164.9559919027331
 30
0.0
 10
90.55000991209901
 20
165.3380502263193
 30
0.0
  0
SPLINE
  5
AE
330
70
100
AcDbEntity
  8
PIEZA
 62
    18
420
        0
370
     9
100
AcDbSpline
210
0.0
220
0.0
230
1.0
 70
     8
 71
     3
 72
     8
 73
     4
 74
     0
 42
0.0000000001
 43
0.0000000001
 40
0.0
 40
0.0
 40
0.0
 40
0.0
 40
1.0
 40
1.0
 40
1.0
 40
1.0
 10
91.32827294779941
 20
161.7742892061273
 30
0.0
 10
91.85416108814751
 20
163.231014446741
 30
0.0
 10
92.47187497688203
 20
166.0489327081832
 30
0.0
 10
92.60381386573786
 20
167.592194335478
 30
0.0
  0
LINE
  5
AF
330
70
100
AcDbEntity
  8
PIEZA
 62
    18
420
        0
370
     9
100
AcDbLine
 10
87.69557915158827
 20
164.8164682951815
 30
0.0
 11
87.58346637667072
 21
164.4912424701454
 31
0.0
  0
LINE
  5
B0
330
70
100
AcDbEntity
  8
PIEZA
 62
    18
420
        0
370
     9
100
AcDbLine
 10
91.86537710076342
 20
168.1044629335201
 30
0.0
 11
91.75252349253144
 21
170.5301628716353
 31
0.0
  0
LINE
  5
B1
330
70
100
AcDbEntity
  8
PIEZA
 62
    18
420
        0
370
     9
100
AcDbLine
 10
90.66543879804306
 20
165.6732638474706
 30
0.0
 11
90.55000991209901
 21
165.3380502263193
 31
0.0
  0
SPLINE
  5
B2
330
70
100
AcDbEntity
  8
PIEZA
 62
    18
420
        0
370
     9
100
AcDbSpline
210
0.0
220
0.0
230
1.0
 70
     8
 71
     3
 72
     8
 73
     4
 74
     0
 42
0.0000000001
 43
0.0000000001
 40
0.0
 40
0.0
 40
0.0
 40
0.0
 40
1.0
 40
1.0
 40
1.0
 40
1.0
 10
90.66543879804306
 20
165.6732638474706
 30
0.0
 10
90.09302159042443
 20
165.7182035499542
 30
0.0
 10
89.35786799806864
 20
165.3711407810307
 30
0.0
 10
89.02865578424531
 20
164.9007116263657
 30
0.0
  0
SPLINE
  5
B3
330
70
100
AcDbEntity
  8
PIEZA
 62
    18
420
        0
370
     9
100
AcDbSpline
210
0.0
220
0.0
230
1.0
 70
     8
 71
     3
 72
     8
 73
     4
 74
     0
 42
0.0000000001
 43
0.0000000001
 40
0.0
 40
0.0
 40
0.0
 40
0.0
 40
1.0
 40
1.0
 40
1.0
 40
1.0
 10
91.85193626777298
 20
173.0536880850326
 30
0.0
 10
92.25551403525464
 20
172.2213442173786
 30
0.0
 10
93.33314428553979
 20
171.2398459090853
 30
0.0
 10
94.19942775422789
 20
170.9156784173555
 30
0.0
  0
SPLINE
  5
B4
330
70
100
AcDbEntity
  8
PIEZA
 62
    18
420
        0
370
     9
100
AcDbSpline
210
0.0
220
0.0
230
1.0
 70
     8
 71
     3
 72
     8
 73
     4
 74
     0
 42
0.0000000001
 43
0.0000000001
 40
0.0
 40
0.0
 40
0.0
 40
0.0
 40
1.0
 40
1.0
 40
1.0
 40
1.0
 10
92.36646264353522
 20
169.0851145751682
 30
0.0
 10
92.30977125609264
 20
170.0981555130309
 30
0.0
 10
91.47453461073464
 20
171.1004986904181
 30
0.0
 10
90.48852074700105
 20
171.3390470176656
 30
0.0
  0
SPLINE
  5
B5
330
70
100
AcDbEntity
  8
PIEZA
 62
    18
420
        0
370
     9
100
AcDbSpline
210
0.0
220
0.0
230
1.0
 70
     8
 71
     3
 72
     8
 73
     4
 74
     0
 42
0.0000000001
 43
0.0000000001
 40
0.0
 40
0.0
 40
0.0
 40
0.0
 40
1.0
 40
1.0
 40
1.0
 40
1.0
 10
94.23265704036907
 20
177.0103729840891
 30
0.0
 10
94.54444442080832
 20
177.0920410375612
 30
0.0
 10
95.01469719846843
 20
177.3702063082424
 30
0.0
 10
95.23655673697968
 20
177.6039568578345
 30
0.0
  0
SPLINE
  5
B6
330
70
100
AcDbEntity
  8
PIEZA
 62
    18
420
        0
370
     9
100
AcDbSpline
210
0.0
220
0.0
230
1.0
 70
     8
 71
     3
 72
     8
 73
     4
 74
     0
 42
0.0000000001
 43
0.0000000001
 40
0.0
 40
0.0
 40
0.0
 40
0.0
 40
1.0
 40
1.0
 40
1.0
 40
1.0
 10
95.02778285341706
 20
177.8478674071673
 30
0.0
 10
94.95715674410778
 20
177.7128240772792
 30
0.0
 10
94.86984424633531
 20
177.448240750696
 30
0.0
 10
94.84589063583531
 20
177.2978868656429
 30
0.0
  0
SPLINE
  5
B7
330
70
100
AcDbEntity
  8
PIEZA
 62
    18
420
        0
370
     9
100
AcDbSpline
210
0.0
220
0.0
230
1.0
 70
     8
 71
     3
 72
    14
 73
    10
 74
     0
 42
0.0000000001
 43
0.0000000001
 40
0.0
 40
0.0
 40
0.0
 40
0.0
 40
1.0
 40
1.0
 40
1.0
 40
2.0
 40
2.0
 40
2.0
 40
3.0
 40
3.0
 40
3.0
 40
3.0
 10
95.6505061708634
 20
175.129538309851
 30
0.0
 10
96.38534226322729
 20
175.0154852572052
 30
0.0
 10
97.073470579005
 20
175.5186521888128
 30
0.0
 10
97.18770002053521
 20
176.2534882811767
 30
0.0
 10
97.30189418428855
 20
176.9883243735405
 30
0.0
 10
96.79872725268095
 20
177.6766643559795
 30
0.0
 10
96.06389116031706
 20
177.7906821308485
 30
0.0
 10
95.92334449723605
 20
177.8194687967807
 30
0.0
 10
95.6747772813553
 20
177.8087796303867
 30
0.0
 10
95.53733506263952
 20
177.768316020308
 30
0.0
  0
SPLINE
  5
B8
330
70
100
AcDbEntity
  8
PIEZA
 62
    18
420
        0
370
     9
100
AcDbSpline
210
0.0
220
0.0
230
1.0
 70
     8
 71
     3
 72
     8
 73
     4
 74
     0
 42
0.0000000001
 43
0.0000000001
 40
0.0
 40
0.0
 40
0.0
 40
0.0
 40
1.0
 40
1.0
 40
1.0
 40
1.0
 10
95.36556756702166
 20
175.2577024732479
 30
0.0
 10
95.39364867741637
 20
175.2180855298142
 30
0.0
 10
95.4535856203317
 20
175.1474638451019
 30
0.0
 10
95.48805200834129
 20
175.1131694213797
 30
0.0
  0
LINE
  5
B9
330
70
100
AcDbEntity
  8
PIEZA
 62
    18
420
        0
370
     9
100
AcDbLine
 10
93.80632510680127
 20
175.9541210665919
 30
0.0
 11
93.94584871435283
 21
176.358902733688
 31
0.0
  0
SPLINE
  5
BA
330
70
100
AcDbEntity
  8
PIEZA
 62
    18
420
        0
370
     9
100
AcDbSpline
210
0.0
220
0.0
230
1.0
 70
     8
 71
     3
 72
    11
 73
     7
 74
     0
 42
0.0000000001
 43
0.0000000001
 40
0.0
 40
0.0
 40
0.0
 40
0.0
 40
1.0
 40
1.0
 40
1.0
 40
2.0
 40
2.0
 40
2.0
 40
2.0
 10
95.6505061708634
 20
175.129538309851
 30
0.0
 10
94.97836108736636
 20
175.5264132997259
 30
0.0
 10
94.11190121011648
 20
175.3033519165278
 30
0.0
 10
93.715202609126
 20
174.6313808225601
 30
0.0
 10
93.70694997657334
 20
174.6175916230123
 30
0.0
 10
93.69142775435504
 20
174.5900352680593
 30
0.0
 10
93.68401942102334
 20
174.5758888795313
 30
0.0
  0
SPLINE
  5
BB
330
70
100
AcDbEntity
  8
PIEZA
 62
    18
420
        0
370
     9
100
AcDbSpline
210
0.0
220
0.0
230
1.0
 70
     8
 71
     3
 72
     8
 73
     4
 74
     0
 42
0.0000000001
 43
0.0000000001
 40
0.0
 40
0.0
 40
0.0
 40
0.0
 40
1.0
 40
1.0
 40
1.0
 40
1.0
 10
86.57180556914701
 20
180.1467790151838
 30
0.0
 10
86.64553612282155
 20
180.2801290117818
 30
0.0
 10
86.73958886720406
 20
180.5422781717605
 30
0.0
 10
86.7671386197192
 20
180.6921381679373
 30
0.0
  0
SPLINE
  5
BC
330
70
100
AcDbEntity
  8
PIEZA
 62
    18
420
        0
370
     9
100
AcDbSpline
210
0.0
220
0.0
230
1.0
 70
     8
 71
     3
 72
     8
 73
     4
 74
     0
 42
0.0000000001
 43
0.0000000001
 40
0.0
 40
0.0
 40
0.0
 40
0.0
 40
1.0
 40
1.0
 40
1.0
 40
1.0
 10
86.45242775616464
 20
180.628426502896
 30
0.0
 10
86.4434650168657
 20
180.7245277325966
 30
0.0
 10
86.38024724070074
 20
180.8709612189307
 30
0.0
 10
86.3165355756595
 20
180.9431395504226
 30
0.0
  0
SPLINE
  5
BD
330
70
100
AcDbEntity
  8
PIEZA
 62
    18
420
        0
370
     9
100
AcDbSpline
210
0.0
220
0.0
230
1.0
 70
     8
 71
     3
 72
     8
 73
     4
 74
     0
 42
0.0000000001
 43
0.0000000001
 40
0.0
 40
0.0
 40
0.0
 40
0.0
 40
1.0
 40
1.0
 40
1.0
 40
1.0
 10
86.45242775616464
 20
180.628426502896
 30
0.0
 10
86.48325834918381
 20
180.3078573444078
 30
0.0
 10
86.68271889965071
 20
179.799191621717
 30
0.0
 10
86.87808722799978
 20
179.5428587528134
 30
0.0
  0
LINE
  5
BE
330
70
100
AcDbEntity
  8
PIEZA
 62
    18
420
        0
370
     9
100
AcDbLine
 10
86.56355275613703
 20
178.4480129474119
 30
0.0
 11
86.70289997832425
 21
178.8528254370842
 31
0.0
  0
SPLINE
  5
BF
330
70
100
AcDbEntity
  8
PIEZA
 62
    18
420
        0
370
     9
100
AcDbSpline
210
0.0
220
0.0
230
1.0
 70
     8
 71
     3
 72
     8
 73
     4
 74
     0
 42
0.0000000001
 43
0.0000000001
 40
0.0
 40
0.0
 40
0.0
 40
0.0
 40
1.0
 40
1.0
 40
1.0
 40
1.0
 10
95.53733506263952
 20
177.768316020308
 30
0.0
 10
95.44257895394585
 20
177.7505712985384
 30
0.0
 10
95.30270256862548
 20
177.6740890782674
 30
0.0
 10
95.23655673697968
 20
177.6039568578345
 30
0.0
  0
LINE
  5
C0
330
70
100
AcDbEntity
  8
PIEZA
 62
    18
420
        0
370
     9
100
AcDbLine
 10
114.578550410191
 20
185.6918458181619
 30
0.0
 11
113.5188059927829
 21
174.4177738835652
 31
0.0
  0
LINE
  5
C1
330
70
100
AcDbEntity
  8
PIEZA
 62
    18
420
        0
370
     9
100
AcDbLine
 10
113.3372694161103
 20
174.2675611096196
 30
0.0
 11
113.171566834975
 21
174.2832597203302
 31
0.0
  0
SPLINE
  5
C2
330
70
100
AcDbEntity
  8
PIEZA
 62
    18
420
        0
370
     9
100
AcDbSpline
210
0.0
220
0.0
230
1.0
 70
     8
 71
     3
 72
    11
 73
     7
 74
     0
 42
0.0000000001
 43
0.0000000001
 40
0.0
 40
0.0
 40
0.0
 40
0.0
 40
1.0
 40
1.0
 40
1.0
 40
2.0
 40
2.0
 40
2.0
 40
2.0
 10
113.3372694161103
 20
174.2675611096196
 30
0.0
 10
113.4289182172983
 20
174.2589533320615
 30
0.0
 10
113.5101982152247
 20
174.3262986081211
 30
0.0
 10
113.5188059927829
 20
174.4177738835652
 30
0.0
 10
113.5188059927829
 20
174.4177738835652
 30
0.0
 10
113.5188059927829
 20
174.4177738835652
 30
0.0
 10
113.5188059927829
 20
174.4177738835652
 30
0.0
  0
LINE
  5
C3
330
70
100
AcDbEntity
  8
PIEZA
 62
    18
420
        0
370
     9
100
AcDbLine
 10
114.4283376362454
 20
185.8732441468673
 30
0.0
 11
114.26260552699
 21
185.8887310909167
 31
0.0
  0
SPLINE
  5
C4
330
70
100
AcDbEntity
  8
PIEZA
 62
    18
420
        0
370
     9
100
AcDbSpline
210
0.0
220
0.0
230
1.0
 70
     8
 71
     3
 72
    11
 73
     7
 74
     0
 42
0.0000000001
 43
0.0000000001
 40
0.0
 40
0.0
 40
0.0
 40
0.0
 40
1.0
 40
1.0
 40
1.0
 40
2.0
 40
2.0
 40
2.0
 40
2.0
 10
114.578550410191
 20
185.6918458181619
 30
0.0
 10
114.5871610824644
 20
185.7833210936059
 30
0.0
 10
114.519954022797
 20
185.8646363693092
 30
0.0
 10
114.4283376362454
 20
185.8732441468673
 30
0.0
 10
114.4283376362454
 20
185.8732441468673
 30
0.0
 10
114.4283376362454
 20
185.8732441468673
 30
0.0
 10
114.4283376362454
 20
185.8732441468673
 30
0.0
  0
SPLINE
  5
C5
330
70
100
AcDbEntity
  8
PIEZA
 62
    18
420
        0
370
     9
100
AcDbSpline
210
0.0
220
0.0
230
1.0
 70
     8
 71
     3
 72
     8
 73
     4
 74
     0
 42
0.0000000001
 43
0.0000000001
 40
0.0
 40
0.0
 40
0.0
 40
0.0
 40
1.0
 40
1.0
 40
1.0
 40
1.0
 10
114.26260552699
 20
185.8887310909167
 30
0.0
 10
113.6252743233999
 20
185.9187172012628
 30
0.0
 10
112.5087326852186
 20
185.7347435948453
 30
0.0
 10
111.9144432559358
 20
185.5018443980691
 30
0.0
  0
LINE
  5
C6
330
70
100
AcDbEntity
  8
PIEZA
 62
    18
420
        0
370
     9
100
AcDbLine
 10
123.2897976879485
 20
182.5059803438845
 30
0.0
 11
122.7237657579448
 21
176.0361110671021
 31
0.0
  0
LINE
  5
C7
330
70
100
AcDbEntity
  8
PIEZA
 62
    18
420
        0
370
     9
100
AcDbLine
 10
115.0532834536351
 20
183.895219197331
 30
0.0
 11
114.3711523599266
 21
176.0983013406914
 31
0.0
  0
LINE
  5
C8
330
70
100
AcDbEntity
  8
PIEZA
 62
    18
420
        0
370
     9
100
AcDbLine
 10
121.7908449484122
 20
183.3057628234804
 30
0.0
 11
118.0394767107843
 21
183.6339167039973
 31
0.0
  0
LINE
  5
C9
330
70
100
AcDbEntity
  8
PIEZA
 62
    18
420
        0
370
     9
100
AcDbLine
 10
121.1087138547037
 20
175.5088449668408
 30
0.0
 11
117.3573456170758
 21
175.8369635695809
 31
0.0
  0
LINE
  5
CA
330
70
100
AcDbEntity
  8
PIEZA
 62
    18
420
        0
370
     9
100
AcDbLine
 10
118.0394767107843
 20
183.6339167039973
 30
0.0
 11
117.3573456170758
 21
175.8369635695809
 31
0.0
  0
LINE
  5
CB
330
70
100
AcDbEntity
  8
PIEZA
 62
    18
420
        0
370
     9
100
AcDbLine
 10
117.5416749706147
 20
183.6774847584414
 30
0.0
 11
116.8595409075536
 21
175.8805669018018
 31
0.0
  0
LINE
  5
CC
330
70
100
AcDbEntity
  8
PIEZA
 62
    18
420
        0
370
     9
100
AcDbLine
 10
117.3866261718843
 20
176.1718555054815
 30
0.0
 11
116.8888214623621
 21
176.2152471710412
 31
0.0
  0
LINE
  5
CD
330
70
100
AcDbEntity
  8
PIEZA
 62
    18
420
        0
370
     9
100
AcDbLine
 10
117.9957322674558
 20
183.1347361611769
 30
0.0
 11
117.4978922801568
 21
183.178304215621
 31
0.0
  0
SPLINE
  5
CE
330
70
100
AcDbEntity
  8
PIEZA
 62
    18
420
        0
370
     9
100
AcDbSpline
210
0.0
220
0.0
230
1.0
 70
     8
 71
     3
 72
     8
 73
     4
 74
     0
 42
0.0000000001
 43
0.0000000001
 40
0.0
 40
0.0
 40
0.0
 40
0.0
 40
1.0
 40
1.0
 40
1.0
 40
1.0
 10
123.2897976879485
 20
182.5059803438845
 30
0.0
 10
123.0045415841149
 20
182.9655792210481
 30
0.0
 10
122.3317238235021
 20
183.3245658785562
 30
0.0
 10
121.7908449484122
 20
183.3057628234804
 30
0.0
  0
SPLINE
  5
CF
330
70
100
AcDbEntity
  8
PIEZA
 62
    18
420
        0
370
     9
100
AcDbSpline
210
0.0
220
0.0
230
1.0
 70
     8
 71
     3
 72
     8
 73
     4
 74
     0
 42
0.0000000001
 43
0.0000000001
 40
0.0
 40
0.0
 40
0.0
 40
0.0
 40
1.0
 40
1.0
 40
1.0
 40
1.0
 10
121.1087138547037
 20
175.5088449668408
 30
0.0
 10
121.6209824527458
 20
175.4366666353488
 30
0.0
 10
122.3530668785132
 20
175.6755721783033
 30
0.0
 10
122.7237657579448
 20
176.0361110671021
 30
0.0
  0
LINE
  5
D0
330
70
100
AcDbEntity
  8
PIEZA
 62
    18
420
        0
370
     9
100
AcDbLine
 10
116.8595409075536
 20
175.8805669018018
 30
0.0
 11
114.3711523599266
 21
176.0983013406914
 31
0.0
  0
LINE
  5
D1
330
70
100
AcDbEntity
  8
PIEZA
 62
    18
420
        0
370
     9
100
AcDbLine
 10
117.5416749706147
 20
183.6774847584414
 30
0.0
 11
115.0532834536351
 21
183.895219197331
 31
0.0
  0
LINE
  5
D2
330
70
100
AcDbEntity
  8
PIEZA
 62
    18
420
        0
370
     9
100
AcDbLine
 10
115.003647621568
 20
183.3255889340857
 30
0.0
 11
114.3614862490621
 21
183.3817511548751
 31
0.0
  0
LINE
  5
D3
330
70
100
AcDbEntity
  8
PIEZA
 62
    18
420
        0
370
     9
100
AcDbLine
 10
114.4235045808132
 20
176.6967182698689
 30
0.0
 11
113.7386218205082
 21
176.7566552127842
 31
0.0
  0
SPLINE
  5
D4
330
70
100
AcDbEntity
  8
PIEZA
 62
    18
420
        0
370
     9
100
AcDbSpline
210
0.0
220
0.0
230
1.0
 70
     8
 71
     3
 72
     8
 73
     4
 74
     0
 42
0.0000000001
 43
0.0000000001
 40
0.0
 40
0.0
 40
0.0
 40
0.0
 40
1.0
 40
1.0
 40
1.0
 40
1.0
 10
99.06991052807157
 20
184.3484327968796
 30
0.0
 10
95.43224256532067
 20
184.5726936244916
 30
0.0
 10
89.75386104352157
 20
182.9385211661828
 30
0.0
 10
86.79193889686429
 20
180.8149753870256
 30
0.0
  0
SPLINE
  5
D5
330
70
100
AcDbEntity
  8
PIEZA
 62
    18
420
        0
370
     9
100
AcDbSpline
210
0.0
220
0.0
230
1.0
 70
     8
 71
     3
 72
     8
 73
     4
 74
     0
 42
0.0000000001
 43
0.0000000001
 40
0.0
 40
0.0
 40
0.0
 40
0.0
 40
1.0
 40
1.0
 40
1.0
 40
1.0
 10
104.9527620446542
 20
184.4240683505056
 30
0.0
 10
103.4637929159743
 20
184.4762441825078
 30
0.0
 10
100.5570099345769
 20
184.4390261279017
 30
0.0
 10
99.06991052807157
 20
184.3484327968796
 30
0.0
  0
SPLINE
  5
D6
330
70
100
AcDbEntity
  8
PIEZA
 62
    18
420
        0
370
     9
100
AcDbSpline
210
0.0
220
0.0
230
1.0
 70
     8
 71
     3
 72
     8
 73
     4
 74
     0
 42
0.0000000001
 43
0.0000000001
 40
0.0
 40
0.0
 40
0.0
 40
0.0
 40
1.0
 40
1.0
 40
1.0
 40
1.0
 10
101.813604346963
 20
178.3186493396011
 30
0.0
 10
100.9226993696919
 20
178.334841839188
 30
0.0
 10
99.3851527422513
 20
178.019105736132
 30
0.0
 10
98.57277609631008
 20
177.6528916222533
 30
0.0
  0
SPLINE
  5
D7
330
70
100
AcDbEntity
  8
PIEZA
 62
    18
420
        0
370
     9
100
AcDbSpline
210
0.0
220
0.0
230
1.0
 70
     8
 71
     3
 72
     8
 73
     4
 74
     0
 42
0.0000000001
 43
0.0000000001
 40
0.0
 40
0.0
 40
0.0
 40
0.0
 40
1.0
 40
1.0
 40
1.0
 40
1.0
 10
108.1392977966922
 20
176.9051393756627
 30
0.0
 10
106.5704245033842
 20
177.8356612963676
 30
0.0
 10
103.6294926339691
 20
178.4928157240466
 30
0.0
 10
101.813604346963
 20
178.3186493396011
 30
0.0
  0
LINE
  5
D8
330
70
100
AcDbEntity
  8
PIEZA
 62
    18
420
        0
370
     9
100
AcDbLine
 10
113.171566834975
 20
174.2832597203302
 30
0.0
 11
108.1392977966922
 21
176.9051393756627
 31
0.0
  0
SPLINE
  5
D9
330
70
100
AcDbEntity
  8
PIEZA
 62
    18
420
        0
370
     9
100
AcDbSpline
210
0.0
220
0.0
230
1.0
 70
     8
 71
     3
 72
     8
 73
     4
 74
     0
 42
0.0000000001
 43
0.0000000001
 40
0.0
 40
0.0
 40
0.0
 40
0.0
 40
1.0
 40
1.0
 40
1.0
 40
1.0
 10
104.9527620446542
 20
184.4240683505056
 30
0.0
 10
106.846367274122
 20
184.2950222426867
 30
0.0
 10
110.1484730232117
 20
184.8063030629761
 30
0.0
 10
111.9144432559358
 20
185.5018443980691
 30
0.0
  0
SPLINE
  5
DA
330
70
100
AcDbEntity
  8
PIEZA
 62
    18
420
        0
370
     9
100
AcDbSpline
210
0.0
220
0.0
230
1.0
 70
     8
 71
     3
 72
     8
 73
     4
 74
     0
 42
0.0000000001
 43
0.0000000001
 40
0.0
 40
0.0
 40
0.0
 40
0.0
 40
1.0
 40
1.0
 40
1.0
 40
1.0
 10
95.15284257244875
 20
175.3085024719519
 30
0.0
 10
94.31224370500531
 20
174.4913280483553
 30
0.0
 10
93.32316067468338
 20
172.7680792034302
 30
0.0
 10
93.04167929297568
 20
171.6300181213534
 30
0.0
  0
SPLINE
  5
DB
330
70
100
AcDbEntity
  8
PIEZA
 62
    18
420
        0
370
     9
100
AcDbSpline
210
0.0
220
0.0
230
1.0
 70
     8
 71
     3
 72
     8
 73
     4
 74
     0
 42
0.0000000001
 43
0.0000000001
 40
0.0
 40
0.0
 40
0.0
 40
0.0
 40
1.0
 40
1.0
 40
1.0
 40
1.0
 10
79.73691268796411
 20
173.7411461230496
 30
0.0
 10
77.89774106821861
 20
171.1471711892274
 30
0.0
 10
76.2845588871521
 20
166.1133852065389
 30
0.0
 10
76.2733777587093
 20
162.9335522321077
 30
0.0
  0
SPLINE
  5
DC
330
70
100
AcDbEntity
  8
PIEZA
 62
    18
420
        0
370
     9
100
AcDbSpline
210
0.0
220
0.0
230
1.0
 70
     8
 71
     3
 72
     8
 73
     4
 74
     0
 42
0.0000000001
 43
0.0000000001
 40
0.0
 40
0.0
 40
0.0
 40
0.0
 40
1.0
 40
1.0
 40
1.0
 40
1.0
 10
84.1071942431356
 20
178.8211107156712
 30
0.0
 10
83.13910149005591
 20
178.0345971777135
 30
0.0
 10
81.55541153045922
 20
176.3442580010831
 30
0.0
 10
80.83331071554821
 20
175.3270938603665
 30
0.0
  0
LINE
  5
DD
330
70
100
AcDbEntity
  8
PIEZA
 62
   250
420
  2301728
370
     9
100
AcDbLine
 10
75.98759056139505
 20
139.3127522791689
 30
0.0
 11
78.65032188235201
 21
139.3127522791689
 31
0.0
  0
LINE
  5
DE
330
70
100
AcDbEntity
  8
PIEZA
 62
   250
420
  2301728
370
     9
100
AcDbLine
 10
75.98759056139505
 20
134.9857212784495
 30
0.0
 11
78.65032188235201
 21
134.9857212784495
 31
0.0
  0
SPLINE
  5
DF
330
70
100
AcDbEntity
  8
PIEZA
 62
   250
420
  2301728
370
     9
100
AcDbSpline
210
0.0
220
0.0
230
1.0
 70
     8
 71
     3
 72
    11
 73
     7
 74
     0
 42
0.0000000001
 43
0.0000000001
 40
0.0
 40
0.0
 40
0.0
 40
0.0
 40
1.0
 40
1.0
 40
1.0
 40
2.0
 40
2.0
 40
2.0
 40
2.0
 10
78.65032188235201
 20
134.9857212784495
 30
0.0
 10
78.74229104667235
 20
134.9857212784495
 30
0.0
 10
78.81690553585122
 20
135.0601573876616
 30
0.0
 10
78.81690553585122
 20
135.152126551982
 30
0.0
 10
78.81690553585122
 20
135.152126551982
 30
0.0
 10
78.81690553585122
 20
135.152126551982
 30
0.0
 10
78.81690553585122
 20
135.152126551982
 30
0.0
  0
SPLINE
  5
E0
330
70
100
AcDbEntity
  8
PIEZA
 62
   250
420
  2301728
370
     9
100
AcDbSpline
210
0.0
220
0.0
230
1.0
 70
     8
 71
     3
 72
    11
 73
     7
 74
     0
 42
0.0000000001
 43
0.0000000001
 40
0.0
 40
0.0
 40
0.0
 40
0.0
 40
1.0
 40
1.0
 40
1.0
 40
2.0
 40
2.0
 40
2.0
 40
2.0
 10
75.8212205656395
 20
135.152126551982
 30
0.0
 10
75.8212205656395
 20
135.0601573876616
 30
0.0
 10
75.89562139707472
 20
134.9857212784495
 30
0.0
 10
75.98759056139505
 20
134.9857212784495
 30
0.0
 10
75.98759056139505
 20
134.9857212784495
 30
0.0
 10
75.98759056139505
 20
134.9857212784495
 30
0.0
 10
75.98759056139505
 20
134.9857212784495
 30
0.0
  0
LINE
  5
E1
330
70
100
AcDbEntity
  8
PIEZA
 62
   250
420
  2301728
370
     9
100
AcDbLine
 10
76.48680831421167
 20
139.0516261747197
 30
0.0
 11
76.48680831421167
 21
135.2468860772995
 31
0.0
  0
LINE
  5
E2
330
70
100
AcDbEntity
  8
PIEZA
 62
   250
420
  2301728
370
     9
100
AcDbLine
 10
78.1511413395316
 20
139.0516261747197
 30
0.0
 11
78.1511413395316
 21
135.2468860772995
 31
0.0
  0
LINE
  5
E3
330
70
100
AcDbEntity
  8
PIEZA
 62
   250
420
  2301728
370
     9
100
AcDbLine
 10
75.8212205656395
 20
139.1463822834134
 30
0.0
 11
75.8212205656395
 21
135.152126551982
 31
0.0
  0
SPLINE
  5
E4
330
70
100
AcDbEntity
  8
PIEZA
 62
   250
420
  2301728
370
     9
100
AcDbSpline
210
0.0
220
0.0
230
1.0
 70
     8
 71
     3
 72
    11
 73
     7
 74
     0
 42
0.0000000001
 43
0.0000000001
 40
0.0
 40
0.0
 40
0.0
 40
0.0
 40
1.0
 40
1.0
 40
1.0
 40
2.0
 40
2.0
 40
2.0
 40
2.0
 10
75.98759056139505
 20
139.3127522791689
 30
0.0
 10
75.89562139707472
 20
139.3127522791689
 30
0.0
 10
75.8212205656395
 20
139.2383514477337
 30
0.0
 10
75.8212205656395
 20
139.1463822834134
 30
0.0
 10
75.8212205656395
 20
139.1463822834134
 30
0.0
 10
75.8212205656395
 20
139.1463822834134
 30
0.0
 10
75.8212205656395
 20
139.1463822834134
 30
0.0
  0
LINE
  5
E5
330
70
100
AcDbEntity
  8
PIEZA
 62
   250
420
  2301728
370
     9
100
AcDbLine
 10
78.81690553585122
 20
139.1463822834134
 30
0.0
 11
78.81690553585122
 21
135.152126551982
 31
0.0
  0
SPLINE
  5
E6
330
70
100
AcDbEntity
  8
PIEZA
 62
   250
420
  2301728
370
     9
100
AcDbSpline
210
0.0
220
0.0
230
1.0
 70
     8
 71
     3
 72
    11
 73
     7
 74
     0
 42
0.0000000001
 43
0.0000000001
 40
0.0
 40
0.0
 40
0.0
 40
0.0
 40
1.0
 40
1.0
 40
1.0
 40
2.0
 40
2.0
 40
2.0
 40
2.0
 10
78.81690553585122
 20
139.1463822834134
 30
0.0
 10
78.81690553585122
 20
139.2383514477337
 30
0.0
 10
78.74229104667235
 20
139.3127522791689
 30
0.0
 10
78.65032188235201
 20
139.3127522791689
 30
0.0
 10
78.65032188235201
 20
139.3127522791689
 30
0.0
 10
78.65032188235201
 20
139.3127522791689
 30
0.0
 10
78.65032188235201
 20
139.3127522791689
 30
0.0
  0
SPLINE
  5
E7
330
70
100
AcDbEntity
  8
PIEZA
 62
   250
420
  2301728
370
     9
100
AcDbSpline
210
0.0
220
0.0
230
1.0
 70
     8
 71
     3
 72
     8
 73
     4
 74
     0
 42
0.0000000001
 43
0.0000000001
 40
0.0
 40
0.0
 40
0.0
 40
0.0
 40
1.0
 40
1.0
 40
1.0
 40
1.0
 10
78.1511413395316
 20
139.0516261747197
 30
0.0
 10
77.68896718465599
 20
139.3999236658339
 30
0.0
 10
76.94894720298484
 20
139.3999236658339
 30
0.0
 10
76.48680831421167
 20
139.0516261747197
 30
0.0
  0
SPLINE
  5
E8
330
70
100
AcDbEntity
  8
PIEZA
 62
   250
420
  2301728
370
     9
100
AcDbSpline
210
0.0
220
0.0
230
1.0
 70
     8
 71
     3
 72
     8
 73
     4
 74
     0
 42
0.0000000001
 43
0.0000000001
 40
0.0
 40
0.0
 40
0.0
 40
0.0
 40
1.0
 40
1.0
 40
1.0
 40
1.0
 10
76.48680831421167
 20
139.0516261747197
 30
0.0
 10
76.34763555220954
 20
139.1425722835106
 30
0.0
 10
76.0709872259341
 20
139.2580011694546
 30
0.0
 10
75.90821556342008
 20
139.2927850574561
 30
0.0
  0
SPLINE
  5
E9
330
70
100
AcDbEntity
  8
PIEZA
 62
   250
420
  2301728
370
     9
100
AcDbSpline
210
0.0
220
0.0
230
1.0
 70
     8
 71
     3
 72
     8
 73
     4
 74
     0
 42
0.0000000001
 43
0.0000000001
 40
0.0
 40
0.0
 40
0.0
 40
0.0
 40
1.0
 40
1.0
 40
1.0
 40
1.0
 10
78.72973215810386
 20
139.2927850574561
 30
0.0
 10
78.56696049558985
 20
139.2580011694546
 30
0.0
 10
78.2903121693144
 20
139.1425722835106
 30
0.0
 10
78.1511413395316
 20
139.0516261747197
 30
0.0
  0
SPLINE
  5
EA
330
70
100
AcDbEntity
  8
PIEZA
 62
   250
420
  2301728
370
     9
100
AcDbSpline
210
0.0
220
0.0
230
1.0
 70
     8
 71
     3
 72
     8
 73
     4
 74
     0
 42
0.0000000001
 43
0.0000000001
 40
0.0
 40
0.0
 40
0.0
 40
0.0
 40
1.0
 40
1.0
 40
1.0
 40
1.0
 10
76.48680831421167
 20
135.2468860772995
 30
0.0
 10
76.94894720298484
 20
134.8985498917846
 30
0.0
 10
77.68896718465599
 20
134.8985498917846
 30
0.0
 10
78.1511413395316
 20
135.2468860772995
 30
0.0
  0
SPLINE
  5
EB
330
70
100
AcDbEntity
  8
PIEZA
 62
   250
420
  2301728
370
     9
100
AcDbSpline
210
0.0
220
0.0
230
1.0
 70
     8
 71
     3
 72
     8
 73
     4
 74
     0
 42
0.0000000001
 43
0.0000000001
 40
0.0
 40
0.0
 40
0.0
 40
0.0
 40
1.0
 40
1.0
 40
1.0
 40
1.0
 10
75.90821556342008
 20
135.0057237779392
 30
0.0
 10
76.0709872259341
 20
135.0405110773508
 30
0.0
 10
76.34763555220954
 20
135.155583774116
 30
0.0
 10
76.48680831421167
 20
135.2468860772995
 30
0.0
  0
SPLINE
  5
EC
330
70
100
AcDbEntity
  8
PIEZA
 62
   250
420
  2301728
370
     9
100
AcDbSpline
210
0.0
220
0.0
230
1.0
 70
     8
 71
     3
 72
     8
 73
     4
 74
     0
 42
0.0000000001
 43
0.0000000001
 40
0.0
 40
0.0
 40
0.0
 40
0.0
 40
1.0
 40
1.0
 40
1.0
 40
1.0
 10
78.1511413395316
 20
135.2468860772995
 30
0.0
 10
78.2903121693144
 20
135.155583774116
 30
0.0
 10
78.56696049558985
 20
135.0405110773508
 30
0.0
 10
78.72973215810386
 20
135.0057237779392
 30
0.0
  0
LINE
  5
ED
330
70
100
AcDbEntity
  8
PIEZA
 62
   250
420
  2301728
370
     9
100
AcDbLine
 10
76.3204011084599
 20
139.3127522791689
 30
0.0
 11
76.48680831421167
 21
139.4791610762412
 31
0.0
  0
LINE
  5
EE
330
70
100
AcDbEntity
  8
PIEZA
 62
   250
420
  2301728
370
     9
100
AcDbLine
 10
76.48680831421167
 20
139.4791610762412
 30
0.0
 11
76.3204011084599
 21
139.6455628262337
 31
0.0
  0
LINE
  5
EF
330
70
100
AcDbEntity
  8
PIEZA
 62
   250
420
  2301728
370
     9
100
AcDbLine
 10
76.3204011084599
 20
139.6455628262337
 30
0.0
 11
76.48680831421167
 21
139.8119680997662
 31
0.0
  0
LINE
  5
F0
330
70
100
AcDbEntity
  8
PIEZA
 62
   250
420
  2301728
370
     9
100
AcDbLine
 10
76.48680831421167
 20
139.8119680997662
 30
0.0
 11
76.3204011084599
 21
139.9783733732986
 31
0.0
  0
LINE
  5
F1
330
70
100
AcDbEntity
  8
PIEZA
 62
   250
420
  2301728
370
     9
100
AcDbLine
 10
76.3204011084599
 20
139.9783733732986
 30
0.0
 11
76.48680831421167
 21
140.1447433690542
 31
0.0
  0
LINE
  5
F2
330
70
100
AcDbEntity
  8
PIEZA
 62
   250
420
  2301728
370
     9
100
AcDbLine
 10
76.48680831421167
 20
140.1447433690542
 30
0.0
 11
76.3204011084599
 21
140.3115014203554
 31
0.0
  0
LINE
  5
F3
330
70
100
AcDbEntity
  8
PIEZA
 62
   250
420
  2301728
370
     9
100
AcDbLine
 10
76.3204011084599
 20
140.3115014203554
 30
0.0
 11
76.48680831421167
 21
140.4779066938878
 31
0.0
  0
LINE
  5
F4
330
70
100
AcDbEntity
  8
PIEZA
 62
   250
420
  2301728
370
     9
100
AcDbLine
 10
76.48680831421167
 20
140.4779066938878
 30
0.0
 11
76.3204011084599
 21
140.6443119674202
 31
0.0
  0
LINE
  5
F5
330
70
100
AcDbEntity
  8
PIEZA
 62
   250
420
  2301728
370
     9
100
AcDbLine
 10
76.3204011084599
 20
142.3641035902113
 30
0.0
 11
76.48680831421167
 21
142.5304735859669
 31
0.0
  0
LINE
  5
F6
330
70
100
AcDbEntity
  8
PIEZA
 62
   250
420
  2301728
370
     9
100
AcDbLine
 10
76.48680831421167
 20
142.5304735859669
 30
0.0
 11
76.3204011084599
 21
142.6968788594993
 31
0.0
  0
LINE
  5
F7
330
70
100
AcDbEntity
  8
PIEZA
 62
   250
420
  2301728
370
     9
100
AcDbLine
 10
76.3204011084599
 20
142.6968788594993
 30
0.0
 11
76.48680831421167
 21
142.8632841330317
 31
0.0
  0
LINE
  5
F8
330
70
100
AcDbEntity
  8
PIEZA
 62
   250
420
  2301728
370
     9
100
AcDbLine
 10
76.48680831421167
 20
142.8632841330317
 30
0.0
 11
76.3204011084599
 21
143.0300421843329
 31
0.0
  0
LINE
  5
F9
330
70
100
AcDbEntity
  8
PIEZA
 62
   250
420
  2301728
370
     9
100
AcDbLine
 10
76.3204011084599
 20
143.0300421843329
 30
0.0
 11
76.48680831421167
 21
143.1964121800885
 31
0.0
  0
LINE
  5
FA
330
70
100
AcDbEntity
  8
PIEZA
 62
   250
420
  2301728
370
     9
100
AcDbLine
 10
76.48680831421167
 20
143.1964121800885
 30
0.0
 11
76.3204011084599
 21
143.3628174536209
 31
0.0
  0
LINE
  5
FB
330
70
100
AcDbEntity
  8
PIEZA
 62
   250
420
  2301728
370
     9
100
AcDbLine
 10
76.3204011084599
 20
143.3628174536209
 30
0.0
 11
76.48680831421167
 21
143.5292227271533
 31
0.0
  0
LINE
  5
FC
330
70
100
AcDbEntity
  8
PIEZA
 62
    18
420
        0
370
     9
100
AcDbLine
 10
76.48680831421167
 20
143.5292227271533
 30
0.0
 11
76.3204011084599
 21
143.6956280006858
 31
0.0
  0
LINE
  5
FD
330
70
100
AcDbEntity
  8
PIEZA
 62
    18
420
        0
370
     9
100
AcDbLine
 10
76.42101332811529
 20
144.5379554791962
 30
0.0
 11
76.3204011084599
 21
144.6385360749514
 31
0.0
  0
LINE
  5
FE
330
70
100
AcDbEntity
  8
PIEZA
 62
    18
420
        0
370
     9
100
AcDbLine
 10
76.3204011084599
 20
144.6385360749514
 30
0.0
 11
76.48680831421167
 21
144.8049376946071
 31
0.0
  0
LINE
  5
FF
330
70
100
AcDbEntity
  8
PIEZA
 62
    18
420
        0
370
     9
100
AcDbLine
 10
76.48680831421167
 20
144.8049376946071
 30
0.0
 11
76.3204011084599
 21
144.9713429681395
 31
0.0
  0
LINE
  5
100
330
70
100
AcDbEntity
  8
PIEZA
 62
    18
420
        0
370
     9
100
AcDbLine
 10
76.3204011084599
 20
144.9713429681395
 30
0.0
 11
76.48680831421167
 21
145.137748241672
 31
0.0
  0
LINE
  5
101
330
70
100
AcDbEntity
  8
PIEZA
 62
    18
420
        0
370
     9
100
AcDbLine
 10
76.48680831421167
 20
145.137748241672
 30
0.0
 11
76.3204011084599
 21
145.3041182374275
 31
0.0
  0
LINE
  5
102
330
70
100
AcDbEntity
  8
PIEZA
 62
    18
420
        0
370
     9
100
AcDbLine
 10
76.3204011084599
 20
145.3041182374275
 30
0.0
 11
76.48680831421167
 21
145.47052351096
 31
0.0
  0
LINE
  5
103
330
70
100
AcDbEntity
  8
PIEZA
 62
    18
420
        0
370
     9
100
AcDbLine
 10
76.48680831421167
 20
145.47052351096
 30
0.0
 11
76.3204011084599
 21
145.6369287844924
 31
0.0
  0
LINE
  5
104
330
70
100
AcDbEntity
  8
PIEZA
 62
    18
420
        0
370
     9
100
AcDbLine
 10
76.3204011084599
 20
145.6369287844924
 30
0.0
 11
76.48680831421167
 21
145.8033340580248
 31
0.0
  0
LINE
  5
105
330
70
100
AcDbEntity
  8
PIEZA
 62
    18
420
        0
370
     9
100
AcDbLine
 10
76.48680831421167
 20
145.8033340580248
 30
0.0
 11
76.3204011084599
 21
145.9697393315572
 31
0.0
  0
LINE
  5
106
330
70
100
AcDbEntity
  8
PIEZA
 62
    18
420
        0
370
     9
100
AcDbLine
 10
76.3204011084599
 20
145.9697393315572
 30
0.0
 11
76.48680831421167
 21
146.1364621050816
 31
0.0
  0
LINE
  5
107
330
70
100
AcDbEntity
  8
PIEZA
 62
    18
420
        0
370
     9
100
AcDbLine
 10
76.48680831421167
 20
146.1364621050816
 30
0.0
 11
76.3204011084599
 21
146.302867378614
 31
0.0
  0
LINE
  5
108
330
70
100
AcDbEntity
  8
PIEZA
 62
    18
420
        0
370
     9
100
AcDbLine
 10
76.3204011084599
 20
146.302867378614
 30
0.0
 11
76.48680831421167
 21
146.4692726521464
 31
0.0
  0
LINE
  5
109
330
70
100
AcDbEntity
  8
PIEZA
 62
    18
420
        0
370
     9
100
AcDbLine
 10
76.48680831421167
 20
146.4692726521464
 30
0.0
 11
76.3204011084599
 21
146.6356779256788
 31
0.0
  0
LINE
  5
10A
330
70
100
AcDbEntity
  8
PIEZA
 62
    18
420
        0
370
     9
100
AcDbLine
 10
76.3204011084599
 20
146.6356779256788
 30
0.0
 11
76.32883249713369
 21
146.6439329254682
 31
0.0
  0
LINE
  5
10B
330
70
100
AcDbEntity
  8
PIEZA
 62
    18
420
        0
370
     9
100
AcDbLine
 10
76.32883249713369
 20
147.3098715195898
 30
0.0
 11
76.48680831421167
 21
147.4676690155641
 31
0.0
  0
LINE
  5
10C
330
70
100
AcDbEntity
  8
PIEZA
 62
    18
420
        0
370
     9
100
AcDbLine
 10
76.48680831421167
 20
147.4676690155641
 30
0.0
 11
76.3204011084599
 21
147.6340390113196
 31
0.0
  0
LINE
  5
10D
330
70
100
AcDbEntity
  8
PIEZA
 62
    18
420
        0
370
     9
100
AcDbLine
 10
76.3204011084599
 20
147.6340390113196
 30
0.0
 11
76.48680831421167
 21
147.8004442848521
 31
0.0
  0
LINE
  5
10E
330
70
100
AcDbEntity
  8
PIEZA
 62
    18
420
        0
370
     9
100
AcDbLine
 10
76.48680831421167
 20
147.8004442848521
 30
0.0
 11
76.3204011084599
 21
147.9668495583845
 31
0.0
  0
LINE
  5
10F
330
70
100
AcDbEntity
  8
PIEZA
 62
    18
420
        0
370
     9
100
AcDbLine
 10
76.3204011084599
 20
147.9668495583845
 30
0.0
 11
76.48680831421167
 21
148.1336076096857
 31
0.0
  0
LINE
  5
110
330
70
100
AcDbEntity
  8
PIEZA
 62
    18
420
        0
370
     9
100
AcDbLine
 10
76.48680831421167
 20
148.1336076096857
 30
0.0
 11
76.3204011084599
 21
148.2999776054412
 31
0.0
  0
LINE
  5
111
330
70
100
AcDbEntity
  8
PIEZA
 62
    18
420
        0
370
     9
100
AcDbLine
 10
76.3204011084599
 20
148.2999776054412
 30
0.0
 11
76.48680831421167
 21
148.4663828789737
 31
0.0
  0
LINE
  5
112
330
70
100
AcDbEntity
  8
PIEZA
 62
    18
420
        0
370
     9
100
AcDbLine
 10
76.48680831421167
 20
148.4663828789737
 30
0.0
 11
76.3204011084599
 21
148.6327881525061
 31
0.0
  0
LINE
  5
113
330
70
100
AcDbEntity
  8
PIEZA
 62
    18
420
        0
370
     9
100
AcDbLine
 10
76.3204011084599
 20
148.6327881525061
 30
0.0
 11
76.48680831421167
 21
148.7991971850223
 31
0.0
  0
LINE
  5
114
330
70
100
AcDbEntity
  8
PIEZA
 62
    18
420
        0
370
     9
100
AcDbLine
 10
76.48680831421167
 20
148.7991971850223
 30
0.0
 11
76.3204011084599
 21
148.9655634217941
 31
0.0
  0
LINE
  5
115
330
70
100
AcDbEntity
  8
PIEZA
 62
    18
420
        0
370
     9
100
AcDbLine
 10
76.3204011084599
 20
148.9655634217941
 30
0.0
 11
76.48680831421167
 21
149.1319686953265
 31
0.0
  0
LINE
  5
116
330
70
100
AcDbEntity
  8
PIEZA
 62
    18
420
        0
370
     9
100
AcDbLine
 10
76.48680831421167
 20
149.1319686953265
 30
0.0
 11
76.3204011084599
 21
149.298377740453
 31
0.0
  0
LINE
  5
117
330
70
100
AcDbEntity
  8
PIEZA
 62
    18
420
        0
370
     9
100
AcDbLine
 10
76.3204011084599
 20
149.298377740453
 30
0.0
 11
76.48680831421167
 21
149.4649556312757
 31
0.0
  0
LINE
  5
118
330
70
100
AcDbEntity
  8
PIEZA
 62
    18
420
        0
370
     9
100
AcDbLine
 10
76.48680831421167
 20
149.4649556312757
 30
0.0
 11
76.3204011084599
 21
149.6313609048081
 31
0.0
  0
LINE
  5
119
330
70
100
AcDbEntity
  8
PIEZA
 62
    18
420
        0
370
     9
100
AcDbLine
 10
76.3204011084599
 20
149.6313609048081
 30
0.0
 11
76.48680831421167
 21
149.7977309005637
 31
0.0
  0
LINE
  5
11A
330
70
100
AcDbEntity
  8
PIEZA
 62
    18
420
        0
370
     9
100
AcDbLine
 10
76.48680831421167
 20
149.7977309005637
 30
0.0
 11
76.3204011084599
 21
149.9641361740961
 31
0.0
  0
LINE
  5
11B
330
70
100
AcDbEntity
  8
PIEZA
 62
    18
420
        0
370
     9
100
AcDbLine
 10
76.3204011084599
 20
149.9641361740961
 30
0.0
 11
76.48680831421167
 21
150.1305414476285
 31
0.0
  0
LINE
  5
11C
330
70
100
AcDbEntity
  8
PIEZA
 62
    18
420
        0
370
     9
100
AcDbLine
 10
76.48680831421167
 20
150.1305414476285
 30
0.0
 11
76.3204011084599
 21
150.296946721161
 31
0.0
  0
LINE
  5
11D
330
70
100
AcDbEntity
  8
PIEZA
 62
    18
420
        0
370
     9
100
AcDbLine
 10
76.3204011084599
 20
150.296946721161
 30
0.0
 11
76.48680831421167
 21
150.4634931058009
 31
0.0
  0
LINE
  5
11E
330
70
100
AcDbEntity
  8
PIEZA
 62
    18
420
        0
370
     9
100
AcDbLine
 10
76.48680831421167
 20
150.4634931058009
 30
0.0
 11
76.3204011084599
 21
150.6298983793333
 31
0.0
  0
LINE
  5
11F
330
70
100
AcDbEntity
  8
PIEZA
 62
    18
420
        0
370
     9
100
AcDbLine
 10
76.3204011084599
 20
150.6298983793333
 30
0.0
 11
76.48680831421167
 21
150.7963036528658
 31
0.0
  0
LINE
  5
120
330
70
100
AcDbEntity
  8
PIEZA
 62
    18
420
        0
370
     9
100
AcDbLine
 10
76.48680831421167
 20
150.7963036528658
 30
0.0
 11
76.3204011084599
 21
150.9627089263982
 31
0.0
  0
LINE
  5
121
330
70
100
AcDbEntity
  8
PIEZA
 62
    18
420
        0
370
     9
100
AcDbLine
 10
76.3204011084599
 20
150.9627089263982
 30
0.0
 11
76.48680831421167
 21
151.1291141999306
 31
0.0
  0
LINE
  5
122
330
70
100
AcDbEntity
  8
PIEZA
 62
    18
420
        0
370
     9
100
AcDbLine
 10
76.48680831421167
 20
151.1291141999306
 30
0.0
 11
76.3204011084599
 21
151.2954841956862
 31
0.0
  0
LINE
  5
123
330
70
100
AcDbEntity
  8
PIEZA
 62
    18
420
        0
370
     9
100
AcDbLine
 10
76.3204011084599
 20
151.2954841956862
 30
0.0
 11
76.48680831421167
 21
151.462065858103
 31
0.0
  0
LINE
  5
124
330
70
100
AcDbEntity
  8
PIEZA
 62
    18
420
        0
370
     9
100
AcDbLine
 10
76.48680831421167
 20
151.462065858103
 30
0.0
 11
76.3204011084599
 21
151.6284749620929
 31
0.0
  0
LINE
  5
125
330
70
100
AcDbEntity
  8
PIEZA
 62
    18
420
        0
370
     9
100
AcDbLine
 10
76.3204011084599
 20
151.6284749620929
 30
0.0
 11
76.48680831421167
 21
151.7948764051678
 31
0.0
  0
LINE
  5
126
330
70
100
AcDbEntity
  8
PIEZA
 62
    18
420
        0
370
     9
100
AcDbLine
 10
76.48680831421167
 20
151.7948764051678
 30
0.0
 11
76.3204011084599
 21
151.9612464009234
 31
0.0
  0
LINE
  5
127
330
70
100
AcDbEntity
  8
PIEZA
 62
    18
420
        0
370
     9
100
AcDbLine
 10
76.3204011084599
 20
151.9612464009234
 30
0.0
 11
76.48680831421167
 21
152.1276555175236
 31
0.0
  0
LINE
  5
128
330
70
100
AcDbEntity
  8
PIEZA
 62
    18
420
        0
370
     9
100
AcDbLine
 10
76.48680831421167
 20
152.1276555175236
 30
0.0
 11
76.3204011084599
 21
152.2940569479882
 31
0.0
  0
LINE
  5
129
330
70
100
AcDbEntity
  8
PIEZA
 62
    18
420
        0
370
     9
100
AcDbLine
 10
76.3204011084599
 20
152.2940569479882
 30
0.0
 11
76.48680831421167
 21
152.460638610405
 31
0.0
  0
LINE
  5
12A
330
70
100
AcDbEntity
  8
PIEZA
 62
    18
420
        0
370
     9
100
AcDbLine
 10
76.48680831421167
 20
152.460638610405
 30
0.0
 11
76.3204011084599
 21
152.6270438839375
 31
0.0
  0
LINE
  5
12B
330
70
100
AcDbEntity
  8
PIEZA
 62
   250
420
  2301728
370
     9
100
AcDbLine
 10
78.31751133528716
 20
139.3127522791689
 30
0.0
 11
78.1511413395316
 21
139.4791610762412
 31
0.0
  0
LINE
  5
12C
330
70
100
AcDbEntity
  8
PIEZA
 62
   250
420
  2301728
370
     9
100
AcDbLine
 10
78.1511413395316
 20
139.4791610762412
 30
0.0
 11
78.31751133528716
 21
139.6455628262337
 31
0.0
  0
LINE
  5
12D
330
70
100
AcDbEntity
  8
PIEZA
 62
   250
420
  2301728
370
     9
100
AcDbLine
 10
78.31751133528716
 20
139.6455628262337
 30
0.0
 11
78.1511413395316
 21
139.8119680997662
 31
0.0
  0
LINE
  5
12E
330
70
100
AcDbEntity
  8
PIEZA
 62
   250
420
  2301728
370
     9
100
AcDbLine
 10
78.1511413395316
 20
139.8119680997662
 30
0.0
 11
78.31751133528716
 21
139.9783733732986
 31
0.0
  0
LINE
  5
12F
330
70
100
AcDbEntity
  8
PIEZA
 62
   250
420
  2301728
370
     9
100
AcDbLine
 10
78.31751133528716
 20
139.9783733732986
 30
0.0
 11
78.1511413395316
 21
140.1447433690542
 31
0.0
  0
LINE
  5
130
330
70
100
AcDbEntity
  8
PIEZA
 62
   250
420
  2301728
370
     9
100
AcDbLine
 10
78.1511413395316
 20
140.1447433690542
 30
0.0
 11
78.31751133528716
 21
140.3115014203554
 31
0.0
  0
LINE
  5
131
330
70
100
AcDbEntity
  8
PIEZA
 62
   250
420
  2301728
370
     9
100
AcDbLine
 10
78.31751133528716
 20
140.3115014203554
 30
0.0
 11
78.1511413395316
 21
140.4779066938878
 31
0.0
  0
LINE
  5
132
330
70
100
AcDbEntity
  8
PIEZA
 62
   250
420
  2301728
370
     9
100
AcDbLine
 10
78.1511413395316
 20
140.4779066938878
 30
0.0
 11
78.31751133528716
 21
140.6443119674202
 31
0.0
  0
LINE
  5
133
330
70
100
AcDbEntity
  8
PIEZA
 62
   250
420
  2301728
370
     9
100
AcDbLine
 10
78.31751133528716
 20
140.6443119674202
 30
0.0
 11
78.1511413395316
 21
140.8106819631757
 31
0.0
  0
LINE
  5
134
330
70
100
AcDbEntity
  8
PIEZA
 62
   250
420
  2301728
370
     9
100
AcDbLine
 10
78.1511413395316
 20
140.8106819631757
 30
0.0
 11
78.22141664711115
 21
140.8809905724931
 31
0.0
  0
LINE
  5
135
330
70
100
AcDbEntity
  8
PIEZA
 62
   250
420
  2301728
370
     9
100
AcDbLine
 10
78.31751133528716
 20
142.3641035902113
 30
0.0
 11
78.1511413395316
 21
142.5304735859669
 31
0.0
  0
LINE
  5
136
330
70
100
AcDbEntity
  8
PIEZA
 62
   250
420
  2301728
370
     9
100
AcDbLine
 10
78.1511413395316
 20
142.5304735859669
 30
0.0
 11
78.31751133528716
 21
142.6968788594993
 31
0.0
  0
LINE
  5
137
330
70
100
AcDbEntity
  8
PIEZA
 62
   250
420
  2301728
370
     9
100
AcDbLine
 10
78.31751133528716
 20
142.6968788594993
 30
0.0
 11
78.1511413395316
 21
142.8632841330317
 31
0.0
  0
LINE
  5
138
330
70
100
AcDbEntity
  8
PIEZA
 62
   250
420
  2301728
370
     9
100
AcDbLine
 10
78.1511413395316
 20
142.8632841330317
 30
0.0
 11
78.31751133528716
 21
143.0300421843329
 31
0.0
  0
LINE
  5
139
330
70
100
AcDbEntity
  8
PIEZA
 62
   250
420
  2301728
370
     9
100
AcDbLine
 10
78.31751133528716
 20
143.0300421843329
 30
0.0
 11
78.1511413395316
 21
143.1964121800885
 31
0.0
  0
LINE
  5
13A
330
70
100
AcDbEntity
  8
PIEZA
 62
   250
420
  2301728
370
     9
100
AcDbLine
 10
78.1511413395316
 20
143.1964121800885
 30
0.0
 11
78.31751133528716
 21
143.3628174536209
 31
0.0
  0
LINE
  5
13B
330
70
100
AcDbEntity
  8
PIEZA
 62
   250
420
  2301728
370
     9
100
AcDbLine
 10
78.31751133528716
 20
143.3628174536209
 30
0.0
 11
78.1511413395316
 21
143.5292227271533
 31
0.0
  0
LINE
  5
13C
330
70
100
AcDbEntity
  8
PIEZA
 62
    18
420
        0
370
     9
100
AcDbLine
 10
78.1511413395316
 20
143.5292227271533
 30
0.0
 11
78.31751133528716
 21
143.6956280006858
 31
0.0
  0
LINE
  5
13D
330
70
100
AcDbEntity
  8
PIEZA
 62
    18
420
        0
370
     9
100
AcDbLine
 10
78.21693439340865
 20
144.5379554791962
 30
0.0
 11
78.31751133528716
 21
144.6385360749514
 31
0.0
  0
LINE
  5
13E
330
70
100
AcDbEntity
  8
PIEZA
 62
    18
420
        0
370
     9
100
AcDbLine
 10
78.31751133528716
 20
144.6385360749514
 30
0.0
 11
78.1511413395316
 21
144.8049376946071
 31
0.0
  0
LINE
  5
13F
330
70
100
AcDbEntity
  8
PIEZA
 62
    18
420
        0
370
     9
100
AcDbLine
 10
78.1511413395316
 20
144.8049376946071
 30
0.0
 11
78.31751133528716
 21
144.9713429681395
 31
0.0
  0
LINE
  5
140
330
70
100
AcDbEntity
  8
PIEZA
 62
    18
420
        0
370
     9
100
AcDbLine
 10
78.31751133528716
 20
144.9713429681395
 30
0.0
 11
78.1511413395316
 21
145.137748241672
 31
0.0
  0
LINE
  5
141
330
70
100
AcDbEntity
  8
PIEZA
 62
    18
420
        0
370
     9
100
AcDbLine
 10
78.1511413395316
 20
145.137748241672
 30
0.0
 11
78.31751133528716
 21
145.3041182374275
 31
0.0
  0
LINE
  5
142
330
70
100
AcDbEntity
  8
PIEZA
 62
    18
420
        0
370
     9
100
AcDbLine
 10
78.31751133528716
 20
145.3041182374275
 30
0.0
 11
78.1511413395316
 21
145.47052351096
 31
0.0
  0
LINE
  5
143
330
70
100
AcDbEntity
  8
PIEZA
 62
    18
420
        0
370
     9
100
AcDbLine
 10
78.1511413395316
 20
145.47052351096
 30
0.0
 11
78.31751133528716
 21
145.6369287844924
 31
0.0
  0
LINE
  5
144
330
70
100
AcDbEntity
  8
PIEZA
 62
    18
420
        0
370
     9
100
AcDbLine
 10
78.31751133528716
 20
145.6369287844924
 30
0.0
 11
78.1511413395316
 21
145.8033340580248
 31
0.0
  0
LINE
  5
145
330
70
100
AcDbEntity
  8
PIEZA
 62
    18
420
        0
370
     9
100
AcDbLine
 10
78.1511413395316
 20
145.8033340580248
 30
0.0
 11
78.31751133528716
 21
145.9697393315572
 31
0.0
  0
LINE
  5
146
330
70
100
AcDbEntity
  8
PIEZA
 62
    18
420
        0
370
     9
100
AcDbLine
 10
78.31751133528716
 20
145.9697393315572
 30
0.0
 11
78.1511413395316
 21
146.1364621050816
 31
0.0
  0
LINE
  5
147
330
70
100
AcDbEntity
  8
PIEZA
 62
    18
420
        0
370
     9
100
AcDbLine
 10
78.1511413395316
 20
146.1364621050816
 30
0.0
 11
78.31751133528716
 21
146.302867378614
 31
0.0
  0
LINE
  5
148
330
70
100
AcDbEntity
  8
PIEZA
 62
    18
420
        0
370
     9
100
AcDbLine
 10
78.31751133528716
 20
146.302867378614
 30
0.0
 11
78.1511413395316
 21
146.4692726521464
 31
0.0
  0
LINE
  5
149
330
70
100
AcDbEntity
  8
PIEZA
 62
    18
420
        0
370
     9
100
AcDbLine
 10
78.1511413395316
 20
146.4692726521464
 30
0.0
 11
78.31751133528716
 21
146.6356779256788
 31
0.0
  0
LINE
  5
14A
330
70
100
AcDbEntity
  8
PIEZA
 62
    18
420
        0
370
     9
100
AcDbLine
 10
78.31751133528716
 20
146.6356779256788
 30
0.0
 11
78.30907994661338
 21
146.6439329254682
 31
0.0
  0
LINE
  5
14B
330
70
100
AcDbEntity
  8
PIEZA
 62
    18
420
        0
370
     9
100
AcDbLine
 10
78.30907994661338
 20
147.3098715195898
 30
0.0
 11
78.1511413395316
 21
147.4676690155641
 31
0.0
  0
LINE
  5
14C
330
70
100
AcDbEntity
  8
PIEZA
 62
    18
420
        0
370
     9
100
AcDbLine
 10
78.1511413395316
 20
147.4676690155641
 30
0.0
 11
78.31751133528716
 21
147.6340390113196
 31
0.0
  0
LINE
  5
14D
330
70
100
AcDbEntity
  8
PIEZA
 62
    18
420
        0
370
     9
100
AcDbLine
 10
78.31751133528716
 20
147.6340390113196
 30
0.0
 11
78.1511413395316
 21
147.8004442848521
 31
0.0
  0
LINE
  5
14E
330
70
100
AcDbEntity
  8
PIEZA
 62
    18
420
        0
370
     9
100
AcDbLine
 10
78.1511413395316
 20
147.8004442848521
 30
0.0
 11
78.31751133528716
 21
147.9668495583845
 31
0.0
  0
LINE
  5
14F
330
70
100
AcDbEntity
  8
PIEZA
 62
    18
420
        0
370
     9
100
AcDbLine
 10
78.31751133528716
 20
147.9668495583845
 30
0.0
 11
78.1511413395316
 21
148.1336076096857
 31
0.0
  0
LINE
  5
150
330
70
100
AcDbEntity
  8
PIEZA
 62
    18
420
        0
370
     9
100
AcDbLine
 10
78.1511413395316
 20
148.1336076096857
 30
0.0
 11
78.31751133528716
 21
148.2999776054412
 31
0.0
  0
LINE
  5
151
330
70
100
AcDbEntity
  8
PIEZA
 62
    18
420
        0
370
     9
100
AcDbLine
 10
78.31751133528716
 20
148.2999776054412
 30
0.0
 11
78.1511413395316
 21
148.4663828789737
 31
0.0
  0
LINE
  5
152
330
70
100
AcDbEntity
  8
PIEZA
 62
    18
420
        0
370
     9
100
AcDbLine
 10
78.1511413395316
 20
148.4663828789737
 30
0.0
 11
78.31751133528716
 21
148.6327881525061
 31
0.0
  0
LINE
  5
153
330
70
100
AcDbEntity
  8
PIEZA
 62
    18
420
        0
370
     9
100
AcDbLine
 10
78.31751133528716
 20
148.6327881525061
 30
0.0
 11
78.1511413395316
 21
148.7991971850223
 31
0.0
  0
LINE
  5
154
330
70
100
AcDbEntity
  8
PIEZA
 62
    18
420
        0
370
     9
100
AcDbLine
 10
78.1511413395316
 20
148.7991971850223
 30
0.0
 11
78.31751133528716
 21
148.9655634217941
 31
0.0
  0
LINE
  5
155
330
70
100
AcDbEntity
  8
PIEZA
 62
    18
420
        0
370
     9
100
AcDbLine
 10
78.31751133528716
 20
148.9655634217941
 30
0.0
 11
78.1511413395316
 21
149.1319686953265
 31
0.0
  0
LINE
  5
156
330
70
100
AcDbEntity
  8
PIEZA
 62
    18
420
        0
370
     9
100
AcDbLine
 10
78.1511413395316
 20
149.1319686953265
 30
0.0
 11
78.31751133528716
 21
149.298377740453
 31
0.0
  0
LINE
  5
157
330
70
100
AcDbEntity
  8
PIEZA
 62
    18
420
        0
370
     9
100
AcDbLine
 10
78.31751133528716
 20
149.298377740453
 30
0.0
 11
78.1511413395316
 21
149.4649556312757
 31
0.0
  0
LINE
  5
158
330
70
100
AcDbEntity
  8
PIEZA
 62
    18
420
        0
370
     9
100
AcDbLine
 10
78.1511413395316
 20
149.4649556312757
 30
0.0
 11
78.31751133528716
 21
149.6313609048081
 31
0.0
  0
LINE
  5
159
330
70
100
AcDbEntity
  8
PIEZA
 62
    18
420
        0
370
     9
100
AcDbLine
 10
78.31751133528716
 20
149.6313609048081
 30
0.0
 11
78.1511413395316
 21
149.7977309005637
 31
0.0
  0
LINE
  5
15A
330
70
100
AcDbEntity
  8
PIEZA
 62
    18
420
        0
370
     9
100
AcDbLine
 10
78.1511413395316
 20
149.7977309005637
 30
0.0
 11
78.31751133528716
 21
149.9641361740961
 31
0.0
  0
LINE
  5
15B
330
70
100
AcDbEntity
  8
PIEZA
 62
    18
420
        0
370
     9
100
AcDbLine
 10
78.31751133528716
 20
149.9641361740961
 30
0.0
 11
78.1511413395316
 21
150.1305414476285
 31
0.0
  0
LINE
  5
15C
330
70
100
AcDbEntity
  8
PIEZA
 62
    18
420
        0
370
     9
100
AcDbLine
 10
78.1511413395316
 20
150.1305414476285
 30
0.0
 11
78.31751133528716
 21
150.296946721161
 31
0.0
  0
LINE
  5
15D
330
70
100
AcDbEntity
  8
PIEZA
 62
    18
420
        0
370
     9
100
AcDbLine
 10
78.31751133528716
 20
150.296946721161
 30
0.0
 11
78.1511413395316
 21
150.4634931058009
 31
0.0
  0
LINE
  5
15E
330
70
100
AcDbEntity
  8
PIEZA
 62
    18
420
        0
370
     9
100
AcDbLine
 10
78.1511413395316
 20
150.4634931058009
 30
0.0
 11
78.31751133528716
 21
150.6298983793333
 31
0.0
  0
LINE
  5
15F
330
70
100
AcDbEntity
  8
PIEZA
 62
    18
420
        0
370
     9
100
AcDbLine
 10
78.31751133528716
 20
150.6298983793333
 30
0.0
 11
78.1511413395316
 21
150.7963036528658
 31
0.0
  0
LINE
  5
160
330
70
100
AcDbEntity
  8
PIEZA
 62
    18
420
        0
370
     9
100
AcDbLine
 10
78.1511413395316
 20
150.7963036528658
 30
0.0
 11
78.31751133528716
 21
150.9627089263982
 31
0.0
  0
LINE
  5
161
330
70
100
AcDbEntity
  8
PIEZA
 62
    18
420
        0
370
     9
100
AcDbLine
 10
78.31751133528716
 20
150.9627089263982
 30
0.0
 11
78.1511413395316
 21
151.1291141999306
 31
0.0
  0
LINE
  5
162
330
70
100
AcDbEntity
  8
PIEZA
 62
    18
420
        0
370
     9
100
AcDbLine
 10
78.1511413395316
 20
151.1291141999306
 30
0.0
 11
78.31751133528716
 21
151.2954841956862
 31
0.0
  0
LINE
  5
163
330
70
100
AcDbEntity
  8
PIEZA
 62
    18
420
        0
370
     9
100
AcDbLine
 10
78.31751133528716
 20
151.2954841956862
 30
0.0
 11
78.1511413395316
 21
151.462065858103
 31
0.0
  0
LINE
  5
164
330
70
100
AcDbEntity
  8
PIEZA
 62
    18
420
        0
370
     9
100
AcDbLine
 10
78.1511413395316
 20
151.462065858103
 30
0.0
 11
78.31751133528716
 21
151.6284749620929
 31
0.0
  0
LINE
  5
165
330
70
100
AcDbEntity
  8
PIEZA
 62
    18
420
        0
370
     9
100
AcDbLine
 10
78.31751133528716
 20
151.6284749620929
 30
0.0
 11
78.1511413395316
 21
151.7948764051678
 31
0.0
  0
LINE
  5
166
330
70
100
AcDbEntity
  8
PIEZA
 62
    18
420
        0
370
     9
100
AcDbLine
 10
78.1511413395316
 20
151.7948764051678
 30
0.0
 11
78.31751133528716
 21
151.9612464009234
 31
0.0
  0
LINE
  5
167
330
70
100
AcDbEntity
  8
PIEZA
 62
    18
420
        0
370
     9
100
AcDbLine
 10
78.31751133528716
 20
151.9612464009234
 30
0.0
 11
78.1511413395316
 21
152.1276555175236
 31
0.0
  0
LINE
  5
168
330
70
100
AcDbEntity
  8
PIEZA
 62
    18
420
        0
370
     9
100
AcDbLine
 10
78.1511413395316
 20
152.1276555175236
 30
0.0
 11
78.31751133528716
 21
152.2940569479882
 31
0.0
  0
LINE
  5
169
330
70
100
AcDbEntity
  8
PIEZA
 62
    18
420
        0
370
     9
100
AcDbLine
 10
78.31751133528716
 20
152.2940569479882
 30
0.0
 11
78.1511413395316
 21
152.460638610405
 31
0.0
  0
LINE
  5
16A
330
70
100
AcDbEntity
  8
PIEZA
 62
    18
420
        0
370
     9
100
AcDbLine
 10
78.1511413395316
 20
152.460638610405
 30
0.0
 11
78.31751133528716
 21
152.6270438839375
 31
0.0
  0
LINE
  5
16B
330
70
100
AcDbEntity
  8
PIEZA
 62
   250
420
  2301728
370
     9
100
AcDbLine
 10
80.44451433657835
 20
142.8832513547446
 30
0.0
 11
83.56853786798899
 21
142.8832513547446
 31
0.0
  0
LINE
  5
16C
330
70
100
AcDbEntity
  8
PIEZA
 62
    18
420
        0
370
     9
100
AcDbLine
 10
73.32471812933059
 20
147.3098715195898
 30
0.0
 11
88.30313302497717
 21
147.3098715195898
 31
0.0
  0
LINE
  5
16D
330
70
100
AcDbEntity
  8
PIEZA
 62
    18
420
        0
370
     9
100
AcDbLine
 10
88.30313302497717
 20
147.3098715195898
 30
0.0
 11
88.30313302497717
 21
146.6439329254682
 31
0.0
  0
LINE
  5
16E
330
70
100
AcDbEntity
  8
PIEZA
 62
    18
420
        0
370
     9
100
AcDbLine
 10
88.30313302497717
 20
146.6439329254682
 30
0.0
 11
73.32471812933059
 21
146.6439329254682
 31
0.0
  0
LINE
  5
16F
330
70
100
AcDbEntity
  8
PIEZA
 62
    18
420
        0
370
     9
100
AcDbLine
 10
73.32471812933059
 20
146.6439329254682
 30
0.0
 11
73.32471812933059
 21
147.3098715195898
 31
0.0
  0
LINE
  5
170
330
70
100
AcDbEntity
  8
PIEZA
 62
   250
420
  2301728
370
     9
100
AcDbLine
 10
80.44451433657835
 20
143.1698832918764
 30
0.0
 11
80.44451433657835
 21
142.8832513547446
 31
0.0
  0
LINE
  5
171
330
70
100
AcDbEntity
  8
PIEZA
 62
   250
420
  2301728
370
     9
100
AcDbLine
 10
80.44451433657835
 20
142.8832513547446
 30
0.0
 11
80.44451433657835
 21
141.7115705513033
 31
0.0
  0
LINE
  5
172
330
70
100
AcDbEntity
  8
PIEZA
 62
   250
420
  2301728
370
     9
100
AcDbLine
 10
80.44451433657835
 20
140.8695958505616
 30
0.0
 11
80.44451433657835
 21
126.2017665025469
 31
0.0
  0
LINE
  5
173
330
70
100
AcDbEntity
  8
PIEZA
 62
   250
420
  2301728
370
     9
100
AcDbLine
 10
80.44451433657835
 20
124.3124651618581
 30
0.0
 11
80.44451433657835
 21
107.8610999730346
 31
0.0
  0
LINE
  5
174
330
70
100
AcDbEntity
  8
PIEZA
 62
   250
420
  2301728
370
     9
100
AcDbLine
 10
84.77158061507457
 20
143.1698832918764
 30
0.0
 11
84.77158061507457
 21
142.8832513547446
 31
0.0
  0
LINE
  5
175
330
70
100
AcDbEntity
  8
PIEZA
 62
   250
420
  2301728
370
     9
100
AcDbLine
 10
84.77158061507457
 20
142.8832513547446
 30
0.0
 11
84.77158061507457
 21
141.7115705513033
 31
0.0
  0
LINE
  5
176
330
70
100
AcDbEntity
  8
PIEZA
 62
   250
420
  2301728
370
     9
100
AcDbLine
 10
84.77158061507457
 20
140.8695958505616
 30
0.0
 11
84.77158061507457
 21
129.2717092020039
 31
0.0
  0
LINE
  5
177
330
70
100
AcDbEntity
  8
PIEZA
 62
   250
420
  2301728
370
     9
100
AcDbLine
 10
84.77158061507457
 20
127.3824110792658
 30
0.0
 11
84.77158061507457
 21
107.8610999730346
 31
0.0
  0
LINE
  5
178
330
70
100
AcDbEntity
  8
PIEZA
 62
    18
420
        0
370
     9
100
AcDbLine
 10
80.27796795193841
 20
144.8342182494157
 30
0.0
 11
80.27796795193841
 21
144.5379554791962
 31
0.0
  0
LINE
  5
179
330
70
100
AcDbEntity
  8
PIEZA
 62
   250
420
  2301728
370
     9
100
AcDbLine
 10
80.27796795193841
 20
143.6956280006858
 30
0.0
 11
80.27796795193841
 21
143.1698832918764
 31
0.0
  0
LINE
  5
17A
330
70
100
AcDbEntity
  8
PIEZA
 62
    18
420
        0
370
     9
100
AcDbLine
 10
84.93795275654338
 20
144.8342182494157
 30
0.0
 11
84.93795275654338
 21
144.5379554791962
 31
0.0
  0
LINE
  5
17B
330
70
100
AcDbEntity
  8
PIEZA
 62
   250
420
  2301728
370
     9
100
AcDbLine
 10
84.93795275654338
 20
143.6956280006858
 30
0.0
 11
84.93795275654338
 21
143.1698832918764
 31
0.0
  0
LINE
  5
17C
330
70
100
AcDbEntity
  8
PIEZA
 62
    18
420
        0
370
     9
100
AcDbLine
 10
80.61091961011078
 20
147.6633195661282
 30
0.0
 11
80.61091961011078
 21
147.3098715195898
 31
0.0
  0
LINE
  5
17D
330
70
100
AcDbEntity
  8
PIEZA
 62
    18
420
        0
370
     9
100
AcDbLine
 10
80.61091961011078
 20
146.6439329254682
 30
0.0
 11
80.61091961011078
 21
145.7147868380616
 31
0.0
  0
LINE
  5
17E
330
70
100
AcDbEntity
  8
PIEZA
 62
    18
420
        0
370
     9
100
AcDbLine
 10
84.60517534154215
 20
147.6633195661282
 30
0.0
 11
84.60517534154215
 21
147.3098715195898
 31
0.0
  0
LINE
  5
17F
330
70
100
AcDbEntity
  8
PIEZA
 62
    18
420
        0
370
     9
100
AcDbLine
 10
84.60517534154215
 20
146.6439329254682
 30
0.0
 11
84.60517534154215
 21
145.7147868380616
 31
0.0
  0
LINE
  5
180
330
70
100
AcDbEntity
  8
PIEZA
 62
    18
420
        0
370
     9
100
AcDbLine
 10
81.77589763594527
 20
150.8254078187899
 30
0.0
 11
81.77589763594527
 21
148.8282975919627
 31
0.0
  0
LINE
  5
181
330
70
100
AcDbEntity
  8
PIEZA
 62
    18
420
        0
370
     9
100
AcDbLine
 10
81.44308708888042
 20
150.8254078187899
 30
0.0
 11
81.44308708888042
 21
148.8282975919627
 31
0.0
  0
LINE
  5
182
330
70
100
AcDbEntity
  8
PIEZA
 62
    18
420
        0
370
     9
100
AcDbLine
 10
83.44019731570766
 20
150.8254078187899
 30
0.0
 11
83.44019731570766
 21
148.8282975919627
 31
0.0
  0
LINE
  5
183
330
70
100
AcDbEntity
  8
PIEZA
 62
    18
420
        0
370
     9
100
AcDbLine
 10
83.77300786277251
 20
150.8254078187899
 30
0.0
 11
83.77300786277251
 21
148.8282975919627
 31
0.0
  0
LINE
  5
184
330
70
100
AcDbEntity
  8
PIEZA
 62
    18
420
        0
370
     9
100
AcDbLine
 10
80.7773248836432
 20
151.4911700240271
 30
0.0
 11
80.7773248836432
 21
148.8282975919627
 31
0.0
  0
LINE
  5
185
330
70
100
AcDbEntity
  8
PIEZA
 62
    18
420
        0
370
     9
100
AcDbLine
 10
84.43877220111263
 20
151.4911700240271
 30
0.0
 11
84.43877220111263
 21
148.8282975919627
 31
0.0
  0
LINE
  5
186
330
70
100
AcDbEntity
  8
PIEZA
 62
    18
420
        0
370
     9
100
AcDbLine
 10
80.94373015717563
 20
151.9903858446244
 30
0.0
 11
84.2723647944773
 21
151.9903858446244
 31
0.0
  0
LINE
  5
187
330
70
100
AcDbEntity
  8
PIEZA
 62
    18
420
        0
370
     9
100
AcDbLine
 10
80.7773248836432
 20
151.4911700240271
 30
0.0
 11
84.43877220111263
 21
151.4911700240271
 31
0.0
  0
LINE
  5
188
330
70
100
AcDbEntity
  8
PIEZA
 62
    18
420
        0
370
     9
100
AcDbLine
 10
80.7773248836432
 20
150.8254078187899
 30
0.0
 11
84.43877220111263
 21
150.8254078187899
 31
0.0
  0
LINE
  5
189
330
70
100
AcDbEntity
  8
PIEZA
 62
    18
420
        0
370
     9
100
AcDbLine
 10
80.7773248836432
 20
148.8282975919627
 30
0.0
 11
84.43877220111263
 21
148.8282975919627
 31
0.0
  0
LINE
  5
18A
330
70
100
AcDbEntity
  8
PIEZA
 62
    18
420
        0
370
     9
100
AcDbLine
 10
80.78681664647012
 20
147.8297248396606
 30
0.0
 11
84.42928034602962
 21
147.8297248396606
 31
0.0
  0
LINE
  5
18B
330
70
100
AcDbEntity
  8
PIEZA
 62
    18
420
        0
370
     9
100
AcDbLine
 10
80.94373015717563
 20
145.4998040657685
 30
0.0
 11
84.2723647944773
 21
145.4998040657685
 31
0.0
  0
SPLINE
  5
18C
330
70
100
AcDbEntity
  8
PIEZA
 62
    18
420
        0
370
     9
100
AcDbSpline
210
0.0
220
0.0
230
1.0
 70
     8
 71
     3
 72
     8
 73
     4
 74
     0
 42
0.0000000001
 43
0.0000000001
 40
0.0
 40
0.0
 40
0.0
 40
0.0
 40
1.0
 40
1.0
 40
1.0
 40
1.0
 10
84.93795275654338
 20
144.8342182494157
 30
0.0
 10
84.94641942320773
 20
144.974094634736
 30
0.0
 10
84.87042894588608
 20
145.1749310185012
 30
0.0
 10
84.77158061507457
 20
145.2745201826271
 30
0.0
  0
SPLINE
  5
18D
330
70
100
AcDbEntity
  8
PIEZA
 62
    18
420
        0
370
     9
100
AcDbSpline
210
0.0
220
0.0
230
1.0
 70
     8
 71
     3
 72
     8
 73
     4
 74
     0
 42
0.0000000001
 43
0.0000000001
 40
0.0
 40
0.0
 40
0.0
 40
0.0
 40
1.0
 40
1.0
 40
1.0
 40
1.0
 10
84.60517534154215
 20
145.7147868380616
 30
0.0
 10
84.59688506397588
 20
145.5745576749725
 30
0.0
 10
84.67269700648619
 20
145.3740777414345
 30
0.0
 10
84.77158061507457
 20
145.2745201826271
 30
0.0
  0
SPLINE
  5
18E
330
70
100
AcDbEntity
  8
PIEZA
 62
    18
420
        0
370
     9
100
AcDbSpline
210
0.0
220
0.0
230
1.0
 70
     8
 71
     3
 72
     8
 73
     4
 74
     0
 42
0.0000000001
 43
0.0000000001
 40
0.0
 40
0.0
 40
0.0
 40
0.0
 40
1.0
 40
1.0
 40
1.0
 40
1.0
 10
80.44451433657835
 20
145.2745201826271
 30
0.0
 10
80.34549164658036
 20
145.1749310185012
 30
0.0
 10
80.26967767437213
 20
144.974094634736
 30
0.0
 10
80.27796795193841
 20
144.8342182494157
 30
0.0
  0
SPLINE
  5
18F
330
70
100
AcDbEntity
  8
PIEZA
 62
    18
420
        0
370
     9
100
AcDbSpline
210
0.0
220
0.0
230
1.0
 70
     8
 71
     3
 72
     8
 73
     4
 74
     0
 42
0.0000000001
 43
0.0000000001
 40
0.0
 40
0.0
 40
0.0
 40
0.0
 40
1.0
 40
1.0
 40
1.0
 40
1.0
 10
80.44451433657835
 20
145.2745201826271
 30
0.0
 10
80.54339997986412
 20
145.3740777414345
 30
0.0
 10
80.61920988767704
 20
145.5745576749725
 30
0.0
 10
80.61091961011078
 20
145.7147868380616
 30
0.0
  0
LINE
  5
190
330
70
100
AcDbEntity
  8
PIEZA
 62
   250
420
  2301728
370
     9
100
AcDbLine
 10
80.27796795193841
 20
143.1698832918764
 30
0.0
 11
84.93795275654338
 21
143.1698832918764
 31
0.0
  0
SPLINE
  5
191
330
70
100
AcDbEntity
  8
PIEZA
 62
    18
420
        0
370
     9
100
AcDbSpline
210
0.0
220
0.0
230
1.0
 70
     8
 71
     3
 72
    14
 73
    10
 74
     0
 42
0.0000000001
 43
0.0000000001
 40
0.0
 40
0.0
 40
0.0
 40
0.0
 40
1.0
 40
1.0
 40
1.0
 40
2.0
 40
2.0
 40
2.0
 40
3.0
 40
3.0
 40
3.0
 40
3.0
 10
81.02691515505339
 20
151.9903858446244
 30
0.0
 10
80.88912220200008
 20
151.9903858446244
 30
0.0
 10
80.7773248836432
 20
151.8787669585831
 30
0.0
 10
80.7773248836432
 20
151.7407602954373
 30
0.0
 10
80.7773248836432
 20
151.6029652989528
 30
0.0
 10
80.88912220200008
 20
151.4911700240271
 30
0.0
 10
81.02691515505339
 20
151.4911700240271
 30
0.0
 10
81.02691515505339
 20
151.4911700240271
 30
0.0
 10
81.02691515505339
 20
151.4911700240271
 30
0.0
 10
81.02691515505339
 20
151.4911700240271
 30
0.0
  0
SPLINE
  5
192
330
70
100
AcDbEntity
  8
PIEZA
 62
    18
420
        0
370
     9
100
AcDbSpline
210
0.0
220
0.0
230
1.0
 70
     8
 71
     3
 72
    14
 73
    10
 74
     0
 42
0.0000000001
 43
0.0000000001
 40
0.0
 40
0.0
 40
0.0
 40
0.0
 40
1.0
 40
1.0
 40
1.0
 40
2.0
 40
2.0
 40
2.0
 40
3.0
 40
3.0
 40
3.0
 40
3.0
 10
84.18900553450821
 20
151.4911700240271
 30
0.0
 10
84.32697479308409
 20
151.4911700240271
 30
0.0
 10
84.43877220111263
 20
151.6029652989528
 30
0.0
 10
84.43877220111263
 20
151.7407602954373
 30
0.0
 10
84.43877220111263
 20
151.8787669585831
 30
0.0
 10
84.32697479308409
 20
151.9903858446244
 30
0.0
 10
84.18900553450821
 20
151.9903858446244
 30
0.0
 10
84.18900553450821
 20
151.9903858446244
 30
0.0
 10
84.18900553450821
 20
151.9903858446244
 30
0.0
 10
84.18900553450821
 20
151.9903858446244
 30
0.0
  0
SPLINE
  5
193
330
70
100
AcDbEntity
  8
PIEZA
 62
    18
420
        0
370
     9
100
AcDbSpline
210
0.0
220
0.0
230
1.0
 70
     8
 71
     3
 72
    11
 73
     7
 74
     0
 42
0.0000000001
 43
0.0000000001
 40
0.0
 40
0.0
 40
0.0
 40
0.0
 40
1.0
 40
1.0
 40
1.0
 40
2.0
 40
2.0
 40
2.0
 40
2.0
 10
80.7773248836432
 20
148.8282975919627
 30
0.0
 10
80.5015585017897
 20
148.8282975919627
 30
0.0
 10
80.27796795193841
 20
148.6048834309958
 30
0.0
 10
80.27796795193841
 20
148.3290817713654
 30
0.0
 10
80.27020684102529
 20
148.1876884416393
 30
0.0
 10
80.3599555354657
 20
148.0081951128852
 30
0.0
 10
80.47778331321396
 20
147.9296315037784
 30
0.0
  0
SPLINE
  5
194
330
70
100
AcDbEntity
  8
PIEZA
 62
    18
420
        0
370
     9
100
AcDbSpline
210
0.0
220
0.0
230
1.0
 70
     8
 71
     3
 72
     8
 73
     4
 74
     0
 42
0.0000000001
 43
0.0000000001
 40
0.0
 40
0.0
 40
0.0
 40
0.0
 40
1.0
 40
1.0
 40
1.0
 40
1.0
 10
80.61091961011078
 20
147.6633195661282
 30
0.0
 10
80.6161054433118
 20
147.7577228970531
 30
0.0
 10
80.55630961150399
 20
147.8772792828918
 30
0.0
 10
80.47778331321396
 20
147.9296315037784
 30
0.0
  0
SPLINE
  5
195
330
70
100
AcDbEntity
  8
PIEZA
 62
    18
420
        0
370
     9
100
AcDbSpline
210
0.0
220
0.0
230
1.0
 70
     8
 71
     3
 72
    11
 73
     7
 74
     0
 42
0.0000000001
 43
0.0000000001
 40
0.0
 40
0.0
 40
0.0
 40
0.0
 40
1.0
 40
1.0
 40
1.0
 40
2.0
 40
2.0
 40
2.0
 40
2.0
 10
84.73831367147885
 20
147.9296315037784
 30
0.0
 10
84.95897616584928
 20
148.0950137217814
 30
0.0
 10
85.00360255359964
 20
148.407998158241
 30
0.0
 10
84.83822033559668
 20
148.6286606526114
 30
0.0
 10
84.75951561538238
 20
148.7464884273831
 30
0.0
 10
84.5801986755127
 20
148.8361998139833
 30
0.0
 10
84.43877220111263
 20
148.8282975919627
 30
0.0
  0
SPLINE
  5
196
330
70
100
AcDbEntity
  8
PIEZA
 62
    18
420
        0
370
     9
100
AcDbSpline
210
0.0
220
0.0
230
1.0
 70
     8
 71
     3
 72
     8
 73
     4
 74
     0
 42
0.0000000001
 43
0.0000000001
 40
0.0
 40
0.0
 40
0.0
 40
0.0
 40
1.0
 40
1.0
 40
1.0
 40
1.0
 10
84.73831367147885
 20
147.9296315037784
 30
0.0
 10
84.65978534014894
 20
147.8772792828918
 30
0.0
 10
84.59999164551657
 20
147.7577228970531
 30
0.0
 10
84.60517534154215
 20
147.6633195661282
 30
0.0
  0
LINE
  5
197
330
70
100
AcDbEntity
  8
PIEZA
 62
    18
420
        0
370
     9
100
AcDbLine
 10
80.94373015717563
 20
152.1569360730718
 30
0.0
 11
84.2723647944773
 21
152.1569360730718
 31
0.0
  0
LINE
  5
198
330
70
100
AcDbEntity
  8
PIEZA
 62
    18
420
        0
370
     9
100
AcDbLine
 10
81.08099598700702
 20
152.6270438839375
 30
0.0
 11
80.94373015717563
 21
152.4897427763292
 31
0.0
  0
LINE
  5
199
330
70
100
AcDbEntity
  8
PIEZA
 62
    18
420
        0
370
     9
100
AcDbLine
 10
80.94373015717563
 20
152.4897427763292
 30
0.0
 11
81.11013543070805
 21
152.3233375027968
 31
0.0
  0
LINE
  5
19A
330
70
100
AcDbEntity
  8
PIEZA
 62
    18
420
        0
370
     9
100
AcDbLine
 10
81.11013543070805
 20
152.3233375027968
 30
0.0
 11
80.94373015717563
 21
152.1569360730718
 31
0.0
  0
LINE
  5
19B
330
70
100
AcDbEntity
  8
PIEZA
 62
    18
420
        0
370
     9
100
AcDbLine
 10
84.13509896464592
 20
152.6270438839375
 30
0.0
 11
84.2723647944773
 21
152.4897427763292
 31
0.0
  0
LINE
  5
19C
330
70
100
AcDbEntity
  8
PIEZA
 62
    18
420
        0
370
     9
100
AcDbLine
 10
84.2723647944773
 20
152.4897427763292
 30
0.0
 11
84.10581840983736
 21
152.3233375027968
 31
0.0
  0
LINE
  5
19D
330
70
100
AcDbEntity
  8
PIEZA
 62
    18
420
        0
370
     9
100
AcDbLine
 10
84.10581840983736
 20
152.3233375027968
 30
0.0
 11
84.2723647944773
 21
152.1569360730718
 31
0.0
  0
LINE
  5
19E
330
70
100
AcDbEntity
  8
PIEZA
 62
    18
420
        0
370
     9
100
AcDbLine
 10
80.94373015717563
 20
152.1569360730718
 30
0.0
 11
80.94373015717563
 21
151.9903858446244
 31
0.0
  0
LINE
  5
19F
330
70
100
AcDbEntity
  8
PIEZA
 62
    18
420
        0
370
     9
100
AcDbLine
 10
84.2723647944773
 20
152.1569360730718
 30
0.0
 11
84.2723647944773
 21
151.9903858446244
 31
0.0
  0
LINE
  5
1A0
330
70
100
AcDbEntity
  8
PIEZA
 62
   250
420
  2301728
370
     9
100
AcDbLine
 10
80.61575266554303
 20
107.8610999730346
 30
0.0
 11
80.44451433657835
 21
107.9830878006775
 31
0.0
  0
LINE
  5
1A1
330
70
100
AcDbEntity
  8
PIEZA
 62
   250
420
  2301728
370
     9
100
AcDbLine
 10
80.44451433657835
 20
107.8610999730346
 30
0.0
 11
84.77158061507457
 21
107.8610999730346
 31
0.0
  0
LINE
  5
1A2
330
70
100
AcDbEntity
  8
PIEZA
 62
   250
420
  2301728
370
     9
100
AcDbLine
 10
80.27796795193841
 20
106.1967975684717
 30
0.0
 11
80.27796795193841
 21
107.8610999730346
 31
0.0
  0
LINE
  5
1A3
330
70
100
AcDbEntity
  8
PIEZA
 62
   250
420
  2301728
370
     9
100
AcDbLine
 10
84.93795275654338
 20
106.1967975684717
 30
0.0
 11
84.93795275654338
 21
107.8610999730346
 31
0.0
  0
LINE
  5
1A4
330
70
100
AcDbEntity
  8
PIEZA
 62
    18
420
        0
370
     9
100
AcDbLine
 10
80.61091961011078
 20
103.3676609739824
 30
0.0
 11
80.61091961011078
 21
105.3162289798258
 31
0.0
  0
LINE
  5
1A5
330
70
100
AcDbEntity
  8
PIEZA
 62
    18
420
        0
370
     9
100
AcDbLine
 10
84.60517534154215
 20
103.3676609739824
 30
0.0
 11
84.60517534154215
 21
105.3162289798258
 31
0.0
  0
LINE
  5
1A6
330
70
100
AcDbEntity
  8
PIEZA
 62
    18
420
        0
370
     9
100
AcDbLine
 10
80.0283776805282
 20
98.8742246997306
 30
0.0
 11
85.1877525489016
 21
98.8742246997306
 31
0.0
  0
LINE
  5
1A7
330
70
100
AcDbEntity
  8
PIEZA
 62
    18
420
        0
370
     9
100
AcDbLine
 10
80.78681664647012
 20
103.2012909782268
 30
0.0
 11
84.42928034602962
 21
103.2012909782268
 31
0.0
  0
LINE
  5
1A8
330
70
100
AcDbEntity
  8
PIEZA
 62
    18
420
        0
370
     9
100
AcDbLine
 10
80.94373015717563
 20
105.5312117521189
 30
0.0
 11
84.2723647944773
 21
105.5312117521189
 31
0.0
  0
SPLINE
  5
1A9
330
70
100
AcDbEntity
  8
PIEZA
 62
    18
420
        0
370
     9
100
AcDbSpline
210
0.0
220
0.0
230
1.0
 70
     8
 71
     3
 72
     8
 73
     4
 74
     0
 42
0.0000000001
 43
0.0000000001
 40
0.0
 40
0.0
 40
0.0
 40
0.0
 40
1.0
 40
1.0
 40
1.0
 40
1.0
 10
84.77158061507457
 20
105.7564956352603
 30
0.0
 10
84.87042894588608
 20
105.8560847993863
 30
0.0
 10
84.94641942320773
 20
106.0569211831514
 30
0.0
 10
84.93795275654338
 20
106.1967975684717
 30
0.0
  0
SPLINE
  5
1AA
330
70
100
AcDbEntity
  8
PIEZA
 62
    18
420
        0
370
     9
100
AcDbSpline
210
0.0
220
0.0
230
1.0
 70
     8
 71
     3
 72
     8
 73
     4
 74
     0
 42
0.0000000001
 43
0.0000000001
 40
0.0
 40
0.0
 40
0.0
 40
0.0
 40
1.0
 40
1.0
 40
1.0
 40
1.0
 10
84.77158061507457
 20
105.7564956352603
 30
0.0
 10
84.67269700648619
 20
105.6569444180302
 30
0.0
 10
84.59688506397588
 20
105.456422865138
 30
0.0
 10
84.60517534154215
 20
105.3162289798258
 30
0.0
  0
SPLINE
  5
1AB
330
70
100
AcDbEntity
  8
PIEZA
 62
    18
420
        0
370
     9
100
AcDbSpline
210
0.0
220
0.0
230
1.0
 70
     8
 71
     3
 72
     8
 73
     4
 74
     0
 42
0.0000000001
 43
0.0000000001
 40
0.0
 40
0.0
 40
0.0
 40
0.0
 40
1.0
 40
1.0
 40
1.0
 40
1.0
 10
80.27796795193841
 20
106.1967975684717
 30
0.0
 10
80.26967767437213
 20
106.0569211831514
 30
0.0
 10
80.34549164658036
 20
105.8560847993863
 30
0.0
 10
80.44451433657835
 20
105.7564956352603
 30
0.0
  0
SPLINE
  5
1AC
330
70
100
AcDbEntity
  8
PIEZA
 62
    18
420
        0
370
     9
100
AcDbSpline
210
0.0
220
0.0
230
1.0
 70
     8
 71
     3
 72
     8
 73
     4
 74
     0
 42
0.0000000001
 43
0.0000000001
 40
0.0
 40
0.0
 40
0.0
 40
0.0
 40
1.0
 40
1.0
 40
1.0
 40
1.0
 10
80.61091961011078
 20
105.3162289798258
 30
0.0
 10
80.61920988767704
 20
105.456422865138
 30
0.0
 10
80.54339997986412
 20
105.6569444180302
 30
0.0
 10
80.44451433657835
 20
105.7564956352603
 30
0.0
  0
LINE
  5
1AD
330
70
100
AcDbEntity
  8
PIEZA
 62
   250
420
  2301728
370
     9
100
AcDbLine
 10
80.27796795193841
 20
107.8610999730346
 30
0.0
 11
84.93795275654338
 21
107.8610999730346
 31
0.0
  0
SPLINE
  5
1AE
330
70
100
AcDbEntity
  8
PIEZA
 62
    18
420
        0
370
     9
100
AcDbSpline
210
0.0
220
0.0
230
1.0
 70
     8
 71
     3
 72
    11
 73
     7
 74
     0
 42
0.0000000001
 43
0.0000000001
 40
0.0
 40
0.0
 40
0.0
 40
0.0
 40
1.0
 40
1.0
 40
1.0
 40
2.0
 40
2.0
 40
2.0
 40
2.0
 10
80.47778331321396
 20
103.101384314109
 30
0.0
 10
80.25711878580365
 20
102.936002096106
 30
0.0
 10
80.21249442439126
 20
102.6228412707621
 30
0.0
 10
80.37787461605624
 20
102.402355165276
 30
0.0
 10
80.45640294738616
 20
102.2845273905043
 30
0.0
 10
80.63589627614023
 20
102.1949571150116
 30
0.0
 10
80.7773248836432
 20
102.202544418894
 30
0.0
  0
SPLINE
  5
1AF
330
70
100
AcDbEntity
  8
PIEZA
 62
    18
420
        0
370
     9
100
AcDbSpline
210
0.0
220
0.0
230
1.0
 70
     8
 71
     3
 72
     8
 73
     4
 74
     0
 42
0.0000000001
 43
0.0000000001
 40
0.0
 40
0.0
 40
0.0
 40
0.0
 40
1.0
 40
1.0
 40
1.0
 40
1.0
 10
80.47778331321396
 20
103.101384314109
 30
0.0
 10
80.55630961150399
 20
103.1537365349956
 30
0.0
 10
80.6161054433118
 20
103.2732929208343
 30
0.0
 10
80.61091961011078
 20
103.3676609739824
 30
0.0
  0
SPLINE
  5
1B0
330
70
100
AcDbEntity
  8
PIEZA
 62
    18
420
        0
370
     9
100
AcDbSpline
210
0.0
220
0.0
230
1.0
 70
     8
 71
     3
 72
    11
 73
     7
 74
     0
 42
0.0000000001
 43
0.0000000001
 40
0.0
 40
0.0
 40
0.0
 40
0.0
 40
1.0
 40
1.0
 40
1.0
 40
2.0
 40
2.0
 40
2.0
 40
2.0
 10
84.43877220111263
 20
102.202544418894
 30
0.0
 10
84.71453644986324
 20
102.202544418894
 30
0.0
 10
84.93795275654338
 20
102.4261323868916
 30
0.0
 10
84.93795275654338
 20
102.7020777521022
 30
0.0
 10
84.94588811062762
 20
102.8433273762481
 30
0.0
 10
84.85614144625058
 20
103.0228207050022
 30
0.0
 10
84.73831367147885
 20
103.101384314109
 30
0.0
  0
SPLINE
  5
1B1
330
70
100
AcDbEntity
  8
PIEZA
 62
    18
420
        0
370
     9
100
AcDbSpline
210
0.0
220
0.0
230
1.0
 70
     8
 71
     3
 72
     8
 73
     4
 74
     0
 42
0.0000000001
 43
0.0000000001
 40
0.0
 40
0.0
 40
0.0
 40
0.0
 40
1.0
 40
1.0
 40
1.0
 40
1.0
 10
84.60517534154215
 20
103.3676609739824
 30
0.0
 10
84.59999164551657
 20
103.2732929208343
 30
0.0
 10
84.65978534014894
 20
103.1537365349956
 30
0.0
 10
84.73831367147885
 20
103.101384314109
 30
0.0
  0
LINE
  5
1B2
330
70
100
AcDbEntity
  8
PIEZA
 62
    18
420
        0
370
     9
100
AcDbLine
 10
80.94373015717563
 20
102.0361365635079
 30
0.0
 11
80.94373015717563
 21
99.04062997326303
 31
0.0
  0
LINE
  5
1B3
330
70
100
AcDbEntity
  8
PIEZA
 62
    18
420
        0
370
     9
100
AcDbLine
 10
84.2723647944773
 20
102.0361365635079
 30
0.0
 11
84.2723647944773
 21
99.04062997326303
 31
0.0
  0
LINE
  5
1B4
330
70
100
AcDbEntity
  8
PIEZA
 62
    18
420
        0
370
     9
100
AcDbLine
 10
79.11298992610392
 20
102.0361365635079
 30
0.0
 11
79.11298992610392
 21
99.04062997326303
 31
0.0
  0
LINE
  5
1B5
330
70
100
AcDbEntity
  8
PIEZA
 62
    18
420
        0
370
     9
100
AcDbLine
 10
86.10292863666462
 20
102.0361365635079
 30
0.0
 11
86.10292863666462
 21
99.04062997326303
 31
0.0
  0
SPLINE
  5
1B6
330
70
100
AcDbEntity
  8
PIEZA
 62
    18
420
        0
370
     9
100
AcDbSpline
210
0.0
220
0.0
230
1.0
 70
     8
 71
     3
 72
     8
 73
     4
 74
     0
 42
0.0000000001
 43
0.0000000001
 40
0.0
 40
0.0
 40
0.0
 40
0.0
 40
1.0
 40
1.0
 40
1.0
 40
1.0
 10
80.94373015717563
 20
99.04062997326303
 30
0.0
 10
81.82309930140773
 20
98.81876803447875
 30
0.0
 10
83.39299565024521
 20
98.81876803447875
 30
0.0
 10
84.2723647944773
 20
99.04062997326303
 30
0.0
  0
SPLINE
  5
1B7
330
70
100
AcDbEntity
  8
PIEZA
 62
    18
420
        0
370
     9
100
AcDbSpline
210
0.0
220
0.0
230
1.0
 70
     8
 71
     3
 72
     8
 73
     4
 74
     0
 42
0.0000000001
 43
0.0000000001
 40
0.0
 40
0.0
 40
0.0
 40
0.0
 40
1.0
 40
1.0
 40
1.0
 40
1.0
 10
79.11298992610392
 20
99.04062997326303
 30
0.0
 10
79.34381242021514
 20
98.94174636467464
 30
0.0
 10
79.77772907581168
 20
98.86286525557595
 30
0.0
 10
80.0283776805282
 20
98.8742246997306
 30
0.0
  0
SPLINE
  5
1B8
330
70
100
AcDbEntity
  8
PIEZA
 62
    18
420
        0
370
     9
100
AcDbSpline
210
0.0
220
0.0
230
1.0
 70
     8
 71
     3
 72
     8
 73
     4
 74
     0
 42
0.0000000001
 43
0.0000000001
 40
0.0
 40
0.0
 40
0.0
 40
0.0
 40
1.0
 40
1.0
 40
1.0
 40
1.0
 10
80.0283776805282
 20
98.8742246997306
 30
0.0
 10
80.27916942437469
 20
98.86286525557595
 30
0.0
 10
80.71308609093271
 20
98.94174636467464
 30
0.0
 10
80.94373015717563
 20
99.04062997326303
 30
0.0
  0
SPLINE
  5
1B9
330
70
100
AcDbEntity
  8
PIEZA
 62
    18
420
        0
370
     9
100
AcDbSpline
210
0.0
220
0.0
230
1.0
 70
     8
 71
     3
 72
     8
 73
     4
 74
     0
 42
0.0000000001
 43
0.0000000001
 40
0.0
 40
0.0
 40
0.0
 40
0.0
 40
1.0
 40
1.0
 40
1.0
 40
1.0
 10
84.2723647944773
 20
99.04062997326303
 30
0.0
 10
84.50301089970414
 20
98.94174636467464
 30
0.0
 10
84.93692755530068
 20
98.86286525557595
 30
0.0
 10
85.1877525489016
 20
98.8742246997306
 30
0.0
  0
SPLINE
  5
1BA
330
70
100
AcDbEntity
  8
PIEZA
 62
    18
420
        0
370
     9
100
AcDbSpline
210
0.0
220
0.0
230
1.0
 70
     8
 71
     3
 72
     8
 73
     4
 74
     0
 42
0.0000000001
 43
0.0000000001
 40
0.0
 40
0.0
 40
0.0
 40
0.0
 40
1.0
 40
1.0
 40
1.0
 40
1.0
 10
85.1877525489016
 20
98.8742246997306
 30
0.0
 10
85.43836587584124
 20
98.86286525557595
 30
0.0
 10
85.87228253143777
 20
98.94174636467464
 30
0.0
 10
86.10292863666462
 20
99.04062997326303
 30
0.0
  0
LINE
  5
1BB
330
70
100
AcDbEntity
  8
PIEZA
 62
    18
420
        0
370
     9
100
AcDbLine
 10
80.0283776805282
 20
102.202544418894
 30
0.0
 11
85.1877525489016
 21
102.202544418894
 31
0.0
  0
SPLINE
  5
1BC
330
70
100
AcDbEntity
  8
PIEZA
 62
    18
420
        0
370
     9
100
AcDbSpline
210
0.0
220
0.0
230
1.0
 70
     8
 71
     3
 72
     8
 73
     4
 74
     0
 42
0.0000000001
 43
0.0000000001
 40
0.0
 40
0.0
 40
0.0
 40
0.0
 40
1.0
 40
1.0
 40
1.0
 40
1.0
 10
84.2723647944773
 20
102.0361365635079
 30
0.0
 10
83.39299565024521
 20
102.2579985022922
 30
0.0
 10
81.82309930140773
 20
102.2579985022922
 30
0.0
 10
80.94373015717563
 20
102.0361365635079
 30
0.0
  0
SPLINE
  5
1BD
330
70
100
AcDbEntity
  8
PIEZA
 62
    18
420
        0
370
     9
100
AcDbSpline
210
0.0
220
0.0
230
1.0
 70
     8
 71
     3
 72
     8
 73
     4
 74
     0
 42
0.0000000001
 43
0.0000000001
 40
0.0
 40
0.0
 40
0.0
 40
0.0
 40
1.0
 40
1.0
 40
1.0
 40
1.0
 10
80.0283776805282
 20
102.202544418894
 30
0.0
 10
79.77772907581168
 20
102.213901281195
 30
0.0
 10
79.34381242021514
 20
102.1350201720963
 30
0.0
 10
79.11298992610392
 20
102.0361365635079
 30
0.0
  0
SPLINE
  5
1BE
330
70
100
AcDbEntity
  8
PIEZA
 62
    18
420
        0
370
     9
100
AcDbSpline
210
0.0
220
0.0
230
1.0
 70
     8
 71
     3
 72
     8
 73
     4
 74
     0
 42
0.0000000001
 43
0.0000000001
 40
0.0
 40
0.0
 40
0.0
 40
0.0
 40
1.0
 40
1.0
 40
1.0
 40
1.0
 10
80.94373015717563
 20
102.0361365635079
 30
0.0
 10
80.71308609093271
 20
102.1350201720963
 30
0.0
 10
80.27916942437469
 20
102.213901281195
 30
0.0
 10
80.0283776805282
 20
102.202544418894
 30
0.0
  0
SPLINE
  5
1BF
330
70
100
AcDbEntity
  8
PIEZA
 62
    18
420
        0
370
     9
100
AcDbSpline
210
0.0
220
0.0
230
1.0
 70
     8
 71
     3
 72
     8
 73
     4
 74
     0
 42
0.0000000001
 43
0.0000000001
 40
0.0
 40
0.0
 40
0.0
 40
0.0
 40
1.0
 40
1.0
 40
1.0
 40
1.0
 10
85.1877525489016
 20
102.202544418894
 30
0.0
 10
84.93692755530068
 20
102.213901281195
 30
0.0
 10
84.50301089970414
 20
102.1350201720963
 30
0.0
 10
84.2723647944773
 20
102.0361365635079
 30
0.0
  0
SPLINE
  5
1C0
330
70
100
AcDbEntity
  8
PIEZA
 62
    18
420
        0
370
     9
100
AcDbSpline
210
0.0
220
0.0
230
1.0
 70
     8
 71
     3
 72
     8
 73
     4
 74
     0
 42
0.0000000001
 43
0.0000000001
 40
0.0
 40
0.0
 40
0.0
 40
0.0
 40
1.0
 40
1.0
 40
1.0
 40
1.0
 10
86.10292863666462
 20
102.0361365635079
 30
0.0
 10
85.87228253143777
 20
102.1350201720963
 30
0.0
 10
85.43836587584124
 20
102.213901281195
 30
0.0
 10
85.1877525489016
 20
102.202544418894
 30
0.0
  0
LINE
  5
1C1
330
70
100
AcDbEntity
  8
PIEZA
 62
    18
420
        0
370
     9
100
AcDbLine
 10
81.11013543070805
 20
152.3233375027968
 30
0.0
 11
83.84328331237258
 21
152.6270438839375
 31
0.0
  0
LINE
  5
1C2
330
70
100
AcDbEntity
  8
PIEZA
 62
    18
420
        0
370
     9
100
AcDbLine
 10
82.60806511471491
 20
152.1569360730718
 30
0.0
 11
84.10581840983736
 21
152.3233375027968
 31
0.0
  0
LINE
  5
1C3
330
70
100
AcDbEntity
  8
PIEZA
 62
   250
420
  2301728
370
     9
100
AcDbLine
 10
73.30182285213692
 20
141.7115705513033
 30
0.0
 11
73.30182285213692
 21
140.8695958505616
 31
0.0
  0
LINE
  5
1C4
330
70
100
AcDbEntity
  8
PIEZA
 62
   250
420
  2301728
370
     9
100
AcDbLine
 10
81.03502904373529
 20
140.8695958505616
 30
0.0
 11
81.03502904373529
 21
141.7115705513033
 31
0.0
  0
LINE
  5
1C5
330
70
100
AcDbEntity
  8
PIEZA
 62
   250
420
  2301728
370
     9
100
AcDbLine
 10
86.76611556418976
 20
140.8695958505616
 30
0.0
 11
86.76611556418976
 21
141.7115705513033
 31
0.0
  0
LINE
  5
1C6
330
70
100
AcDbEntity
  8
PIEZA
 62
   250
420
  2301728
370
     9
100
AcDbLine
 10
80.27553378533385
 20
141.7115705513033
 30
0.0
 11
80.27553378533385
 21
140.8695958505616
 31
0.0
  0
LWPOLYLINE
  5
1C7
330
70
100
AcDbEntity
  8
PIEZA
 62
   250
420
  2301728
370
     9
100
AcDbPolyline
 90
       14
 70
     0
 43
0.0
 10
80.27553378533385
 20
140.8695958505616
 10
79.43581686231237
 20
140.8695958505616
 10
78.60777688343742
 20
140.8695958505616
 10
77.80404329283126
 20
140.8695958505616
 10
77.03594025687166
 20
140.8695958505616
 10
76.31525055303575
 20
140.8695958505616
 10
75.65206362551062
 20
140.8695958505616
 10
75.05622197404514
 20
140.8695958505616
 10
74.53654504285876
 20
140.8695958505616
 10
74.10054699842643
 20
140.8695958505616
 10
73.75482478502433
 20
140.8695958505616
 10
73.50421145808467
 20
140.8695958505616
 10
73.35244646195651
 20
140.8695958505616
 10
73.30182285213692
 20
140.8695958505616
  0
LWPOLYLINE
  5
1C8
330
70
100
AcDbEntity
  8
PIEZA
 62
   250
420
  2301728
370
     9
100
AcDbPolyline
 90
       14
 70
     0
 43
0.0
 10
80.27553378533385
 20
141.7115705513033
 10
79.43581686231237
 20
141.7115705513033
 10
78.60777688343742
 20
141.7115705513033
 10
77.80404329283126
 20
141.7115705513033
 10
77.03611664575603
 20
141.7115705513033
 10
76.31525055303575
 20
141.7115705513033
 10
75.65206362551062
 20
141.711923329072
 10
75.05622197404514
 20
141.7115705513033
 10
74.53654504285876
 20
141.7115705513033
 10
74.10054699842643
 20
141.7115705513033
 10
73.75482478502433
 20
141.7115705513033
 10
73.50421145808467
 20
141.7115705513033
 10
73.35244646195651
 20
141.7115705513033
 10
73.30182285213692
 20
141.7115705513033
  0
LWPOLYLINE
  5
1C9
330
70
100
AcDbEntity
  8
PIEZA
 62
   250
420
  2301728
370
     9
100
AcDbPolyline
 90
        6
 70
     0
 43
0.0
 10
80.27553378533385
 20
140.8695958505616
 10
80.57888738870577
 20
140.8695958505616
 10
80.82004627144218
 20
140.8695958505616
 10
80.97696386864472
 20
140.8695958505616
 10
81.03485265485089
 20
140.8695958505616
 10
81.03502904373529
 20
140.8695958505616
  0
LWPOLYLINE
  5
1CA
330
70
100
AcDbEntity
  8
PIEZA
 62
   250
420
  2301728
370
     9
100
AcDbPolyline
 90
        6
 70
     0
 43
0.0
 10
80.27553378533385
 20
141.7115705513033
 10
80.57888738870577
 20
141.7115705513033
 10
80.82004627144218
 20
141.7115705513033
 10
80.97696386864472
 20
141.7115705513033
 10
81.03485265485089
 20
141.7115705513033
 10
81.03502904373529
 20
141.7115705513033
  0
LINE
  5
1CB
330
70
100
AcDbEntity
  8
PIEZA
 62
   250
420
  2301728
370
     9
100
AcDbLine
 10
84.61586664551262
 20
141.7115705513033
 30
0.0
 11
84.61586664551262
 21
140.8695958505616
 31
0.0
  0
LWPOLYLINE
  5
1CC
330
70
100
AcDbEntity
  8
PIEZA
 62
   250
420
  2301728
370
     9
100
AcDbPolyline
 90
       10
 70
     0
 43
0.0
 10
84.61586664551262
 20
140.8695958505616
 10
84.80050839211434
 20
140.8695958505616
 10
85.06318886762302
 20
140.8695958505616
 10
85.37998331198831
 20
140.8695958505616
 10
85.72122309084717
 20
140.8695958505616
 10
86.05502141566461
 20
140.8695958505616
 10
86.35061390812342
 20
140.8695958505616
 10
86.58058973558958
 20
140.8695958505616
 10
86.72321778750639
 20
140.8695958505616
 10
86.76611556418976
 20
140.8695958505616
  0
LWPOLYLINE
  5
1CD
330
70
100
AcDbEntity
  8
PIEZA
 62
   250
420
  2301728
370
     9
100
AcDbPolyline
 90
       10
 70
     0
 43
0.0
 10
84.61586664551262
 20
141.7115705513033
 10
84.80050839211434
 20
141.7115705513033
 10
85.06318886762302
 20
141.7115705513033
 10
85.37998331198831
 20
141.7115705513033
 10
85.72122309084717
 20
141.7115705513033
 10
86.05502141566461
 20
141.7115705513033
 10
86.35061390812342
 20
141.7115705513033
 10
86.58058973558958
 20
141.7115705513033
 10
86.72321778750639
 20
141.7115705513033
 10
86.76611556418976
 20
141.7115705513033
  0
LWPOLYLINE
  5
1CE
330
70
100
AcDbEntity
  8
PIEZA
 62
   250
420
  2301728
370
     9
100
AcDbPolyline
 90
        7
 70
     0
 43
0.0
 10
83.56853786798899
 20
142.8832513547446
 10
83.71307091985718
 20
142.8832513547446
 10
83.93009980320922
 20
142.8832513547446
 10
84.12973886785648
 20
142.8832513547446
 10
84.31113507126596
 20
142.8832513547446
 10
84.47337756712682
 20
142.8832513547446
 10
84.77158061507457
 20
142.8832513547446
  0
LINE
  5
1CF
330
70
100
AcDbEntity
  8
PIEZA
 62
   250
420
  2301728
370
     9
100
AcDbLine
 10
76.3204011084599
 20
140.6443119674202
 30
0.0
 11
76.48680831421167
 21
140.8106819631757
 31
0.0
  0
LINE
  5
1D0
330
70
100
AcDbEntity
  8
PIEZA
 62
   250
420
  2301728
370
     9
100
AcDbLine
 10
76.48680831421167
 20
140.8106819631757
 30
0.0
 11
76.42789442533739
 21
140.8695958505616
 31
0.0
  0
LINE
  5
1D1
330
70
100
AcDbEntity
  8
PIEZA
 62
    18
420
        0
370
     9
100
AcDbLine
 10
73.30182285213692
 20
144.5379554791962
 30
0.0
 11
73.30182285213692
 21
143.6956280006858
 31
0.0
  0
LINE
  5
1D2
330
70
100
AcDbEntity
  8
PIEZA
 62
    18
420
        0
370
     9
100
AcDbLine
 10
81.03502904373529
 20
143.6956280006858
 30
0.0
 11
81.03502904373529
 21
144.5379554791962
 31
0.0
  0
LINE
  5
1D3
330
70
100
AcDbEntity
  8
PIEZA
 62
    18
420
        0
370
     9
100
AcDbLine
 10
86.76611556418976
 20
143.6956280006858
 30
0.0
 11
86.76611556418976
 21
144.5379554791962
 31
0.0
  0
LINE
  5
1D4
330
70
100
AcDbEntity
  8
PIEZA
 62
    18
420
        0
370
     9
100
AcDbLine
 10
80.27553378533385
 20
144.5379554791962
 30
0.0
 11
80.27553378533385
 21
143.6956280006858
 31
0.0
  0
LWPOLYLINE
  5
1D5
330
70
100
AcDbEntity
  8
PIEZA
 62
    18
420
        0
370
     9
100
AcDbPolyline
 90
       14
 70
     0
 43
0.0
 10
80.27553378533385
 20
143.6956280006858
 10
79.43581686231237
 20
143.6956280006858
 10
78.60777688343742
 20
143.6956280006858
 10
77.80404329283126
 20
143.6956280006858
 10
77.03594025687166
 20
143.6956280006858
 10
76.31525055303575
 20
143.6956280006858
 10
75.65206362551062
 20
143.6956280006858
 10
75.05622197404514
 20
143.6956280006858
 10
74.53654504285876
 20
143.6956280006858
 10
74.10054699842643
 20
143.6956280006858
 10
73.75482478502433
 20
143.6956280006858
 10
73.50421145808467
 20
143.6956280006858
 10
73.35244646195651
 20
143.6956280006858
 10
73.30182285213692
 20
143.6956280006858
  0
LWPOLYLINE
  5
1D6
330
70
100
AcDbEntity
  8
PIEZA
 62
    18
420
        0
370
     9
100
AcDbPolyline
 90
       14
 70
     0
 43
0.0
 10
80.27553378533385
 20
144.5379554791962
 10
79.43581686231237
 20
144.5379554791962
 10
78.60777688343742
 20
144.5379554791962
 10
77.80404329283126
 20
144.5379554791962
 10
77.03611664575603
 20
144.5379554791962
 10
76.31525055303575
 20
144.5379554791962
 10
75.65206362551062
 20
144.5379554791962
 10
75.05622197404514
 20
144.5379554791962
 10
74.53654504285876
 20
144.5379554791962
 10
74.10054699842643
 20
144.5379554791962
 10
73.75482478502433
 20
144.5379554791962
 10
73.50421145808467
 20
144.5379554791962
 10
73.35244646195651
 20
144.5379554791962
 10
73.30182285213692
 20
144.5379554791962
  0
LWPOLYLINE
  5
1D7
330
70
100
AcDbEntity
  8
PIEZA
 62
    18
420
        0
370
     9
100
AcDbPolyline
 90
        6
 70
     0
 43
0.0
 10
80.27553378533385
 20
143.6956280006858
 10
80.57888738870577
 20
143.6956280006858
 10
80.82004627144218
 20
143.6956280006858
 10
80.97696386864472
 20
143.6956280006858
 10
81.03485265485089
 20
143.6956280006858
 10
81.03502904373529
 20
143.6956280006858
  0
LWPOLYLINE
  5
1D8
330
70
100
AcDbEntity
  8
PIEZA
 62
    18
420
        0
370
     9
100
AcDbPolyline
 90
        6
 70
     0
 43
0.0
 10
80.27553378533385
 20
144.5379554791962
 10
80.57888738870577
 20
144.5379554791962
 10
80.82004627144218
 20
144.5379554791962
 10
80.97696386864472
 20
144.5379554791962
 10
81.03485265485089
 20
144.5379554791962
 10
81.03502904373529
 20
144.5379554791962
  0
LINE
  5
1D9
330
70
100
AcDbEntity
  8
PIEZA
 62
    18
420
        0
370
     9
100
AcDbLine
 10
84.61586664551262
 20
144.5379554791962
 30
0.0
 11
84.61586664551262
 21
143.6956280006858
 31
0.0
  0
LWPOLYLINE
  5
1DA
330
70
100
AcDbEntity
  8
PIEZA
 62
    18
420
        0
370
     9
100
AcDbPolyline
 90
       10
 70
     0
 43
0.0
 10
84.61586664551262
 20
143.6956280006858
 10
84.80050839211434
 20
143.6956280006858
 10
85.06318886762302
 20
143.6956280006858
 10
85.37998331198831
 20
143.6956280006858
 10
85.72122309084717
 20
143.6956280006858
 10
86.05502141566461
 20
143.6956280006858
 10
86.35061390812342
 20
143.6956280006858
 10
86.58058973558958
 20
143.6956280006858
 10
86.72321778750639
 20
143.6956280006858
 10
86.76611556418976
 20
143.6956280006858
  0
LWPOLYLINE
  5
1DB
330
70
100
AcDbEntity
  8
PIEZA
 62
    18
420
        0
370
     9
100
AcDbPolyline
 90
       10
 70
     0
 43
0.0
 10
84.61586664551262
 20
144.5379554791962
 10
84.80050839211434
 20
144.5379554791962
 10
85.06318886762302
 20
144.5379554791962
 10
85.37998331198831
 20
144.5379554791962
 10
85.72122309084717
 20
144.5379554791962
 10
86.05502141566461
 20
144.5379554791962
 10
86.35061390812342
 20
144.5379554791962
 10
86.58058973558958
 20
144.5379554791962
 10
86.72321778750639
 20
144.5379554791962
 10
86.76611556418976
 20
144.5379554791962
  0
LINE
  5
1DC
330
70
100
AcDbEntity
  8
PIEZA
 62
   250
420
  2301728
370
     9
100
AcDbLine
 10
76.3204011084599
 20
141.6984860756868
 30
0.0
 11
76.48680831421167
 21
141.864887769614
 31
0.0
  0
LINE
  5
1DD
330
70
100
AcDbEntity
  8
PIEZA
 62
   250
420
  2301728
370
     9
100
AcDbLine
 10
76.48680831421167
 20
141.864887769614
 30
0.0
 11
76.3204011084599
 21
142.0312930431465
 31
0.0
  0
LINE
  5
1DE
330
70
100
AcDbEntity
  8
PIEZA
 62
   250
420
  2301728
370
     9
100
AcDbLine
 10
76.3204011084599
 20
142.0312930431465
 30
0.0
 11
76.48680831421167
 21
142.1976983166789
 31
0.0
  0
LINE
  5
1DF
330
70
100
AcDbEntity
  8
PIEZA
 62
   250
420
  2301728
370
     9
100
AcDbLine
 10
76.48680831421167
 20
142.1976983166789
 30
0.0
 11
76.3204011084599
 21
142.3641035902113
 31
0.0
  0
LINE
  5
1E0
330
70
100
AcDbEntity
  8
PIEZA
 62
   250
420
  2301728
370
     9
100
AcDbLine
 10
78.31751133528716
 20
141.6984860756868
 30
0.0
 11
78.1511413395316
 21
141.864887769614
 31
0.0
  0
LINE
  5
1E1
330
70
100
AcDbEntity
  8
PIEZA
 62
   250
420
  2301728
370
     9
100
AcDbLine
 10
78.1511413395316
 20
141.864887769614
 30
0.0
 11
78.31751133528716
 21
142.0312930431465
 31
0.0
  0
LINE
  5
1E2
330
70
100
AcDbEntity
  8
PIEZA
 62
   250
420
  2301728
370
     9
100
AcDbLine
 10
78.31751133528716
 20
142.0312930431465
 30
0.0
 11
78.1511413395316
 21
142.1976983166789
 31
0.0
  0
LINE
  5
1E3
330
70
100
AcDbEntity
  8
PIEZA
 62
   250
420
  2301728
370
     9
100
AcDbLine
 10
78.1511413395316
 20
142.1976983166789
 30
0.0
 11
78.31751133528716
 21
142.3641035902113
 31
0.0
  0
MTEXT
  5
1E4
330
70
100
AcDbEntity
  8
PIEZA
100
AcDbMText
 10
88.2775466296727
 20
176.9530422398164
 30
0.0
 40
0.2
 41
0.0
 46
0.0
 71
     7
 72
     1
  1
\C18;\c0;\FArial Bold|b1|i0|c1;\H1.387053;\W0.891008;COLD
 11
0.9999924338841434
 21
0.0038900095716197
 31
0.0
 73
     1
 44
1.0
  0
LINE
  5
1E6
330
70
100
AcDbEntity
  8
025
 62
    18
420
        0
370
     9
100
AcDbLine
 10
93.03222484877244
 20
152.6270438839375
 30
0.0
 11
73.04926924746898
 21
152.6270438839375
 31
0.0
  0
INSERT
  5
1E9
330
70
100
AcDbEntity
  8
COTAS
100
AcDbBlockReference
  2
Block_1
 10
0.0
 20
0.0
 30
0.0
  0
INSERT
  5
1F8
330
70
100
AcDbEntity
  8
COTAS
100
AcDbBlockReference
  2
Block_2
 10
0.0
 20
0.0
 30
0.0
  0
INSERT
  5
207
330
70
100
AcDbEntity
  8
COTAS
100
AcDbBlockReference
  2
Block_3
 10
0.0
 20
0.0
 30
0.0
  0
INSERT
  5
216
330
70
100
AcDbEntity
  8
COTAS
100
AcDbBlockReference
  2
Block_4
 10
0.0
 20
0.0
 30
0.0
  0
INSERT
  5
229
330
70
100
AcDbEntity
  8
COTAS
100
AcDbBlockReference
  2
Block_5
 10
0.0
 20
0.0
 30
0.0
  0
INSERT
  5
238
330
70
100
AcDbEntity
  8
COTAS
100
AcDbBlockReference
  2
Block_6
 10
0.0
 20
0.0
 30
0.0
  0
LINE
  5
247
330
70
100
AcDbEntity
  8
COTAS
  6
AI-Linetype-0
 62
    18
420
        0
370
     9
100
AcDbLine
 10
83.04074704812071
 20
182.0295539671503
 30
0.0
 11
83.04074704812071
 21
152.6270438839375
 31
0.0
  0
LINE
  5
24A
330
70
100
AcDbEntity
  8
010
 62
   250
420
  2301728
370
     9
100
AcDbLine
 10
80.44451433657835
 20
139.4254294985165
 30
0.0
 11
83.0369723259948
 21
141.2647422293695
 31
0.0
  0
LINE
  5
24B
330
70
100
AcDbEntity
  8
010
 62
   250
420
  2301728
370
     9
100
AcDbLine
 10
84.77158061507457
 20
136.1191609717553
 30
0.0
 11
80.44451433657835
 21
139.1963356154723
 31
0.0
  0
LINE
  5
24C
330
70
100
AcDbEntity
  8
010
 62
   250
420
  2301728
370
     9
100
AcDbLine
 10
80.44451433657835
 20
135.6471795949077
 30
0.0
 11
84.77158061507457
 21
138.7171222943647
 31
0.0
  0
LINE
  5
24D
330
70
100
AcDbEntity
  8
010
 62
   250
420
  2301728
370
     9
100
AcDbLine
 10
80.44451433657835
 20
133.7582310319876
 30
0.0
 11
84.77158061507457
 21
136.8281737314447
 31
0.0
  0
LINE
  5
24E
330
70
100
AcDbEntity
  8
010
 62
   250
420
  2301728
370
     9
100
AcDbLine
 10
80.44451433657835
 20
137.5364809355965
 30
0.0
 11
84.77158061507457
 21
140.6063883572766
 31
0.0
  0
LINE
  5
24F
330
70
100
AcDbEntity
  8
010
 62
   250
420
  2301728
370
     9
100
AcDbLine
 10
84.77158061507457
 20
138.0091360766089
 30
0.0
 11
80.74959655101727
 21
140.8695958505616
 31
0.0
  0
LINE
  5
250
330
70
100
AcDbEntity
  8
010
 62
   250
420
  2301728
370
     9
100
AcDbLine
 10
80.44451433657835
 20
131.8689649690757
 30
0.0
 11
84.77158061507457
 21
134.9388723907559
 31
0.0
  0
LINE
  5
251
330
70
100
AcDbEntity
  8
010
 62
   250
420
  2301728
370
     9
100
AcDbLine
 10
80.44451433657835
 20
128.0907150654669
 30
0.0
 11
84.77158061507457
 21
131.1606224871471
 31
0.0
  0
LINE
  5
252
330
70
100
AcDbEntity
  8
010
  6
AI-Linetype-1
 62
   250
420
  2301728
370
     9
100
AcDbLine
 10
79.77875213134113
 20
125.7294323479305
 30
0.0
 11
85.43734282031179
 21
129.7436553010747
 31
0.0
  0
LINE
  5
254
330
70
100
AcDbEntity
  8
010
 62
   250
420
  2301728
370
     9
100
AcDbLine
 10
80.44451433657835
 20
129.9800164061557
 30
0.0
 11
84.77158061507457
 21
133.0499238278358
 31
0.0
  0
LINE
  5
255
330
70
100
AcDbEntity
  8
010
 62
   250
420
  2301728
370
     9
100
AcDbLine
 10
84.77158061507457
 20
134.2288365755371
 30
0.0
 11
80.44451433657835
 21
137.306011219254
 31
0.0
  0
LINE
  5
256
330
70
100
AcDbEntity
  8
010
 62
   250
420
  2301728
370
     9
100
AcDbLine
 10
84.27014442337698
 20
130.804775551781
 30
0.0
 11
80.44451433657835
 21
133.5253624268175
 31
0.0
  0
LINE
  5
257
330
70
100
AcDbEntity
  8
010
 62
   250
420
  2301728
370
     9
100
AcDbLine
 10
84.77158061507457
 20
132.3385121793188
 30
0.0
 11
80.44451433657835
 21
135.4156868230358
 31
0.0
  0
LINE
  5
258
330
70
100
AcDbEntity
  8
010
 62
   250
420
  2301728
370
     9
100
AcDbLine
 10
82.93946664593191
 20
129.8608127980857
 30
0.0
 11
80.44451433657835
 21
131.6350380305993
 31
0.0
  0
LINE
  5
259
330
70
100
AcDbEntity
  8
010
 62
   250
420
  2301728
370
     9
100
AcDbLine
 10
81.60878886848681
 20
128.9168500443905
 30
0.0
 11
80.44451433657835
 21
129.7450664121498
 31
0.0
  0
LINE
  5
25A
330
70
100
AcDbEntity
  8
010
 62
   250
420
  2301728
370
     9
100
AcDbLine
 10
84.77158061507457
 20
121.9422571667716
 30
0.0
 11
82.93671288410818
 21
123.2468999112652
 31
0.0
  0
LINE
  5
25B
330
70
100
AcDbEntity
  8
010
 62
   250
420
  2301728
370
     9
100
AcDbLine
 10
84.77158061507457
 20
123.8325815629899
 30
0.0
 11
84.26739062793755
 21
124.1908626649604
 31
0.0
  0
LINE
  5
25C
330
70
100
AcDbEntity
  8
010
 62
   250
420
  2301728
370
     9
100
AcDbLine
 10
84.77158061507457
 20
120.027802771169
 30
0.0
 11
81.58917236293126
 21
122.2909074356546
 31
0.0
  0
LINE
  5
25D
330
70
100
AcDbEntity
  8
010
 62
   250
420
  2301728
370
     9
100
AcDbLine
 10
84.77158061507457
 20
116.2475067565012
 30
0.0
 11
80.44451433657835
 21
119.3246814002182
 31
0.0
  0
LINE
  5
25E
330
70
100
AcDbEntity
  8
010
 62
   250
420
  2301728
370
     9
100
AcDbLine
 10
84.77158061507457
 20
118.1374783749507
 30
0.0
 11
80.44451433657835
 21
121.2146530186676
 31
0.0
  0
LINE
  5
25F
330
70
100
AcDbEntity
  8
010
 62
   250
420
  2301728
370
     9
100
AcDbLine
 10
84.77158061507457
 20
114.357182360283
 30
0.0
 11
80.44451433657835
 21
117.4343570039999
 31
0.0
  0
LINE
  5
260
330
70
100
AcDbEntity
  8
010
 62
   250
420
  2301728
370
     9
100
AcDbLine
 10
84.77158061507457
 20
110.5765335678465
 30
0.0
 11
80.44451433657835
 21
113.6537110826975
 31
0.0
  0
LINE
  5
261
330
70
100
AcDbEntity
  8
010
 62
   250
420
  2301728
370
     9
100
AcDbLine
 10
84.77158061507457
 20
112.4668579640647
 30
0.0
 11
80.44451433657835
 21
115.5440326077817
 31
0.0
  0
LINE
  5
262
330
70
100
AcDbEntity
  8
010
 62
   250
420
  2301728
370
     9
100
AcDbLine
 10
84.77158061507457
 20
108.686561949397
 30
0.0
 11
80.44451433657835
 21
111.7633838153452
 31
0.0
  0
LINE
  5
263
330
70
100
AcDbEntity
  8
010
 62
   250
420
  2301728
370
     9
100
AcDbLine
 10
83.27382731995212
 20
107.8610999730346
 30
0.0
 11
80.44451433657835
 21
109.8733769191188
 31
0.0
  0
LINE
  5
264
330
70
100
AcDbEntity
  8
010
 62
   250
420
  2301728
370
     9
100
AcDbLine
 10
80.44451433657835
 20
121.4788835674821
 30
0.0
 11
84.77158061507457
 21
124.5488262669391
 31
0.0
  0
LINE
  5
265
330
70
100
AcDbEntity
  8
010
 62
   250
420
  2301728
370
     9
100
AcDbLine
 10
80.44451433657835
 20
119.5899350045621
 30
0.0
 11
84.77158061507457
 21
122.6595249262503
 31
0.0
  0
LINE
  5
266
330
70
100
AcDbEntity
  8
010
  6
AI-Linetype-2
 62
   250
420
  2301728
370
     9
100
AcDbLine
 10
79.77875213134113
 20
123.8401694134843
 30
0.0
 11
85.43734282031179
 21
127.8547420159315
 31
0.0
  0
LINE
  5
268
330
70
100
AcDbEntity
  8
010
 62
   250
420
  2301728
370
     9
100
AcDbLine
 10
80.44451433657835
 20
115.8117203787302
 30
0.0
 11
84.77158061507457
 21
118.8812750226415
 31
0.0
  0
LINE
  5
269
330
70
100
AcDbEntity
  8
010
 62
   250
420
  2301728
370
     9
100
AcDbLine
 10
80.44451433657835
 20
113.9224190380414
 30
0.0
 11
84.77158061507457
 21
116.9923264597215
 31
0.0
  0
LINE
  5
26A
330
70
100
AcDbEntity
  8
010
 62
   250
420
  2301728
370
     9
100
AcDbLine
 10
80.44451433657835
 20
117.7006336638733
 30
0.0
 11
84.77158061507457
 21
120.7705763633303
 31
0.0
  0
LINE
  5
26B
330
70
100
AcDbEntity
  8
010
 62
   250
420
  2301728
370
     9
100
AcDbLine
 10
80.44451433657835
 20
112.0331176973526
 30
0.0
 11
84.77158061507457
 21
115.1030603968096
 31
0.0
  0
LINE
  5
26C
330
70
100
AcDbEntity
  8
010
 62
   250
420
  2301728
370
     9
100
AcDbLine
 10
80.44451433657835
 20
108.2552205715126
 30
0.0
 11
84.77158061507457
 21
111.3248104932008
 31
0.0
  0
LINE
  5
26D
330
70
100
AcDbEntity
  8
010
 62
   250
420
  2301728
370
     9
100
AcDbLine
 10
82.55207928280988
 20
107.8610999730346
 30
0.0
 11
84.77158061507457
 21
109.4358619302808
 31
0.0
  0
LINE
  5
26E
330
70
100
AcDbEntity
  8
010
 62
   250
420
  2301728
370
     9
100
AcDbLine
 10
80.44451433657835
 20
110.1441691344326
 30
0.0
 11
84.77158061507457
 21
113.2141118338896
 31
0.0
  0
LINE
  5
26F
330
70
100
AcDbEntity
  8
010
 62
   250
420
  2301728
370
     9
100
AcDbLine
 10
84.77158061507457
 20
139.899456986423
 30
0.0
 11
81.03502904373529
 21
142.556684974187
 31
0.0
  0
LINE
  5
270
330
70
100
AcDbEntity
  8
010
 62
   250
420
  2301728
370
     9
100
AcDbLine
 10
80.44451433657835
 20
139.4254294985165
 30
0.0
 11
84.13128896474312
 21
142.0409238762341
 31
0.0
  0
ENDSEC
  0
SECTION
  2
OBJECTS
  0
DICTIONARY
  5
C
330
0
100
AcDbDictionary
281
     1
  3
ACAD_COLOR
350
63
  3
ACAD_DETAILVIEWSTYLE
350
6A
  3
ACAD_GROUP
350
D
  3
ACAD_LAYOUT
350
62
  3
ACAD_MATERIAL
350
10
  3
ACAD_MLEADERSTYLE
350
66
  3
ACAD_MLINESTYLE
350
5F
  3
ACAD_PLOTSETTINGS
350
61
  3
ACAD_PLOTSTYLENAME
350
E
  3
ACAD_SCALELIST
350
42
  3
ACAD_SECTIONVIEWSTYLE
350
68
  3
ACAD_TABLESTYLE
350
64
  3
ACAD_VISUALSTYLE
350
29
  3
ACDB_RECOMPOSE_DATA
350
279
  3
AcDbVariableDictionary
350
271
  0
DICTIONARY
  5
63
102
{ACAD_REACTORS
330
C
102
}
330
C
100
AcDbDictionary
281
     1
  0
DICTIONARY
  5
6A
102
{ACAD_REACTORS
330
C
102
}
330
C
100
AcDbDictionary
281
     1
  3
Imperial24
350
6B
  0
DICTIONARY
  5
D
102
{ACAD_REACTORS
330
C
102
}
330
C
100
AcDbDictionary
281
     1
  0
DICTIONARY
  5
62
102
{ACAD_REACTORS
330
C
102
}
330
C
100
AcDbDictionary
281
     1
  3
Layout1
350
6F
  3
Layout2
350
77
  3
Model
350
73
  0
DICTIONARY
  5
10
102
{ACAD_REACTORS
330
C
102
}
330
C
100
AcDbDictionary
281
     1
  3
ByBlock
350
19
  3
ByLayer
350
11
  3
Global
350
21
  0
DICTIONARY
  5
66
102
{ACAD_REACTORS
330
C
102
}
330
C
100
AcDbDictionary
281
     1
  3
Standard
350
67
  0
DICTIONARY
  5
5F
102
{ACAD_REACTORS
330
C
102
}
330
C
100
AcDbDictionary
281
     1
  3
Standard
350
60
  0
DICTIONARY
  5
61
102
{ACAD_REACTORS
330
C
102
}
330
C
100
AcDbDictionary
281
     1
  0
ACDBDICTIONARYWDFLT
  5
E
102
{ACAD_REACTORS
330
C
102
}
330
C
100
AcDbDictionary
281
     1
  3
Normal
350
F
100
AcDbDictionaryWithDefault
340
F
  0
DICTIONARY
  5
42
102
{ACAD_REACTORS
330
C
102
}
330
C
100
AcDbDictionary
281
     1
  3
A0
350
43
  3
A1
350
44
  3
A2
350
45
  3
A3
350
46
  3
A4
350
47
  3
A5
350
48
  3
A6
350
49
  3
A7
350
4A
  3
A8
350
4B
  3
A9
350
4C
  3
B0
350
4D
  3
B1
350
4E
  3
B2
350
4F
  3
B3
350
50
  3
B4
350
51
  3
B5
350
52
  3
B6
350
53
  0
DICTIONARY
  5
68
102
{ACAD_REACTORS
330
C
102
}
330
C
100
AcDbDictionary
281
     1
  3
Imperial24
350
69
  0
DICTIONARY
  5
64
102
{ACAD_REACTORS
330
C
102
}
330
C
100
AcDbDictionary
281
     1
  3
Standard
350
65
  0
DICTIONARY
  5
29
102
{ACAD_REACTORS
330
C
102
}
330
C
100
AcDbDictionary
281
     1
  3
2dWireframe
350
2F
  3
Basic
350
2E
  3
Brighten
350
35
  3
ColorChange
350
39
  3
Conceptual
350
32
  3
Dim
350
34
  3
EdgeColorOff
350
41
  3
Facepattern
350
38
  3
Flat
350
2A
  3
FlatWithEdges
350
2B
  3
Gouraud
350
2C
  3
GouraudWithEdges
350
2D
  3
Hidden
350
31
  3
JitterOff
350
3F
  3
Linepattern
350
37
  3
OverhangOff
350
40
  3
Realistic
350
33
  3
Shaded
350
3E
  3
Shaded with edges
350
3D
  3
Shades of Gray
350
3A
  3
Sketchy
350
3B
  3
Thicken
350
36
  3
Wireframe
350
30
  3
X-Ray
350
3C
  0
XRECORD
  5
279
102
{ACAD_REACTORS
330
C
102
}
330
C
100
AcDbXrecord
280
     1
 90
        1
330
65
  0
DICTIONARY
  5
271
102
{ACAD_REACTORS
330
C
102
}
330
C
100
AcDbDictionary
281
     1
  3
CANNOSCALE
350
276
  3
CMLEADERSTYLE
350
273
  3
CTABLESTYLE
350
272
  3
CVIEWDETAILSTYLE
350
274
  3
CVIEWSECTIONSTYLE
350
275
  0
ACDBDETAILVIEWSTYLE
  5
6B
102
{ACAD_REACTORS
330
6A
102
}
330
6A
100
AcDbModelDocViewStyle
 70
     0
  3
Imperial24
290
     1
300
Imperial24
 90
        0
100
AcDbDetailViewStyle
 70
     0
 71
     0
 90
        3
 71
     1
340
55
 62
   256
 40
0.24
340
0
 62
   256
 40
0.24
300

 40
0.36
280
     3
 71
     2
340
5D
 90
       25
 62
   256
 71
     3
340
55
 62
   256
 40
0.24
 90
        1
 40
0.75
 90
        1
300
%<\AcVar ViewType \f "%tc1">% %<\AcVar ViewDetailId>%\PSCALE %<\AcVar ViewScale \f "%sn">%
 71
     4
340
5D
 90
       25
 62
   256
340
5D
 90
       25
 62
   256
280
     0
  0
LAYOUT
  5
6F
102
{ACAD_REACTORS
330
62
102
}
330
62
100
AcDbPlotSettings
  1

  2

  4

  6

 40
0.0
 41
0.0
 42
0.0
 43
0.0
 44
0.0
 45
0.0
 46
0.0
 47
0.0
 48
0.0
 49
0.0
140
0.0
141
0.0
142
1.0
143
1.0
 70
   688
 72
     0
 73
     0
 74
     5
  7

 75
    16
147
1.0
 76
     0
 77
     2
 78
   300
148
0.0
149
0.0
100
AcDbLayout
  1
Layout1
 70
     1
 71
     1
 10
0.0
 20
0.0
 11
12.0
 21
9.0
 12
0.0
 22
0.0
 32
0.0
 14
0.0
 24
0.0
 34
0.0
 15
0.0
 25
0.0
 35
0.0
146
0.0
 13
0.0
 23
0.0
 33
0.0
 16
1.0
 26
0.0
 36
0.0
 17
0.0
 27
1.0
 37
0.0
 76
     0
330
6C
  0
LAYOUT
  5
77
102
{ACAD_REACTORS
330
62
102
}
330
62
100
AcDbPlotSettings
  1

  2

  4

  6

 40
0.0
 41
0.0
 42
0.0
 43
0.0
 44
0.0
 45
0.0
 46
0.0
 47
0.0
 48
0.0
 49
0.0
140
0.0
141
0.0
142
1.0
143
1.0
 70
   688
 72
     0
 73
     0
 74
     5
  7

 75
    16
147
1.0
 76
     0
 77
     2
 78
   300
148
0.0
149
0.0
100
AcDbLayout
  1
Layout2
 70
     1
 71
     2
 10
0.0
 20
0.0
 11
12.0
 21
9.0
 12
0.0
 22
0.0
 32
0.0
 14
0.0
 24
0.0
 34
0.0
 15
0.0
 25
0.0
 35
0.0
146
0.0
 13
0.0
 23
0.0
 33
0.0
 16
1.0
 26
0.0
 36
0.0
 17
0.0
 27
1.0
 37
0.0
 76
     0
330
74
  0
LAYOUT
  5
73
102
{ACAD_REACTORS
330
62
102
}
330
62
100
AcDbPlotSettings
  1

  2

  4

  6

 40
0.0
 41
0.0
 42
0.0
 43
0.0
 44
0.0
 45
0.0
 46
0.0
 47
0.0
 48
0.0
 49
0.0
140
0.0
141
0.0
142
1.0
143
1.0
 70
  1712
 72
     0
 73
     0
 74
     0
  7

 75
     0
147
1.0
 76
     0
 77
     2
 78
   300
148
0.0
149
0.0
100
AcDbLayout
  1
Model
 70
     1
 71
     0
 10
0.0
 20
0.0
 11
12.0
 21
9.0
 12
0.0
 22
0.0
 32
0.0
 14
0.0
 24
0.0
 34
0.0
 15
0.0
 25
0.0
 35
0.0
146
0.0
 13
0.0
 23
0.0
 33
0.0
 16
1.0
 26
0.0
 36
0.0
 17
0.0
 27
1.0
 37
0.0
 76
     0
330
70
  0
MATERIAL
  5
19
102
{ACAD_XDICTIONARY
360
1A
102
}
102
{ACAD_REACTORS
330
10
102
}
330
10
100
AcDbMaterial
  1
ByBlock
 72
     0
 43
0.0208333333333333
 43
0.0
 43
0.0
 43
0.0
 43
0.0
 43
0.0208333333333333
 43
0.0
 43
0.0
 43
0.0
 43
0.0
 43
1.0
 43
0.0
 43
0.0
 43
0.0
 43
0.0
 43
1.0
 77
     0
 47
0.0208333333333333
 47
0.0
 47
0.0
 47
0.0
 47
0.0
 47
0.0208333333333333
 47
0.0
 47
0.0
 47
0.0
 47
0.0
 47
1.0
 47
0.0
 47
0.0
 47
0.0
 47
0.0
 47
1.0
171
     0
 49
0.0208333333333333
 49
0.0
 49
0.0
 49
0.0
 49
0.0
 49
0.0208333333333333
 49
0.0
 49
0.0
 49
0.0
 49
0.0
 49
1.0
 49
0.0
 49
0.0
 49
0.0
 49
0.0
 49
1.0
175
     0
142
0.0208333333333333
142
0.0
142
0.0
142
0.0
142
0.0
142
0.0208333333333333
142
0.0
142
0.0
142
0.0
142
0.0
142
1.0
142
0.0
142
0.0
142
0.0
142
0.0
142
1.0
179
     0
144
0.0208333333333333
144
0.0
144
0.0
144
0.0
144
0.0
144
0.0208333333333333
144
0.0
144
0.0
144
0.0
144
0.0
144
1.0
144
0.0
144
0.0
144
0.0
144
0.0
144
1.0
147
0.0208333333333333
147
0.0
147
0.0
147
0.0
147
0.0
147
0.0208333333333333
147
0.0
147
0.0
147
0.0
147
0.0
147
1.0
147
0.0
147
0.0
147
0.0
147
0.0
147
1.0
  0
MATERIAL
  5
11
102
{ACAD_XDICTIONARY
360
12
102
}
102
{ACAD_REACTORS
330
10
102
}
330
10
100
AcDbMaterial
  1
ByLayer
 72
     0
 43
0.0208333333333333
 43
0.0
 43
0.0
 43
0.0
 43
0.0
 43
0.0208333333333333
 43
0.0
 43
0.0
 43
0.0
 43
0.0
 43
1.0
 43
0.0
 43
0.0
 43
0.0
 43
0.0
 43
1.0
 77
     0
 47
0.0208333333333333
 47
0.0
 47
0.0
 47
0.0
 47
0.0
 47
0.0208333333333333
 47
0.0
 47
0.0
 47
0.0
 47
0.0
 47
1.0
 47
0.0
 47
0.0
 47
0.0
 47
0.0
 47
1.0
171
     0
 49
0.0208333333333333
 49
0.0
 49
0.0
 49
0.0
 49
0.0
 49
0.0208333333333333
 49
0.0
 49
0.0
 49
0.0
 49
0.0
 49
1.0
 49
0.0
 49
0.0
 49
0.0
 49
0.0
 49
1.0
175
     0
142
0.0208333333333333
142
0.0
142
0.0
142
0.0
142
0.0
142
0.0208333333333333
142
0.0
142
0.0
142
0.0
142
0.0
142
1.0
142
0.0
142
0.0
142
0.0
142
0.0
142
1.0
179
     0
144
0.0208333333333333
144
0.0
144
0.0
144
0.0
144
0.0
144
0.0208333333333333
144
0.0
144
0.0
144
0.0
144
0.0
144
1.0
144
0.0
144
0.0
144
0.0
144
0.0
144
1.0
147
0.0208333333333333
147
0.0
147
0.0
147
0.0
147
0.0
147
0.0208333333333333
147
0.0
147
0.0
147
0.0
147
0.0
147
1.0
147
0.0
147
0.0
147
0.0
147
0.0
147
1.0
  0
MATERIAL
  5
21
102
{ACAD_XDICTIONARY
360
22
102
}
102
{ACAD_REACTORS
330
10
102
}
330
10
100
AcDbMaterial
  1
Global
 72
     0
 43
0.0208333333333333
 43
0.0
 43
0.0
 43
0.0
 43
0.0
 43
0.0208333333333333
 43
0.0
 43
0.0
 43
0.0
 43
0.0
 43
1.0
 43
0.0
 43
0.0
 43
0.0
 43
0.0
 43
1.0
 77
     0
 47
0.0208333333333333
 47
0.0
 47
0.0
 47
0.0
 47
0.0
 47
0.0208333333333333
 47
0.0
 47
0.0
 47
0.0
 47
0.0
 47
1.0
 47
0.0
 47
0.0
 47
0.0
 47
0.0
 47
1.0
171
     0
 49
0.0208333333333333
 49
0.0
 49
0.0
 49
0.0
 49
0.0
 49
0.0208333333333333
 49
0.0
 49
0.0
 49
0.0
 49
0.0
 49
1.0
 49
0.0
 49
0.0
 49
0.0
 49
0.0
 49
1.0
175
     0
142
0.0208333333333333
142
0.0
142
0.0
142
0.0
142
0.0
142
0.0208333333333333
142
0.0
142
0.0
142
0.0
142
0.0
142
1.0
142
0.0
142
0.0
142
0.0
142
0.0
142
1.0
179
     0
144
0.0208333333333333
144
0.0
144
0.0
144
0.0
144
0.0
144
0.0208333333333333
144
0.0
144
0.0
144
0.0
144
0.0
144
1.0
144
0.0
144
0.0
144
0.0
144
0.0
144
1.0
147
0.0208333333333333
147
0.0
147
0.0
147
0.0
147
0.0
147
0.0208333333333333
147
0.0
147
0.0
147
0.0
147
0.0
147
1.0
147
0.0
147
0.0
147
0.0
147
0.0
147
1.0
  0
MLEADERSTYLE
  5
67
102
{ACAD_REACTORS
330
66
102
}
330
66
100
AcDbMLeaderStyle
179
     2
170
     2
171
     1
172
     0
 90
        2
 40
0.0
 41
0.0
173
     1
 91
-1056964608
340
5B
 92
       -2
290
     1
 42
0.09
291
     1
 43
0.36
  3
Standard
 44
0.18
300

342
55
174
     1
178
     6
175
     1
176
     0
 93
-1056964608
 45
0.18
292
     0
297
     0
 46
0.18
 94
-1056964608
 47
1.0
 49
1.0
140
1.0
293
     1
141
0.0
294
     1
177
     0
142
1.0
295
     1
296
     0
143
0.125
271
     0
272
     9
273
     9
298
     1
  0
MLINESTYLE
  5
60
102
{ACAD_REACTORS
330
5F
102
}
330
5F
100
AcDbMlineStyle
  2
STANDARD
 70
     0
  3

 62
   256
 51
90.0
 52
90.0
 71
     2
 49
0.5
 62
   256
  6
BYLAYER
 49
-0.5
 62
   256
  6
BYLAYER
  0
ACDBPLACEHOLDER
  5
F
102
{ACAD_REACTORS
330
E
102
}
330
E
  0
SCALE
  5
43
102
{ACAD_REACTORS
330
42
102
}
330
42
100
AcDbScale
 70
     0
300
1:1
140
1.0
141
1.0
290
     1
  0
SCALE
  5
44
102
{ACAD_REACTORS
330
42
102
}
330
42
100
AcDbScale
 70
     0
300
1/128" = 1'-0"
140
0.0078125
141
12.0
290
     0
  0
SCALE
  5
45
102
{ACAD_REACTORS
330
42
102
}
330
42
100
AcDbScale
 70
     0
300
1/64" = 1'-0"
140
0.015625
141
12.0
290
     0
  0
SCALE
  5
46
102
{ACAD_REACTORS
330
42
102
}
330
42
100
AcDbScale
 70
     0
300
1/32" = 1'-0"
140
0.03125
141
12.0
290
     0
  0
SCALE
  5
47
102
{ACAD_REACTORS
330
42
102
}
330
42
100
AcDbScale
 70
     0
300
1/16" = 1'-0"
140
0.0625
141
12.0
290
     0
  0
SCALE
  5
48
102
{ACAD_REACTORS
330
42
102
}
330
42
100
AcDbScale
 70
     0
300
3/32" = 1'-0"
140
0.09375
141
12.0
290
     0
  0
SCALE
  5
49
102
{ACAD_REACTORS
330
42
102
}
330
42
100
AcDbScale
 70
     0
300
1/8" = 1'-0"
140
0.125
141
12.0
290
     0
  0
SCALE
  5
4A
102
{ACAD_REACTORS
330
42
102
}
330
42
100
AcDbScale
 70
     0
300
3/16" = 1'-0"
140
0.1875
141
12.0
290
     0
  0
SCALE
  5
4B
102
{ACAD_REACTORS
330
42
102
}
330
42
100
AcDbScale
 70
     0
300
1/4" = 1'-0"
140
0.25
141
12.0
290
     0
  0
SCALE
  5
4C
102
{ACAD_REACTORS
330
42
102
}
330
42
100
AcDbScale
 70
     0
300
3/8" = 1'-0"
140
0.375
141
12.0
290
     0
  0
SCALE
  5
4D
102
{ACAD_REACTORS
330
42
102
}
330
42
100
AcDbScale
 70
     0
300
1/2" = 1'-0"
140
0.5
141
12.0
290
     0
  0
SCALE
  5
4E
102
{ACAD_REACTORS
330
42
102
}
330
42
100
AcDbScale
 70
     0
300
3/4" = 1'-0"
140
0.75
141
12.0
290
     0
  0
SCALE
  5
4F
102
{ACAD_REACTORS
330
42
102
}
330
42
100
AcDbScale
 70
     0
300
1" = 1'-0"
140
1.0
141
12.0
290
     0
  0
SCALE
  5
50
102
{ACAD_REACTORS
330
42
102
}
330
42
100
AcDbScale
 70
     0
300
1-1/2" = 1'-0"
140
1.5
141
12.0
290
     0
  0
SCALE
  5
51
102
{ACAD_REACTORS
330
42
102
}
330
42
100
AcDbScale
 70
     0
300
3" = 1'-0"
140
3.0
141
12.0
290
     0
  0
SCALE
  5
52
102
{ACAD_REACTORS
330
42
102
}
330
42
100
AcDbScale
 70
     0
300
6" = 1'-0"
140
6.0
141
12.0
290
     0
  0
SCALE
  5
53
102
{ACAD_REACTORS
330
42
102
}
330
42
100
AcDbScale
 70
     0
300
1'-0" = 1'-0"
140
12.0
141
12.0
290
     0
  0
ACDBSECTIONVIEWSTYLE
  5
69
102
{ACAD_REACTORS
330
68
102
}
330
68
100
AcDbModelDocViewStyle
 70
     0
  3
Imperial24
290
     1
300
Imperial24
 90
        0
100
AcDbSectionViewStyle
 70
     0
 71
     0
 90
       78
 71
     1
340
55
 62
   256
 40
0.24
340
0
340
0
 62
   256
 40
0.24
300
I, O, Q, S, X, Z
 40
0.48
 90
        3
 40
0.18
 90
        1
 71
     2
340
5D
 90
       25
 62
   256
340
5D
 90
       50
 62
   256
 40
0.24
 40
0.0
 40
0.24
 71
     3
340
55
 62
   256
 40
0.24
 90
        1
 40
0.75
 90
        1
300
%<\AcVar ViewType \f "%tc1">% %<\AcVar ViewSectionStartId>%-%<\AcVar ViewSectionEndId>%\PSCALE %<\AcVar ViewScale \f "%sn">%
 71
     4
 62
   256
 62
   257
300
ANSI31
 40
1.0
 90
        0
290
     0
290
     0
 90
        6
 40
0.0
 40
1.570796326794896
 40
0.2617993877991494
 40
1.308996938995747
 40
-0.2617993877991494
 40
1.832595714594046
  0
TABLESTYLE
  5
65
102
{ACAD_XDICTIONARY
360
277
102
}
102
{ACAD_REACTORS
330
64
102
}
330
64
100
AcDbTableStyle
280
     0
  3
Standard
 70
     0
 71
     0
 40
0.06
 41
0.06
280
     0
281
     0
  7
Standard
140
0.18
170
     2
 62
     0
 63
     7
283
     0
 90
      512
 91
        0
  1

274
    -2
284
     1
 64
     0
275
    -2
285
     1
 65
     0
276
    -2
286
     1
 66
     0
277
    -2
287
     1
 67
     0
278
    -2
288
     1
 68
     0
279
    -2
289
     1
 69
     0
  7
Standard
140
0.25
170
     5
 62
     0
 63
     7
283
     0
 90
      512
 91
        0
  1

274
    -2
284
     1
 64
     0
275
    -2
285
     1
 65
     0
276
    -2
286
     1
 66
     0
277
    -2
287
     1
 67
     0
278
    -2
288
     1
 68
     0
279
    -2
289
     1
 69
     0
  7
Standard
140
0.18
170
     5
 62
     0
 63
     7
283
     0
 90
      512
 91
        0
  1

274
    -2
284
     1
 64
     0
275
    -2
285
     1
 65
     0
276
    -2
286
     1
 66
     0
277
    -2
287
     1
 67
     0
278
    -2
288
     1
 68
     0
279
    -2
289
     1
 69
     0
  0
VISUALSTYLE
  5
2F
102
{ACAD_REACTORS
330
29
102
}
330
29
100
AcDbVisualStyle
  2
2dWireframe
 70
     4
177
     3
291
     0
 70
    58
 90
        0
176
     1
 90
        2
176
     1
 90
        0
176
     1
 90
        0
176
     1
 40
0.6
176
     1
 40
30.0
176
     1
 62
     7
420
 16777215
176
     1
 90
        1
176
     1
 90
        4
176
     1
 62
     7
176
     1
 62
   257
176
     1
 90
        1
176
     1
 90
        1
176
     1
 40
1.0
176
     1
 90
        0
176
     1
 62
   257
176
     1
 40
1.0
176
     1
 90
        1
176
     1
 90
        6
176
     1
 90
        2
176
     1
 62
     7
176
     1
 90
        5
176
     1
 90
        0
176
     1
 90
        0
176
     1
290
     0
176
     1
 90
        1
176
     1
 40
0.0
176
     1
 90
        0
176
     1
290
     1
176
     1
290
     1
176
     1
290
     0
176
     1
290
     0
176
     1
290
     0
176
     1
290
     0
176
     1
290
     0
176
     1
290
     0
176
     1
290
     0
176
     1
 90
       50
176
     1
 40
0.0
176
     1
 40
1.0
176
     1
 90
        0
176
     1
 62
    18
420
        0
176
     1
 90
       50
176
     1
 90
        3
176
     1
 62
     5
420
      255
176
     1
290
     0
176
     1
 90
       50
176
     1
 90
       50
176
     1
 90
       50
176
     1
290
     0
176
     1
 90
       50
176
     1
 62
   256
176
     0
 40
1.0
176
     0
 90
        2
176
     1
  1
strokes_ogs.tif
176
     1
290
     0
176
     1
 40
1.0
176
     1
 40
1.0
176
     1
  0
VISUALSTYLE
  5
2E
102
{ACAD_REACTORS
330
29
102
}
330
29
100
AcDbVisualStyle
  2
Basic
 70
     7
177
     3
291
     1
 70
    58
 90
        1
176
     1
 90
        0
176
     1
 90
        1
176
     1
 90
        0
176
     1
 40
0.6
176
     1
 40
30.0
176
     1
 62
     7
420
 16777215
176
     1
 90
        0
176
     1
 90
        4
176
     1
 62
     7
176
     1
 62
   257
176
     1
 90
        1
176
     1
 90
        1
176
     1
 40
1.0
176
     1
 90
        8
176
     1
 62
     7
176
     1
 40
1.0
176
     1
 90
        1
176
     1
 90
        6
176
     1
 90
        2
176
     1
 62
     7
176
     1
 90
        5
176
     1
 90
        0
176
     1
 90
        0
176
     1
290
     0
176
     1
 90
        1
176
     1
 40
0.0
176
     1
 90
        0
176
     1
290
     0
176
     1
290
     1
176
     1
290
     1
176
     1
290
     0
176
     1
290
     0
176
     1
290
     0
176
     1
290
     0
176
     1
290
     0
176
     1
290
     0
176
     1
 90
       50
176
     1
 40
0.0
176
     1
 40
1.0
176
     1
 90
        0
176
     1
 62
    18
420
        0
176
     1
 90
       50
176
     1
 90
        3
176
     1
 62
     5
420
      255
176
     1
290
     0
176
     1
 90
       50
176
     1
 90
       50
176
     1
 90
       50
176
     1
290
     0
176
     1
 90
       50
176
     1
 62
   256
176
     0
 40
1.0
176
     0
 90
        2
176
     1
  1
strokes_ogs.tif
176
     1
290
     0
176
     1
 40
1.0
176
     1
 40
1.0
176
     1
  0
VISUALSTYLE
  5
35
102
{ACAD_REACTORS
330
29
102
}
330
29
100
AcDbVisualStyle
  2
Brighten
 70
    12
177
     3
291
     1
 70
    58
 90
        2
176
     1
 90
        2
176
     1
 90
        0
176
     1
 90
        0
176
     1
 40
0.6
176
     1
 40
30.0
176
     1
 62
     7
420
 16777215
176
     1
 90
        1
176
     1
 90
        4
176
     1
 62
     7
176
     1
 62
   257
176
     1
 90
        1
176
     1
 90
        1
176
     1
 40
1.0
176
     1
 90
        8
176
     1
 62
     7
176
     1
 40
1.0
176
     1
 90
        1
176
     1
 90
        6
176
     1
 90
        2
176
     1
 62
     7
176
     1
 90
        5
176
     1
 90
        0
176
     1
 90
        0
176
     1
290
     0
176
     1
 90
        1
176
     1
 40
50.0
176
     1
 90
        0
176
     1
290
     0
176
     1
290
     1
176
     1
290
     1
176
     1
290
     0
176
     1
290
     0
176
     1
290
     0
176
     1
290
     0
176
     1
290
     0
176
     1
290
     0
176
     1
 90
       50
176
     1
 40
0.0
176
     1
 40
1.0
176
     1
 90
        0
176
     1
 62
    18
420
        0
176
     1
 90
       50
176
     1
 90
        3
176
     1
 62
     5
420
      255
176
     1
290
     0
176
     1
 90
       50
176
     1
 90
       50
176
     1
 90
       50
176
     1
290
     0
176
     1
 90
       50
176
     1
 62
   256
176
     0
 40
1.0
176
     0
 90
        2
176
     1
  1
strokes_ogs.tif
176
     1
290
     0
176
     1
 40
1.0
176
     1
 40
1.0
176
     1
  0
VISUALSTYLE
  5
39
102
{ACAD_REACTORS
330
29
102
}
330
29
100
AcDbVisualStyle
  2
ColorChange
 70
    16
177
     3
291
     1
 70
    58
 90
        2
176
     1
 90
        2
176
     1
 90
        3
176
     1
 90
        0
176
     1
 40
0.6
176
     1
 40
30.0
176
     1
 62
     8
420
  8421504
176
     1
 90
        1
176
     1
 90
        4
176
     1
 62
     7
176
     1
 62
   257
176
     1
 90
        1
176
     1
 90
        1
176
     1
 40
1.0
176
     1
 90
        8
176
     1
 62
     8
420
  8421504
176
     1
 40
1.0
176
     1
 90
        1
176
     1
 90
        6
176
     1
 90
        2
176
     1
 62
     7
176
     1
 90
        5
176
     1
 90
        0
176
     1
 90
        0
176
     1
290
     0
176
     1
 90
        1
176
     1
 40
0.0
176
     1
 90
        0
176
     1
290
     0
176
     1
290
     1
176
     1
290
     1
176
     1
290
     0
176
     1
290
     0
176
     1
290
     0
176
     1
290
     0
176
     1
290
     0
176
     1
290
     0
176
     1
 90
       50
176
     1
 40
0.0
176
     1
 40
1.0
176
     1
 90
        0
176
     1
 62
    18
420
        0
176
     1
 90
       50
176
     1
 90
        3
176
     1
 62
     5
420
      255
176
     1
290
     0
176
     1
 90
       50
176
     1
 90
       50
176
     1
 90
       50
176
     1
290
     0
176
     1
 90
       50
176
     1
 62
   256
176
     0
 40
1.0
176
     0
 90
        2
176
     1
  1
strokes_ogs.tif
176
     1
290
     0
176
     1
 40
1.0
176
     1
 40
1.0
176
     1
  0
VISUALSTYLE
  5
32
102
{ACAD_REACTORS
330
29
102
}
330
29
100
AcDbVisualStyle
  2
Conceptual
 70
     9
177
     3
291
     0
 70
    58
 90
        3
176
     1
 90
        2
176
     1
 90
        0
176
     1
 90
        0
176
     1
 40
0.6
176
     1
 40
30.0
176
     1
 62
     7
420
 16777215
176
     1
 90
        2
176
     1
 90
        2
176
     1
 62
     7
176
     1
 62
   257
176
     1
 90
        1
176
     1
 90
        1
176
     1
 40
179.0
176
     1
 90
        8
176
     1
 62
     7
176
     1
 40
1.0
176
     1
 90
        1
176
     1
 90
        6
176
     1
 90
        2
176
     1
 62
     7
176
     1
 90
        3
176
     1
 90
        0
176
     1
 90
        0
176
     1
290
     0
176
     1
 90
        1
176
     1
 40
0.0
176
     1
 90
        0
176
     1
290
     0
176
     1
290
     1
176
     1
290
     1
176
     1
290
     0
176
     1
290
     0
176
     1
290
     0
176
     1
290
     0
176
     1
290
     0
176
     1
290
     0
176
     1
 90
       50
176
     1
 40
0.0
176
     1
 40
1.0
176
     1
 90
        0
176
     1
 62
    18
420
        0
176
     1
 90
       50
176
     1
 90
        3
176
     1
 62
     5
420
      255
176
     1
290
     0
176
     1
 90
       50
176
     1
 90
       50
176
     1
 90
       50
176
     1
290
     0
176
     1
 90
       50
176
     1
 62
   256
176
     0
 40
1.0
176
     0
 90
        2
176
     1
  1
strokes_ogs.tif
176
     1
290
     0
176
     1
 40
1.0
176
     1
 40
1.0
176
     1
  0
VISUALSTYLE
  5
34
102
{ACAD_REACTORS
330
29
102
}
330
29
100
AcDbVisualStyle
  2
Dim
 70
    11
177
     3
291
     1
 70
    58
 90
        2
176
     1
 90
        2
176
     1
 90
        0
176
     1
 90
        0
176
     1
 40
0.6
176
     1
 40
30.0
176
     1
 62
     7
420
 16777215
176
     1
 90
        1
176
     1
 90
        4
176
     1
 62
     7
176
     1
 62
   257
176
     1
 90
        1
176
     1
 90
        1
176
     1
 40
1.0
176
     1
 90
        8
176
     1
 62
     7
176
     1
 40
1.0
176
     1
 90
        1
176
     1
 90
        6
176
     1
 90
        2
176
     1
 62
     7
176
     1
 90
        5
176
     1
 90
        0
176
     1
 90
        0
176
     1
290
     0
176
     1
 90
        1
176
     1
 40
-50.0
176
     1
 90
        0
176
     1
290
     0
176
     1
290
     1
176
     1
290
     1
176
     1
290
     0
176
     1
290
     0
176
     1
290
     0
176
     1
290
     0
176
     1
290
     0
176
     1
290
     0
176
     1
 90
       50
176
     1
 40
0.0
176
     1
 40
1.0
176
     1
 90
        0
176
     1
 62
    18
420
        0
176
     1
 90
       50
176
     1
 90
        3
176
     1
 62
     5
420
      255
176
     1
290
     0
176
     1
 90
       50
176
     1
 90
       50
176
     1
 90
       50
176
     1
290
     0
176
     1
 90
       50
176
     1
 62
   256
176
     0
 40
1.0
176
     0
 90
        2
176
     1
  1
strokes_ogs.tif
176
     1
290
     0
176
     1
 40
1.0
176
     1
 40
1.0
176
     1
  0
VISUALSTYLE
  5
41
102
{ACAD_REACTORS
330
29
102
}
330
29
100
AcDbVisualStyle
  2
EdgeColorOff
 70
    22
177
     3
291
     1
 70
    58
 90
        2
176
     0
 90
        2
176
     0
 90
        0
176
     0
 90
        0
176
     0
 40
0.6
176
     0
 40
30.0
176
     0
 62
     7
420
 16777215
176
     0
 90
        1
176
     0
 90
        4
176
     0
 62
     7
176
     0
 62
   257
176
     0
 90
        1
176
     0
 90
        1
176
     0
 40
1.0
176
     0
 90
        8
176
     2
 62
     7
176
     0
 40
1.0
176
     0
 90
        1
176
     0
 90
        6
176
     0
 90
        2
176
     0
 62
     7
176
     0
 90
        5
176
     0
 90
        0
176
     0
 90
        0
176
     0
290
     0
176
     0
 90
        1
176
     0
 40
0.0
176
     0
 90
        0
176
     0
290
     0
176
     0
290
     1
176
     0
290
     1
176
     0
290
     0
176
     0
290
     0
176
     0
290
     0
176
     0
290
     0
176
     0
290
     0
176
     0
290
     0
176
     0
 90
       50
176
     0
 40
0.0
176
     0
 40
1.0
176
     0
 90
        0
176
     0
 62
    18
420
        0
176
     0
 90
       50
176
     0
 90
        3
176
     0
 62
     5
420
      255
176
     0
290
     0
176
     0
 90
       50
176
     0
 90
       50
176
     0
 90
       50
176
     0
290
     0
176
     0
 90
       50
176
     0
 62
   256
176
     0
 40
1.0
176
     0
 90
        2
176
     0
  1
strokes_ogs.tif
176
     0
290
     0
176
     0
 40
1.0
176
     0
 40
1.0
176
     0
  0
VISUALSTYLE
  5
38
102
{ACAD_REACTORS
330
29
102
}
330
29
100
AcDbVisualStyle
  2
Facepattern
 70
    15
177
     3
291
     1
 70
    58
 90
        2
176
     1
 90
        2
176
     1
 90
        0
176
     1
 90
        0
176
     1
 40
0.6
176
     1
 40
30.0
176
     1
 62
     7
420
 16777215
176
     1
 90
        1
176
     1
 90
        4
176
     1
 62
     7
176
     1
 62
   257
176
     1
 90
        1
176
     1
 90
        1
176
     1
 40
1.0
176
     1
 90
        8
176
     1
 62
     7
176
     1
 40
1.0
176
     1
 90
        1
176
     1
 90
        6
176
     1
 90
        2
176
     1
 62
     7
176
     1
 90
        5
176
     1
 90
        0
176
     1
 90
        0
176
     1
290
     0
176
     1
 90
        1
176
     1
 40
0.0
176
     1
 90
        0
176
     1
290
     0
176
     1
290
     1
176
     1
290
     1
176
     1
290
     0
176
     1
290
     0
176
     1
290
     0
176
     1
290
     0
176
     1
290
     0
176
     1
290
     0
176
     1
 90
       50
176
     1
 40
0.0
176
     1
 40
1.0
176
     1
 90
        0
176
     1
 62
    18
420
        0
176
     1
 90
       50
176
     1
 90
        3
176
     1
 62
     5
420
      255
176
     1
290
     0
176
     1
 90
       50
176
     1
 90
       50
176
     1
 90
       50
176
     1
290
     0
176
     1
 90
       50
176
     1
 62
   256
176
     0
 40
1.0
176
     0
 90
        2
176
     1
  1
strokes_ogs.tif
176
     1
290
     0
176
     1
 40
1.0
176
     1
 40
1.0
176
     1
  0
VISUALSTYLE
  5
2A
102
{ACAD_REACTORS
330
29
102
}
330
29
100
AcDbVisualStyle
  2
Flat
 70
     0
177
     3
291
     1
 70
    58
 90
        2
176
     1
 90
        1
176
     1
 90
        1
176
     1
 90
        2
176
     1
 40
0.6
176
     1
 40
30.0
176
     1
 62
     7
420
 16777215
176
     1
 90
        0
176
     1
 90
        0
176
     1
 62
     7
176
     1
 62
   257
176
     1
 90
        1
176
     1
 90
        1
176
     1
 40
1.0
176
     1
 90
        8
176
     1
 62
     7
176
     1
 40
1.0
176
     1
 90
        1
176
     1
 90
        6
176
     1
 90
        2
176
     1
 62
     7
176
     1
 90
        5
176
     1
 90
        0
176
     1
 90
        0
176
     1
290
     0
176
     1
 90
       13
176
     1
 40
0.0
176
     1
 90
        0
176
     1
290
     0
176
     1
290
     1
176
     1
290
     1
176
     1
290
     0
176
     1
290
     0
176
     1
290
     0
176
     1
290
     0
176
     1
290
     0
176
     1
290
     0
176
     1
 90
       50
176
     1
 40
0.0
176
     1
 40
1.0
176
     1
 90
        0
176
     1
 62
    18
420
        0
176
     1
 90
       50
176
     1
 90
        3
176
     1
 62
     5
420
      255
176
     1
290
     0
176
     1
 90
       50
176
     1
 90
       50
176
     1
 90
       50
176
     1
290
     0
176
     1
 90
       50
176
     1
 62
   256
176
     0
 40
1.0
176
     0
 90
        2
176
     1
  1
strokes_ogs.tif
176
     1
290
     0
176
     1
 40
1.0
176
     1
 40
1.0
176
     1
  0
VISUALSTYLE
  5
2B
102
{ACAD_REACTORS
330
29
102
}
330
29
100
AcDbVisualStyle
  2
FlatWithEdges
 70
     1
177
     3
291
     1
 70
    58
 90
        2
176
     1
 90
        1
176
     1
 90
        1
176
     1
 90
        2
176
     1
 40
0.6
176
     1
 40
30.0
176
     1
 62
     7
420
 16777215
176
     1
 90
        1
176
     1
 90
        0
176
     1
 62
     7
176
     1
 62
   257
176
     1
 90
        1
176
     1
 90
        1
176
     1
 40
1.0
176
     1
 90
        0
176
     1
 62
   257
176
     1
 40
1.0
176
     1
 90
        1
176
     1
 90
        6
176
     1
 90
        2
176
     1
 62
     7
176
     1
 90
        5
176
     1
 90
        0
176
     1
 90
        0
176
     1
290
     0
176
     1
 90
       13
176
     1
 40
0.0
176
     1
 90
        0
176
     1
290
     0
176
     1
290
     1
176
     1
290
     1
176
     1
290
     0
176
     1
290
     0
176
     1
290
     0
176
     1
290
     0
176
     1
290
     0
176
     1
290
     0
176
     1
 90
       50
176
     1
 40
0.0
176
     1
 40
1.0
176
     1
 90
        0
176
     1
 62
    18
420
        0
176
     1
 90
       50
176
     1
 90
        3
176
     1
 62
     5
420
      255
176
     1
290
     0
176
     1
 90
       50
176
     1
 90
       50
176
     1
 90
       50
176
     1
290
     0
176
     1
 90
       50
176
     1
 62
   256
176
     0
 40
1.0
176
     0
 90
        2
176
     1
  1
strokes_ogs.tif
176
     1
290
     0
176
     1
 40
1.0
176
     1
 40
1.0
176
     1
  0
VISUALSTYLE
  5
2C
102
{ACAD_REACTORS
330
29
102
}
330
29
100
AcDbVisualStyle
  2
Gouraud
 70
     2
177
     3
291
     1
 70
    58
 90
        2
176
     1
 90
        2
176
     1
 90
        1
176
     1
 90
        2
176
     1
 40
0.6
176
     1
 40
30.0
176
     1
 62
     7
420
 16777215
176
     1
 90
        0
176
     1
 90
        0
176
     1
 62
     7
176
     1
 62
   257
176
     1
 90
        1
176
     1
 90
        1
176
     1
 40
1.0
176
     1
 90
        0
176
     1
 62
     7
176
     1
 40
1.0
176
     1
 90
        1
176
     1
 90
        6
176
     1
 90
        2
176
     1
 62
     7
176
     1
 90
        5
176
     1
 90
        0
176
     1
 90
        0
176
     1
290
     0
176
     1
 90
       13
176
     1
 40
0.0
176
     1
 90
        0
176
     1
290
     0
176
     1
290
     1
176
     1
290
     1
176
     1
290
     0
176
     1
290
     0
176
     1
290
     0
176
     1
290
     0
176
     1
290
     0
176
     1
290
     0
176
     1
 90
       50
176
     1
 40
0.0
176
     1
 40
1.0
176
     1
 90
        0
176
     1
 62
    18
420
        0
176
     1
 90
       50
176
     1
 90
        3
176
     1
 62
     5
420
      255
176
     1
290
     0
176
     1
 90
       50
176
     1
 90
       50
176
     1
 90
       50
176
     1
290
     0
176
     1
 90
       50
176
     1
 62
   256
176
     0
 40
1.0
176
     0
 90
        2
176
     1
  1
strokes_ogs.tif
176
     1
290
     0
176
     1
 40
1.0
176
     1
 40
1.0
176
     1
  0
VISUALSTYLE
  5
2D
102
{ACAD_REACTORS
330
29
102
}
330
29
100
AcDbVisualStyle
  2
GouraudWithEdges
 70
     3
177
     3
291
     1
 70
    58
 90
        2
176
     1
 90
        2
176
     1
 90
        1
176
     1
 90
        2
176
     1
 40
0.6
176
     1
 40
30.0
176
     1
 62
     7
420
 16777215
176
     1
 90
        1
176
     1
 90
        0
176
     1
 62
     7
176
     1
 62
   257
176
     1
 90
        1
176
     1
 90
        1
176
     1
 40
1.0
176
     1
 90
        0
176
     1
 62
   257
176
     1
 40
1.0
176
     1
 90
        1
176
     1
 90
        6
176
     1
 90
        2
176
     1
 62
     7
176
     1
 90
        5
176
     1
 90
        0
176
     1
 90
        0
176
     1
290
     0
176
     1
 90
       13
176
     1
 40
0.0
176
     1
 90
        0
176
     1
290
     0
176
     1
290
     1
176
     1
290
     1
176
     1
290
     0
176
     1
290
     0
176
     1
290
     0
176
     1
290
     0
176
     1
290
     0
176
     1
290
     0
176
     1
 90
       50
176
     1
 40
0.0
176
     1
 40
1.0
176
     1
 90
        0
176
     1
 62
    18
420
        0
176
     1
 90
       50
176
     1
 90
        3
176
     1
 62
     5
420
      255
176
     1
290
     0
176
     1
 90
       50
176
     1
 90
       50
176
     1
 90
       50
176
     1
290
     0
176
     1
 90
       50
176
     1
 62
   256
176
     0
 40
1.0
176
     0
 90
        2
176
     1
  1
strokes_ogs.tif
176
     1
290
     0
176
     1
 40
1.0
176
     1
 40
1.0
176
     1
  0
VISUALSTYLE
  5
31
102
{ACAD_REACTORS
330
29
102
}
330
29
100
AcDbVisualStyle
  2
Hidden
 70
     6
177
     3
291
     0
 70
    58
 90
        1
176
     1
 90
        2
176
     1
 90
        2
176
     1
 90
        0
176
     1
 40
0.6
176
     1
 40
30.0
176
     1
 62
     7
420
 16777215
176
     1
 90
        2
176
     1
 90
        2
176
     1
 62
     7
176
     1
 62
   257
176
     1
 90
        2
176
     1
 90
        1
176
     1
 40
40.0
176
     1
 90
        0
176
     1
 62
   257
176
     1
 40
1.0
176
     1
 90
        1
176
     1
 90
        6
176
     1
 90
        2
176
     1
 62
     7
176
     1
 90
        3
176
     1
 90
        0
176
     1
 90
        0
176
     1
290
     0
176
     1
 90
        1
176
     1
 40
0.0
176
     1
 90
        0
176
     1
290
     0
176
     1
290
     1
176
     1
290
     1
176
     1
290
     0
176
     1
290
     0
176
     1
290
     0
176
     1
290
     0
176
     1
290
     0
176
     1
290
     0
176
     1
 90
       50
176
     1
 40
0.0
176
     1
 40
1.0
176
     1
 90
        0
176
     1
 62
    18
420
        0
176
     1
 90
       50
176
     1
 90
        3
176
     1
 62
     5
420
      255
176
     1
290
     0
176
     1
 90
       50
176
     1
 90
       50
176
     1
 90
       50
176
     1
290
     0
176
     1
 90
       50
176
     1
 62
   256
176
     0
 40
1.0
176
     0
 90
        2
176
     1
  1
strokes_ogs.tif
176
     1
290
     0
176
     1
 40
1.0
176
     1
 40
1.0
176
     1
  0
VISUALSTYLE
  5
3F
102
{ACAD_REACTORS
330
29
102
}
330
29
100
AcDbVisualStyle
  2
JitterOff
 70
    20
177
     3
291
     1
 70
    58
 90
        2
176
     0
 90
        2
176
     0
 90
        0
176
     0
 90
        0
176
     0
 40
0.6
176
     0
 40
30.0
176
     0
 62
     7
420
 16777215
176
     0
 90
        1
176
     0
 90
        4
176
     0
 62
     7
176
     0
 62
   257
176
     0
 90
        1
176
     0
 90
        1
176
     0
 40
1.0
176
     0
 90
       10
176
     2
 62
     7
176
     0
 40
1.0
176
     0
 90
        1
176
     0
 90
        6
176
     0
 90
        2
176
     0
 62
     7
176
     0
 90
        5
176
     0
 90
        0
176
     0
 90
        0
176
     0
290
     0
176
     0
 90
        1
176
     0
 40
0.0
176
     0
 90
        0
176
     0
290
     0
176
     0
290
     1
176
     0
290
     1
176
     0
290
     0
176
     0
290
     0
176
     0
290
     0
176
     0
290
     0
176
     0
290
     0
176
     0
290
     0
176
     0
 90
       50
176
     0
 40
0.0
176
     0
 40
1.0
176
     0
 90
        0
176
     0
 62
    18
420
        0
176
     0
 90
       50
176
     0
 90
        3
176
     0
 62
     5
420
      255
176
     0
290
     0
176
     0
 90
       50
176
     0
 90
       50
176
     0
 90
       50
176
     0
290
     0
176
     0
 90
       50
176
     0
 62
   256
176
     0
 40
1.0
176
     0
 90
        2
176
     0
  1
strokes_ogs.tif
176
     0
290
     0
176
     0
 40
1.0
176
     0
 40
1.0
176
     0
  0
VISUALSTYLE
  5
37
102
{ACAD_REACTORS
330
29
102
}
330
29
100
AcDbVisualStyle
  2
Linepattern
 70
    14
177
     3
291
     1
 70
    58
 90
        2
176
     1
 90
        2
176
     1
 90
        0
176
     1
 90
        0
176
     1
 40
0.6
176
     1
 40
30.0
176
     1
 62
     7
420
 16777215
176
     1
 90
        1
176
     1
 90
        4
176
     1
 62
     7
176
     1
 62
   257
176
     1
 90
        7
176
     1
 90
        7
176
     1
 40
1.0
176
     1
 90
        8
176
     1
 62
     7
176
     1
 40
1.0
176
     1
 90
        1
176
     1
 90
        6
176
     1
 90
        2
176
     1
 62
     7
176
     1
 90
        5
176
     1
 90
        0
176
     1
 90
        0
176
     1
290
     0
176
     1
 90
        1
176
     1
 40
0.0
176
     1
 90
        0
176
     1
290
     0
176
     1
290
     1
176
     1
290
     1
176
     1
290
     0
176
     1
290
     0
176
     1
290
     0
176
     1
290
     0
176
     1
290
     0
176
     1
290
     0
176
     1
 90
       50
176
     1
 40
0.0
176
     1
 40
1.0
176
     1
 90
        0
176
     1
 62
    18
420
        0
176
     1
 90
       50
176
     1
 90
        3
176
     1
 62
     5
420
      255
176
     1
290
     0
176
     1
 90
       50
176
     1
 90
       50
176
     1
 90
       50
176
     1
290
     0
176
     1
 90
       50
176
     1
 62
   256
176
     0
 40
1.0
176
     0
 90
        2
176
     1
  1
strokes_ogs.tif
176
     1
290
     0
176
     1
 40
1.0
176
     1
 40
1.0
176
     1
  0
VISUALSTYLE
  5
40
102
{ACAD_REACTORS
330
29
102
}
330
29
100
AcDbVisualStyle
  2
OverhangOff
 70
    21
177
     3
291
     1
 70
    58
 90
        2
176
     0
 90
        2
176
     0
 90
        0
176
     0
 90
        0
176
     0
 40
0.6
176
     0
 40
30.0
176
     0
 62
     7
420
 16777215
176
     0
 90
        1
176
     0
 90
        4
176
     0
 62
     7
176
     0
 62
   257
176
     0
 90
        1
176
     0
 90
        1
176
     0
 40
1.0
176
     0
 90
        9
176
     2
 62
     7
176
     0
 40
1.0
176
     0
 90
        1
176
     0
 90
        6
176
     0
 90
        2
176
     0
 62
     7
176
     0
 90
        5
176
     0
 90
        0
176
     0
 90
        0
176
     0
290
     0
176
     0
 90
        1
176
     0
 40
0.0
176
     0
 90
        0
176
     0
290
     0
176
     0
290
     1
176
     0
290
     1
176
     0
290
     0
176
     0
290
     0
176
     0
290
     0
176
     0
290
     0
176
     0
290
     0
176
     0
290
     0
176
     0
 90
       50
176
     0
 40
0.0
176
     0
 40
1.0
176
     0
 90
        0
176
     0
 62
    18
420
        0
176
     0
 90
       50
176
     0
 90
        3
176
     0
 62
     5
420
      255
176
     0
290
     0
176
     0
 90
       50
176
     0
 90
       50
176
     0
 90
       50
176
     0
290
     0
176
     0
 90
       50
176
     0
 62
   256
176
     0
 40
1.0
176
     0
 90
        2
176
     0
  1
strokes_ogs.tif
176
     0
290
     0
176
     0
 40
1.0
176
     0
 40
1.0
176
     0
  0
VISUALSTYLE
  5
33
102
{ACAD_REACTORS
330
29
102
}
330
29
100
AcDbVisualStyle
  2
Realistic
 70
     8
177
     3
291
     0
 70
    58
 90
        2
176
     1
 90
        3
176
     1
 90
        0
176
     1
 90
        2
176
     1
 40
0.6
176
     1
 40
30.0
176
     1
 62
     7
420
 16777215
176
     1
 90
        0
176
     1
 90
        0
176
     1
 62
     7
176
     1
 62
   257
176
     1
 90
        1
176
     1
 90
        1
176
     1
 40
1.0
176
     1
 90
        8
176
     1
 62
   257
176
     1
 40
1.0
176
     1
 90
        1
176
     1
 90
        6
176
     1
 90
        2
176
     1
 62
     7
176
     1
 90
        3
176
     1
 90
        0
176
     1
 90
        0
176
     1
290
     0
176
     1
 90
       13
176
     1
 40
0.0
176
     1
 90
        0
176
     1
290
     0
176
     1
290
     1
176
     1
290
     1
176
     1
290
     0
176
     1
290
     0
176
     1
290
     0
176
     1
290
     0
176
     1
290
     0
176
     1
290
     0
176
     1
 90
       50
176
     1
 40
0.0
176
     1
 40
1.0
176
     1
 90
        0
176
     1
 62
    18
420
        0
176
     1
 90
       50
176
     1
 90
        3
176
     1
 62
     5
420
      255
176
     1
290
     0
176
     1
 90
       50
176
     1
 90
       50
176
     1
 90
       50
176
     1
290
     0
176
     1
 90
       50
176
     1
 62
   256
176
     0
 40
1.0
176
     0
 90
        2
176
     1
  1
strokes_ogs.tif
176
     1
290
     0
176
     1
 40
1.0
176
     1
 40
1.0
176
     1
  0
VISUALSTYLE
  5
3E
102
{ACAD_REACTORS
330
29
102
}
330
29
100
AcDbVisualStyle
  2
Shaded
 70
    27
177
     3
291
     0
 70
    58
 90
        2
176
     1
 90
        2
176
     1
 90
        1
176
     1
 90
        2
176
     1
 40
0.6
176
     1
 40
30.0
176
     1
 62
     7
420
 16777215
176
     1
 90
        0
176
     1
 90
        4
176
     1
 62
     7
176
     1
 62
   257
176
     1
 90
        1
176
     1
 90
        1
176
     1
 40
1.0
176
     1
 90
        8
176
     1
 62
   257
176
     1
 40
1.0
176
     1
 90
        1
176
     1
 90
        6
176
     1
 90
        2
176
     1
 62
     8
420
  7895160
176
     1
 90
        3
176
     1
 90
        0
176
     1
 90
        0
176
     1
290
     0
176
     1
 90
        5
176
     1
 40
0.0
176
     1
 90
        0
176
     1
290
     0
176
     1
290
     1
176
     1
290
     1
176
     1
290
     0
176
     1
290
     0
176
     1
290
     0
176
     1
290
     0
176
     1
290
     0
176
     1
290
     0
176
     1
 90
       50
176
     1
 40
0.0
176
     1
 40
1.0
176
     1
 90
        0
176
     1
 62
    18
420
        0
176
     1
 90
       50
176
     1
 90
        3
176
     1
 62
     5
420
      255
176
     1
290
     0
176
     1
 90
       50
176
     1
 90
       50
176
     1
 90
       50
176
     1
290
     0
176
     1
 90
       50
176
     1
 62
   256
176
     0
 40
1.0
176
     0
 90
        2
176
     1
  1
strokes_ogs.tif
176
     1
290
     0
176
     1
 40
1.0
176
     1
 40
1.0
176
     1
  0
VISUALSTYLE
  5
3D
102
{ACAD_REACTORS
330
29
102
}
330
29
100
AcDbVisualStyle
  2
Shaded with edges
 70
    26
177
     3
291
     0
 70
    58
 90
        2
176
     1
 90
        2
176
     1
 90
        1
176
     1
 90
        2
176
     1
 40
0.6
176
     1
 40
30.0
176
     1
 62
     7
420
 16777215
176
     1
 90
        1
176
     1
 90
        2
176
     1
 62
     7
176
     1
 62
   257
176
     1
 90
        2
176
     1
 90
        1
176
     1
 40
1.0
176
     1
 90
        8
176
     1
 62
   257
176
     1
 40
1.0
176
     1
 90
        1
176
     1
 90
        6
176
     1
 90
        2
176
     1
 62
     7
176
     1
 90
        3
176
     1
 90
        0
176
     1
 90
        0
176
     1
290
     0
176
     1
 90
        5
176
     1
 40
0.0
176
     1
 90
        0
176
     1
290
     0
176
     1
290
     1
176
     1
290
     1
176
     1
290
     0
176
     1
290
     0
176
     1
290
     0
176
     1
290
     0
176
     1
290
     0
176
     1
290
     0
176
     1
 90
       50
176
     1
 40
0.0
176
     1
 40
1.0
176
     1
 90
        0
176
     1
 62
    18
420
        0
176
     1
 90
       50
176
     1
 90
        3
176
     1
 62
     5
420
      255
176
     1
290
     0
176
     1
 90
       50
176
     1
 90
       50
176
     1
 90
       50
176
     1
290
     0
176
     1
 90
       50
176
     1
 62
   256
176
     0
 40
1.0
176
     0
 90
        2
176
     1
  1
strokes_ogs.tif
176
     1
290
     0
176
     1
 40
1.0
176
     1
 40
1.0
176
     1
  0
VISUALSTYLE
  5
3A
102
{ACAD_REACTORS
330
29
102
}
330
29
100
AcDbVisualStyle
  2
Shades of Gray
 70
    23
177
     3
291
     0
 70
    58
 90
        2
176
     1
 90
        2
176
     1
 90
        3
176
     1
 90
        0
176
     1
 40
0.6
176
     1
 40
30.0
176
     1
 62
     7
420
 16777215
176
     1
 90
        2
176
     1
 90
        2
176
     1
 62
     7
176
     1
 62
     7
176
     1
 90
        1
176
     1
 90
        1
176
     1
 40
40.0
176
     1
 90
        8
176
     1
 62
     7
176
     1
 40
1.0
176
     1
 90
        1
176
     1
 90
        6
176
     1
 90
        2
176
     1
 62
     7
176
     1
 90
        3
176
     1
 90
        0
176
     1
 90
        0
176
     1
290
     0
176
     1
 90
        1
176
     1
 40
0.0
176
     1
 90
        0
176
     1
290
     0
176
     1
290
     1
176
     1
290
     1
176
     1
290
     0
176
     1
290
     0
176
     1
290
     0
176
     1
290
     0
176
     1
290
     0
176
     1
290
     0
176
     1
 90
       50
176
     1
 40
0.0
176
     1
 40
1.0
176
     1
 90
        0
176
     1
 62
    18
420
        0
176
     1
 90
       50
176
     1
 90
        3
176
     1
 62
     5
420
      255
176
     1
290
     0
176
     1
 90
       50
176
     1
 90
       50
176
     1
 90
       50
176
     1
290
     0
176
     1
 90
       50
176
     1
 62
   256
176
     0
 40
1.0
176
     0
 90
        2
176
     1
  1
strokes_ogs.tif
176
     1
290
     0
176
     1
 40
1.0
176
     1
 40
1.0
176
     1
  0
VISUALSTYLE
  5
3B
102
{ACAD_REACTORS
330
29
102
}
330
29
100
AcDbVisualStyle
  2
Sketchy
 70
    24
177
     3
291
     0
 70
    58
 90
        1
176
     1
 90
        2
176
     1
 90
        2
176
     1
 90
        0
176
     1
 40
0.6
176
     1
 40
30.0
176
     1
 62
     7
420
 16777215
176
     1
 90
        2
176
     1
 90
        2
176
     1
 62
     7
176
     1
 62
     7
176
     1
 90
        1
176
     1
 90
        1
176
     1
 40
40.0
176
     1
 90
       11
176
     1
 62
     7
176
     1
 40
1.0
176
     1
 90
        1
176
     1
 90
        6
176
     1
 90
        2
176
     1
 62
     7
176
     1
 90
        6
176
     1
 90
        0
176
     1
 90
        0
176
     1
290
     0
176
     1
 90
        1
176
     1
 40
0.0
176
     1
 90
        0
176
     1
290
     0
176
     1
290
     1
176
     1
290
     1
176
     1
290
     0
176
     1
290
     0
176
     1
290
     0
176
     1
290
     0
176
     1
290
     0
176
     1
290
     0
176
     1
 90
       50
176
     1
 40
0.0
176
     1
 40
1.0
176
     1
 90
        0
176
     1
 62
    18
420
        0
176
     1
 90
       50
176
     1
 90
        3
176
     1
 62
     5
420
      255
176
     1
290
     0
176
     1
 90
       50
176
     1
 90
       50
176
     1
 90
       50
176
     1
290
     0
176
     1
 90
       50
176
     1
 62
   256
176
     0
 40
1.0
176
     0
 90
        2
176
     1
  1
strokes_ogs.tif
176
     1
290
     0
176
     1
 40
1.0
176
     1
 40
1.0
176
     1
  0
VISUALSTYLE
  5
36
102
{ACAD_REACTORS
330
29
102
}
330
29
100
AcDbVisualStyle
  2
Thicken
 70
    13
177
     3
291
     1
 70
    58
 90
        2
176
     1
 90
        2
176
     1
 90
        0
176
     1
 90
        0
176
     1
 40
0.6
176
     1
 40
30.0
176
     1
 62
     7
420
 16777215
176
     1
 90
        1
176
     1
 90
        4
176
     1
 62
     7
176
     1
 62
   257
176
     1
 90
        1
176
     1
 90
        1
176
     1
 40
1.0
176
     1
 90
       12
176
     1
 62
     7
176
     1
 40
1.0
176
     1
 90
        1
176
     1
 90
        6
176
     1
 90
        2
176
     1
 62
     7
176
     1
 90
        5
176
     1
 90
        0
176
     1
 90
        0
176
     1
290
     0
176
     1
 90
        1
176
     1
 40
0.0
176
     1
 90
        0
176
     1
290
     0
176
     1
290
     1
176
     1
290
     1
176
     1
290
     0
176
     1
290
     0
176
     1
290
     0
176
     1
290
     0
176
     1
290
     0
176
     1
290
     0
176
     1
 90
       50
176
     1
 40
0.0
176
     1
 40
1.0
176
     1
 90
        0
176
     1
 62
    18
420
        0
176
     1
 90
       50
176
     1
 90
        3
176
     1
 62
     5
420
      255
176
     1
290
     0
176
     1
 90
       50
176
     1
 90
       50
176
     1
 90
       50
176
     1
290
     0
176
     1
 90
       50
176
     1
 62
   256
176
     0
 40
1.0
176
     0
 90
        2
176
     1
  1
strokes_ogs.tif
176
     1
290
     0
176
     1
 40
1.0
176
     1
 40
1.0
176
     1
  0
VISUALSTYLE
  5
30
102
{ACAD_REACTORS
330
29
102
}
330
29
100
AcDbVisualStyle
  2
Wireframe
 70
     5
177
     3
291
     0
 70
    58
 90
        0
176
     1
 90
        2
176
     1
 90
        0
176
     1
 90
        0
176
     1
 40
0.6
176
     1
 40
30.0
176
     1
 62
     7
420
 16777215
176
     1
 90
        1
176
     1
 90
        4
176
     1
 62
     7
176
     1
 62
   257
176
     1
 90
        1
176
     1
 90
        1
176
     1
 40
1.0
176
     1
 90
        0
176
     1
 62
   257
176
     1
 40
1.0
176
     1
 90
        1
176
     1
 90
        6
176
     1
 90
        2
176
     1
 62
     7
176
     1
 90
        3
176
     1
 90
        0
176
     1
 90
        0
176
     1
290
     0
176
     1
 90
        1
176
     1
 40
0.0
176
     1
 90
        0
176
     1
290
     0
176
     1
290
     1
176
     1
290
     1
176
     1
290
     0
176
     1
290
     0
176
     1
290
     0
176
     1
290
     0
176
     1
290
     0
176
     1
290
     0
176
     1
 90
       50
176
     1
 40
0.0
176
     1
 40
1.0
176
     1
 90
        0
176
     1
 62
    18
420
        0
176
     1
 90
       50
176
     1
 90
        3
176
     1
 62
     5
420
      255
176
     1
290
     0
176
     1
 90
       50
176
     1
 90
       50
176
     1
 90
       50
176
     1
290
     0
176
     1
 90
       50
176
     1
 62
   256
176
     0
 40
1.0
176
     0
 90
        2
176
     1
  1
strokes_ogs.tif
176
     1
290
     0
176
     1
 40
1.0
176
     1
 40
1.0
176
     1
  0
VISUALSTYLE
  5
3C
102
{ACAD_REACTORS
330
29
102
}
330
29
100
AcDbVisualStyle
  2
X-Ray
 70
    25
177
     3
291
     0
 70
    58
 90
        2
176
     1
 90
        2
176
     1
 90
        1
176
     1
 90
        1
176
     1
 40
0.5
176
     1
 40
30.0
176
     1
 62
     7
420
 16777215
176
     1
 90
        1
176
     1
 90
        0
176
     1
 62
     7
176
     1
 62
   257
176
     1
 90
        1
176
     1
 90
        1
176
     1
 40
1.0
176
     1
 90
        8
176
     1
 62
     7
176
     1
 40
1.0
176
     1
 90
        1
176
     1
 90
        6
176
     1
 90
        2
176
     1
 62
     7
176
     1
 90
        3
176
     1
 90
        0
176
     1
 90
        0
176
     1
290
     0
176
     1
 90
       13
176
     1
 40
0.0
176
     1
 90
        0
176
     1
290
     0
176
     1
290
     1
176
     1
290
     1
176
     1
290
     0
176
     1
290
     0
176
     1
290
     0
176
     1
290
     0
176
     1
290
     0
176
     1
290
     0
176
     1
 90
       50
176
     1
 40
0.0
176
     1
 40
1.0
176
     1
 90
        0
176
     1
 62
    18
420
        0
176
     1
 90
       50
176
     1
 90
        3
176
     1
 62
     5
420
      255
176
     1
290
     0
176
     1
 90
       50
176
     1
 90
       50
176
     1
 90
       50
176
     1
290
     0
176
     1
 90
       50
176
     1
 62
   256
176
     0
 40
1.0
176
     0
 90
        2
176
     1
  1
strokes_ogs.tif
176
     1
290
     0
176
     1
 40
1.0
176
     1
 40
1.0
176
     1
  0
DICTIONARYVAR
  5
276
102
{ACAD_REACTORS
330
271
102
}
330
271
100
DictionaryVariables
280
     0
  1
1:1
  0
DICTIONARYVAR
  5
273
102
{ACAD_REACTORS
330
271
102
}
330
271
100
DictionaryVariables
280
     0
  1
STANDARD
  0
DICTIONARYVAR
  5
272
102
{ACAD_REACTORS
330
271
102
}
330
271
100
DictionaryVariables
280
     0
  1
STANDARD
  0
DICTIONARYVAR
  5
274
102
{ACAD_REACTORS
330
271
102
}
330
271
100
DictionaryVariables
280
     0
  1
Imperial24
  0
DICTIONARYVAR
  5
275
102
{ACAD_REACTORS
330
271
102
}
330
271
100
DictionaryVariables
280
     0
  1
Imperial24
  0
DICTIONARY
  5
1A
330
19
100
AcDbDictionary
280
     1
281
     1
  3
BUMPTILE
360
1C
  3
DIFFUSETILE
360
1B
  3
OPACITYTILE
360
1F
  3
REFLECTIONTILE
360
1E
  3
REFRACTIONTILE
360
20
  3
SPECULARTILE
360
1D
  0
DICTIONARY
  5
12
330
11
100
AcDbDictionary
280
     1
281
     1
  3
BUMPTILE
360
14
  3
DIFFUSETILE
360
13
  3
OPACITYTILE
360
17
  3
REFLECTIONTILE
360
16
  3
REFRACTIONTILE
360
18
  3
SPECULARTILE
360
15
  0
DICTIONARY
  5
22
330
21
100
AcDbDictionary
280
     1
281
     1
  3
BUMPTILE
360
24
  3
DIFFUSETILE
360
23
  3
OPACITYTILE
360
27
  3
REFLECTIONTILE
360
26
  3
REFRACTIONTILE
360
28
  3
SPECULARTILE
360
25
  0
DICTIONARY
  5
277
330
65
100
AcDbDictionary
280
     1
281
     1
  3
ACAD_ROUNDTRIP_2008_TABLESTYLE_CELLSTYLEMAP
360
278
  0
XRECORD
  5
1C
102
{ACAD_REACTORS
330
1A
102
}
330
1A
100
AcDbXrecord
280
     1
270
     1
271
     1
  0
XRECORD
  5
1B
102
{ACAD_REACTORS
330
1A
102
}
330
1A
100
AcDbXrecord
280
     1
270
     1
271
     1
  0
XRECORD
  5
1F
102
{ACAD_REACTORS
330
1A
102
}
330
1A
100
AcDbXrecord
280
     1
270
     1
271
     1
  0
XRECORD
  5
1E
102
{ACAD_REACTORS
330
1A
102
}
330
1A
100
AcDbXrecord
280
     1
270
     1
271
     1
  0
XRECORD
  5
20
102
{ACAD_REACTORS
330
1A
102
}
330
1A
100
AcDbXrecord
280
     1
270
     1
271
     1
  0
XRECORD
  5
1D
102
{ACAD_REACTORS
330
1A
102
}
330
1A
100
AcDbXrecord
280
     1
270
     1
271
     1
  0
XRECORD
  5
14
102
{ACAD_REACTORS
330
12
102
}
330
12
100
AcDbXrecord
280
     1
270
     1
271
     1
  0
XRECORD
  5
13
102
{ACAD_REACTORS
330
12
102
}
330
12
100
AcDbXrecord
280
     1
270
     1
271
     1
  0
XRECORD
  5
17
102
{ACAD_REACTORS
330
12
102
}
330
12
100
AcDbXrecord
280
     1
270
     1
271
     1
  0
XRECORD
  5
16
102
{ACAD_REACTORS
330
12
102
}
330
12
100
AcDbXrecord
280
     1
270
     1
271
     1
  0
XRECORD
  5
18
102
{ACAD_REACTORS
330
12
102
}
330
12
100
AcDbXrecord
280
     1
270
     1
271
     1
  0
XRECORD
  5
15
102
{ACAD_REACTORS
330
12
102
}
330
12
100
AcDbXrecord
280
     1
270
     1
271
     1
  0
XRECORD
  5
24
102
{ACAD_REACTORS
330
22
102
}
330
22
100
AcDbXrecord
280
     1
270
     1
271
     1
  0
XRECORD
  5
23
102
{ACAD_REACTORS
330
22
102
}
330
22
100
AcDbXrecord
280
     1
270
     1
271
     1
  0
XRECORD
  5
27
102
{ACAD_REACTORS
330
22
102
}
330
22
100
AcDbXrecord
280
     1
270
     1
271
     1
  0
XRECORD
  5
26
102
{ACAD_REACTORS
330
22
102
}
330
22
100
AcDbXrecord
280
     1
270
     1
271
     1
  0
XRECORD
  5
28
102
{ACAD_REACTORS
330
22
102
}
330
22
100
AcDbXrecord
280
     1
270
     1
271
     1
  0
XRECORD
  5
25
102
{ACAD_REACTORS
330
22
102
}
330
22
100
AcDbXrecord
280
     1
270
     1
271
     1
  0
CELLSTYLEMAP
  5
278
102
{ACAD_REACTORS
330
277
102
}
330
277
100
AcDbCellStyleMap
 90
        3
300
CELLSTYLE
  1
TABLEFORMAT_BEGIN
 90
        5
170
     1
 91
        0
 92
    32768
 62
   257
 93
        1
300
CONTENTFORMAT
  1
CONTENTFORMAT_BEGIN
 90
        0
 91
        0
 92
      512
 93
        0
300

 40
0.0
140
1.0
 94
        5
 62
     0
340
55
144
0.25
309
CONTENTFORMAT_END
171
     0
 94
        0
309
TABLEFORMAT_END
  1
CELLSTYLE_BEGIN
 90
        1
 91
        1
300
_TITLE
309
CELLSTYLE_END
300
CELLSTYLE
  1
TABLEFORMAT_BEGIN
 90
        5
170
     1
 91
        0
 92
        0
 62
   257
 93
        1
300
CONTENTFORMAT
  1
CONTENTFORMAT_BEGIN
 90
        0
 91
        0
 92
      512
 93
        0
300

 40
0.0
140
1.0
 94
        5
 62
     0
340
55
144
0.18
309
CONTENTFORMAT_END
171
     0
 94
        0
309
TABLEFORMAT_END
  1
CELLSTYLE_BEGIN
 90
        2
 91
        1
300
_HEADER
309
CELLSTYLE_END
300
CELLSTYLE
  1
TABLEFORMAT_BEGIN
 90
        5
170
     1
 91
        0
 92
        0
 62
   257
 93
        1
300
CONTENTFORMAT
  1
CONTENTFORMAT_BEGIN
 90
        0
 91
        0
 92
      512
 93
        0
300

 40
0.0
140
1.0
 94
        2
 62
     0
340
55
144
0.18
309
CONTENTFORMAT_END
171
     0
 94
        0
309
TABLEFORMAT_END
  1
CELLSTYLE_BEGIN
 90
        3
 91
        2
300
_DATA
309
CELLSTYLE_END
  0
ENDSEC
  0
EOF
