  0
SECTION
  2
HEADER
  9
$ACADVER
  1
AC1024
  9
$ACADMAINTVER
 70
     6
  9
$DWGCODEPAGE
  3
ANSI_1252
  9
$INSBASE
 10
0.0
 20
0.0
 30
0.0
  9
$EXTMIN
 10
1.000000000000000E+20
 20
1.000000000000000E+20
 30
1.000000000000000E+20
  9
$EXTMAX
 10
-1.000000000000000E+20
 20
-1.000000000000000E+20
 30
-1.000000000000000E+20
  9
$LIMMIN
 10
0.0
 20
0.0
  9
$LIMMAX
 10
12.0
 20
9.0
  9
$ORTHOMODE
 70
     0
  9
$REGENMODE
 70
     1
  9
$FILLMODE
 70
     1
  9
$QTEXTMODE
 70
     0
  9
$MIRRTEXT
 70
     1
  9
$LTSCALE
 40
1.0
  9
$ATTMODE
 70
     1
  9
$TEXTSIZE
 40
0.2
  9
$TRACEWID
 40
0.05
  9
$TEXTSTYLE
  7
Standard
  9
$CLAYER
  8
0
  9
$CELTYPE
  6
ByLayer
  9
$CECOLOR
 62
   256
  9
$CELTSCALE
 40
1.0
  9
$DISPSILH
 70
     0
  9
$DIMSCALE
 40
1.0
  9
$DIMASZ
 40
0.18
  9
$DIMEXO
 40
0.0625
  9
$DIMDLI
 40
0.38
  9
$DIMRND
 40
0.0
  9
$DIMDLE
 40
0.0
  9
$DIMEXE
 40
0.18
  9
$DIMTP
 40
0.0
  9
$DIMTM
 40
0.0
  9
$DIMTXT
 40
0.18
  9
$DIMCEN
 40
0.09
  9
$DIMTSZ
 40
0.0
  9
$DIMTOL
 70
     0
  9
$DIMLIM
 70
     0
  9
$DIMTIH
 70
     1
  9
$DIMTOH
 70
     1
  9
$DIMSE1
 70
     0
  9
$DIMSE2
 70
     0
  9
$DIMTAD
 70
     0
  9
$DIMZIN
 70
     0
  9
$DIMBLK
  1

  9
$DIMASO
 70
     1
  9
$DIMSHO
 70
     1
  9
$DIMPOST
  1

  9
$DIMAPOST
  1

  9
$DIMALT
 70
     0
  9
$DIMALTD
 70
     2
  9
$DIMALTF
 40
25.4
  9
$DIMLFAC
 40
1.0
  9
$DIMTOFL
 70
     0
  9
$DIMTVP
 40
0.0
  9
$DIMTIX
 70
     0
  9
$DIMSOXD
 70
     0
  9
$DIMSAH
 70
     0
  9
$DIMBLK1
  1

  9
$DIMBLK2
  1

  9
$DIMSTYLE
  2
Standard
  9
$DIMCLRD
 70
     0
  9
$DIMCLRE
 70
     0
  9
$DIMCLRT
 70
     0
  9
$DIMTFAC
 40
1.0
  9
$DIMGAP
 40
0.09
  9
$DIMJUST
 70
     0
  9
$DIMSD1
 70
     0
  9
$DIMSD2
 70
     0
  9
$DIMTOLJ
 70
     1
  9
$DIMTZIN
 70
     0
  9
$DIMALTZ
 70
     0
  9
$DIMALTTZ
 70
     0
  9
$DIMUPT
 70
     0
  9
$DIMDEC
 70
     4
  9
$DIMTDEC
 70
     4
  9
$DIMALTU
 70
     2
  9
$DIMALTTD
 70
     2
  9
$DIMTXSTY
  7
Standard
  9
$DIMAUNIT
 70
     0
  9
$DIMADEC
 70
     0
  9
$DIMALTRND
 40
0.0
  9
$DIMAZIN
 70
     0
  9
$DIMDSEP
 70
    46
  9
$DIMATFIT
 70
     3
  9
$DIMFRAC
 70
     0
  9
$DIMLDRBLK
  1

  9
$DIMLUNIT
 70
     2
  9
$DIMLWD
 70
    -2
  9
$DIMLWE
 70
    -2
  9
$DIMTMOVE
 70
     0
  9
$DIMFXL
 40
1.0
  9
$DIMFXLON
 70
     0
  9
$DIMJOGANG
 40
0.7853981633974483
  9
$DIMTFILL
 70
     0
  9
$DIMTFILLCLR
 70
     0
  9
$DIMARCSYM
 70
     0
  9
$DIMLTYPE
  6

  9
$DIMLTEX1
  6

  9
$DIMLTEX2
  6

  9
$DIMTXTDIRECTION
 70
     0
  9
$LUNITS
 70
     2
  9
$LUPREC
 70
     4
  9
$SKETCHINC
 40
0.1
  9
$FILLETRAD
 40
0.5
  9
$AUNITS
 70
     0
  9
$AUPREC
 70
     0
  9
$MENU
  1
.
  9
$ELEVATION
 40
0.0
  9
$PELEVATION
 40
0.0
  9
$THICKNESS
 40
0.0
  9
$LIMCHECK
 70
     0
  9
$CHAMFERA
 40
0.5
  9
$CHAMFERB
 40
0.5
  9
$CHAMFERC
 40
1.0
  9
$CHAMFERD
 40
0.0
  9
$SKPOLY
 70
     0
  9
$TDCREATE
 40
2459269.820237674
  9
$TDUCREATE
 40
2459269.778571007
  9
$TDUPDATE
 40
2459269.820243958
  9
$TDUUPDATE
 40
2459269.778577292
  9
$TDINDWG
 40
0.0000000116
  9
$TDUSRTIMER
 40
0.0000000116
  9
$USRTIMER
 70
     1
  9
$ANGBASE
 50
0.0
  9
$ANGDIR
 70
     0
  9
$PDMODE
 70
     0
  9
$PDSIZE
 40
0.0
  9
$PLINEWID
 40
0.0
  9
$SPLFRAME
 70
     0
  9
$SPLINETYPE
 70
     6
  9
$SPLINESEGS
 70
     8
  9
$HANDSEED
  5
33F
  9
$SURFTAB1
 70
     6
  9
$SURFTAB2
 70
     6
  9
$SURFTYPE
 70
     6
  9
$SURFU
 70
     6
  9
$SURFV
 70
     6
  9
$UCSBASE
  2

  9
$UCSNAME
  2

  9
$UCSORG
 10
0.0
 20
0.0
 30
0.0
  9
$UCSXDIR
 10
1.0
 20
0.0
 30
0.0
  9
$UCSYDIR
 10
0.0
 20
1.0
 30
0.0
  9
$UCSORTHOREF
  2

  9
$UCSORTHOVIEW
 70
     0
  9
$UCSORGTOP
 10
0.0
 20
0.0
 30
0.0
  9
$UCSORGBOTTOM
 10
0.0
 20
0.0
 30
0.0
  9
$UCSORGLEFT
 10
0.0
 20
0.0
 30
0.0
  9
$UCSORGRIGHT
 10
0.0
 20
0.0
 30
0.0
  9
$UCSORGFRONT
 10
0.0
 20
0.0
 30
0.0
  9
$UCSORGBACK
 10
0.0
 20
0.0
 30
0.0
  9
$PUCSBASE
  2

  9
$PUCSNAME
  2

  9
$PUCSORG
 10
0.0
 20
0.0
 30
0.0
  9
$PUCSXDIR
 10
1.0
 20
0.0
 30
0.0
  9
$PUCSYDIR
 10
0.0
 20
1.0
 30
0.0
  9
$PUCSORTHOREF
  2

  9
$PUCSORTHOVIEW
 70
     0
  9
$PUCSORGTOP
 10
0.0
 20
0.0
 30
0.0
  9
$PUCSORGBOTTOM
 10
0.0
 20
0.0
 30
0.0
  9
$PUCSORGLEFT
 10
0.0
 20
0.0
 30
0.0
  9
$PUCSORGRIGHT
 10
0.0
 20
0.0
 30
0.0
  9
$PUCSORGFRONT
 10
0.0
 20
0.0
 30
0.0
  9
$PUCSORGBACK
 10
0.0
 20
0.0
 30
0.0
  9
$USERI1
 70
     0
  9
$USERI2
 70
     0
  9
$USERI3
 70
     0
  9
$USERI4
 70
     0
  9
$USERI5
 70
     0
  9
$USERR1
 40
0.0
  9
$USERR2
 40
0.0
  9
$USERR3
 40
0.0
  9
$USERR4
 40
0.0
  9
$USERR5
 40
0.0
  9
$WORLDVIEW
 70
     1
  9
$SHADEDGE
 70
     3
  9
$SHADEDIF
 70
    70
  9
$TILEMODE
 70
     1
  9
$MAXACTVP
 70
    64
  9
$PINSBASE
 10
0.0
 20
0.0
 30
0.0
  9
$PLIMCHECK
 70
     0
  9
$PEXTMIN
 10
1.000000000000000E+20
 20
1.000000000000000E+20
 30
1.000000000000000E+20
  9
$PEXTMAX
 10
-1.000000000000000E+20
 20
-1.000000000000000E+20
 30
-1.000000000000000E+20
  9
$PLIMMIN
 10
0.0
 20
0.0
  9
$PLIMMAX
 10
12.0
 20
9.0
  9
$UNITMODE
 70
     0
  9
$VISRETAIN
 70
     1
  9
$PLINEGEN
 70
     0
  9
$PSLTSCALE
 70
     1
  9
$TREEDEPTH
 70
  3020
  9
$CMLSTYLE
  2
Standard
  9
$CMLJUST
 70
     0
  9
$CMLSCALE
 40
1.0
  9
$PROXYGRAPHICS
 70
     1
  9
$MEASUREMENT
 70
     0
  9
$CELWEIGHT
370
    -1
  9
$ENDCAPS
280
     0
  9
$JOINSTYLE
280
     0
  9
$LWDISPLAY
290
     1
  9
$INSUNITS
 70
     4
  9
$HYPERLINKBASE
  1

  9
$STYLESHEET
  1

  9
$XEDIT
290
     1
  9
$CEPSNTYPE
380
     0
  9
$PSTYLEMODE
290
     1
  9
$FINGERPRINTGUID
  2
{BA42B72E-1011-4295-AD69-A7D1C5F3DBB6}
  9
$VERSIONGUID
  2
{FAEB1C32-E019-11D5-929B-00C0DF256EC4}
  9
$EXTNAMES
290
     1
  9
$PSVPSCALE
 40
0.0
  9
$OLESTARTUP
290
     0
  9
$SORTENTS
280
   127
  9
$INDEXCTL
280
     0
  9
$HIDETEXT
280
     1
  9
$XCLIPFRAME
280
     2
  9
$HALOGAP
280
     0
  9
$OBSCOLOR
 70
   257
  9
$OBSLTYPE
280
     0
  9
$INTERSECTIONDISPLAY
280
     0
  9
$INTERSECTIONCOLOR
 70
   257
  9
$DIMASSOC
280
     2
  9
$PROJECTNAME
  1

  9
$CAMERADISPLAY
290
     0
  9
$LENSLENGTH
 40
50.0
  9
$CAMERAHEIGHT
 40
0.0
  9
$STEPSPERSEC
 40
2.0
  9
$STEPSIZE
 40
6.0
  9
$3DDWFPREC
 40
2.0
  9
$PSOLWIDTH
 40
0.25
  9
$PSOLHEIGHT
 40
4.0
  9
$LOFTANG1
 40
1.570796326794897
  9
$LOFTANG2
 40
1.570796326794897
  9
$LOFTMAG1
 40
0.0
  9
$LOFTMAG2
 40
0.0
  9
$LOFTPARAM
 70
     7
  9
$LOFTNORMALS
280
     1
  9
$LATITUDE
 40
37.795
  9
$LONGITUDE
 40
-122.394
  9
$NORTHDIRECTION
 40
0.0
  9
$TIMEZONE
 70
 -8000
  9
$LIGHTGLYPHDISPLAY
280
     1
  9
$TILEMODELIGHTSYNCH
280
     1
  9
$CMATERIAL
347
3C
  9
$SOLIDHIST
280
     1
  9
$SHOWHIST
280
     1
  9
$DWFFRAME
280
     2
  9
$DGNFRAME
280
     2
  9
$REALWORLDSCALE
290
     1
  9
$INTERFERECOLOR
 62
   256
  9
$CSHADOW
280
     0
  9
$SHADOWPLANELOCATION
 40
0.0
  0
ENDSEC
  0
SECTION
  2
CLASSES
  0
CLASS
  1
ACDBDICTIONARYWDFLT
  2
AcDbDictionaryWithDefault
  3
ObjectDBX Classes
 90
        0
 91
        4
280
     0
281
     0
  0
CLASS
  1
VISUALSTYLE
  2
AcDbVisualStyle
  3
ObjectDBX Classes
 90
     4095
 91
        4
280
     0
281
     0
  0
CLASS
  1
MATERIAL
  2
AcDbMaterial
  3
ObjectDBX Classes
 90
     1153
 91
        4
280
     0
281
     0
  0
CLASS
  1
SUN
  2
AcDbSun
  3
SCENEOE
 90
     1024
 91
        4
280
     0
281
     0
  0
CLASS
  1
IMAGEDEF
  2
AcDbRasterImageDef
  3
ISM
 90
        0
 91
        4
280
     0
281
     0
  0
CLASS
  1
RASTERVARIABLES
  2
AcDbRasterVariables
  3
ISM
 90
        0
 91
        4
280
     0
281
     0
  0
CLASS
  1
IMAGE
  2
AcDbRasterImage
  3
ISM
 90
      127
 91
        5
280
     0
281
     1
  0
CLASS
  1
IMAGEDEF_REACTOR
  2
AcDbRasterImageDefReactor
  3
ISM
 90
        1
 91
        4
280
     0
281
     0
  0
ENDSEC
  0
SECTION
  2
TABLES
  0
TABLE
  2
VPORT
  5
8
330
0
100
AcDbSymbolTable
 70
     1
  0
VPORT
  5
29
330
8
100
AcDbSymbolTableRecord
100
AcDbViewportTableRecord
  2
*Active
 70
     0
 10
0.0
 20
0.0
 11
1.0
 21
1.0
 12
0.0
 22
0.0
 13
0.0
 23
0.0
 14
0.5
 24
0.5
 15
0.5
 25
0.5
 16
0.0
 26
0.0
 36
1.0
 17
104.9999999737534
 27
-148.4999999628701
 37
0.0
 40
296.9999999257402
 41
0.7070707070707533
 42
50.0
 43
0.0
 44
0.0
 50
0.0
 51
0.0
 71
     0
 72
   100
 73
     1
 74
     3
 75
     0
 76
     0
 77
     0
 78
     0
281
     0
 65
     1
110
0.0
120
0.0
130
0.0
111
1.0
121
0.0
131
0.0
112
0.0
122
1.0
132
0.0
 79
     0
146
0.0
 60
     3
 61
     5
292
     1
282
     1
141
0.0
142
0.0
 63
   250
361
3F
  0
ENDTAB
  0
TABLE
  2
LTYPE
  5
5
330
0
100
AcDbSymbolTable
 70
     1
  0
LTYPE
  5
14
330
5
100
AcDbSymbolTableRecord
100
AcDbLinetypeTableRecord
  2
ByBlock
 70
     0
  3

 72
    65
 73
     0
 40
0.0
  0
LTYPE
  5
15
330
5
100
AcDbSymbolTableRecord
100
AcDbLinetypeTableRecord
  2
ByLayer
 70
     0
  3

 72
    65
 73
     0
 40
0.0
  0
LTYPE
  5
16
330
5
100
AcDbSymbolTableRecord
100
AcDbLinetypeTableRecord
  2
Continuous
 70
     0
  3
Solid line
 72
    65
 73
     0
 40
0.0
  0
ENDTAB
  0
TABLE
  2
LAYER
  5
2
330
0
100
AcDbSymbolTable
 70
     2
  0
LAYER
  5
10
330
2
100
AcDbSymbolTableRecord
100
AcDbLayerTableRecord
  2
0
 70
     0
 62
     7
  6
Continuous
370
    -3
390
F
347
3E
  0
LAYER
  5
40
330
2
100
AcDbSymbolTableRecord
100
AcDbLayerTableRecord
  2
Capa 1
 70
     0
 62
     7
  6
Continuous
370
    -3
390
F
347
3E
  0
ENDTAB
  0
TABLE
  2
STYLE
  5
3
330
0
100
AcDbSymbolTable
 70
     1
  0
STYLE
  5
11
330
3
100
AcDbSymbolTableRecord
100
AcDbTextStyleTableRecord
  2
Standard
 70
     0
 40
0.0
 41
1.0
 50
0.0
 71
     0
 42
0.2
  3
txt
  4

  0
ENDTAB
  0
TABLE
  2
VIEW
  5
6
330
0
100
AcDbSymbolTable
 70
     0
  0
ENDTAB
  0
TABLE
  2
UCS
  5
7
330
0
100
AcDbSymbolTable
 70
     0
  0
ENDTAB
  0
TABLE
  2
APPID
  5
9
330
0
100
AcDbSymbolTable
 70
     1
  0
APPID
  5
12
330
9
100
AcDbSymbolTableRecord
100
AcDbRegAppTableRecord
  2
ACAD
 70
     0
  0
ENDTAB
  0
TABLE
  2
DIMSTYLE
  5
A
330
0
100
AcDbSymbolTable
 70
     1
100
AcDbDimStyleTable
  0
DIMSTYLE
105
27
330
A
100
AcDbSymbolTableRecord
100
AcDbDimStyleTableRecord
  2
Standard
 70
     0
178
     0
340
11
  0
ENDTAB
  0
TABLE
  2
BLOCK_RECORD
  5
1
330
0
100
AcDbSymbolTable
 70
     7
  0
BLOCK_RECORD
  5
1F
330
1
100
AcDbSymbolTableRecord
100
AcDbBlockTableRecord
  2
*Model_Space
340
22
 70
     0
280
     1
281
     0
  0
BLOCK_RECORD
  5
1B
330
1
100
AcDbSymbolTableRecord
100
AcDbBlockTableRecord
  2
*Paper_Space
340
1E
 70
     0
280
     1
281
     0
  0
BLOCK_RECORD
  5
23
330
1
100
AcDbSymbolTableRecord
100
AcDbBlockTableRecord
  2
*Paper_Space0
340
26
 70
     0
280
     1
281
     0
  0
BLOCK_RECORD
  5
41
330
1
100
AcDbSymbolTableRecord
100
AcDbBlockTableRecord
  2
block 2
340
0
102
{BLKREFS
331
42
102
}
 70
     0
280
     1
281
     0
  0
BLOCK_RECORD
  5
45
330
1
100
AcDbSymbolTableRecord
100
AcDbBlockTableRecord
  2
block 3
340
0
102
{BLKREFS
331
46
102
}
 70
     0
280
     1
281
     0
  0
BLOCK_RECORD
  5
61
330
1
100
AcDbSymbolTableRecord
100
AcDbBlockTableRecord
  2
block 4
340
0
102
{BLKREFS
331
62
102
}
 70
     0
280
     1
281
     0
  0
BLOCK_RECORD
  5
1B2
330
1
100
AcDbSymbolTableRecord
100
AcDbBlockTableRecord
  2
block 5
340
0
102
{BLKREFS
331
1B3
102
}
 70
     0
280
     1
281
     0
  0
BLOCK_RECORD
  5
324
330
1
100
AcDbSymbolTableRecord
100
AcDbBlockTableRecord
  2
block 6
340
0
102
{BLKREFS
331
325
102
}
 70
     0
280
     1
281
     0
  0
BLOCK_RECORD
  5
328
330
1
100
AcDbSymbolTableRecord
100
AcDbBlockTableRecord
  2
block 7
340
0
102
{BLKREFS
331
329
102
}
 70
     0
280
     1
281
     0
  0
ENDTAB
  0
ENDSEC
  0
SECTION
  2
BLOCKS
  0
BLOCK
  5
20
330
1F
100
AcDbEntity
  8
0
100
AcDbBlockBegin
  2
*Model_Space
 70
     0
 10
0.0
 20
0.0
 30
0.0
  3
*Model_Space
  1

  0
ENDBLK
  5
21
330
1F
100
AcDbEntity
  8
0
100
AcDbBlockEnd
  0
BLOCK
  5
1C
330
1B
100
AcDbEntity
 67
     1
  8
0
100
AcDbBlockBegin
  2
*Paper_Space
 70
     0
 10
0.0
 20
0.0
 30
0.0
  3
*Paper_Space
  1

  0
ENDBLK
  5
1D
330
1B
100
AcDbEntity
 67
     1
  8
0
100
AcDbBlockEnd
  0
BLOCK
  5
24
330
23
100
AcDbEntity
  8
0
100
AcDbBlockBegin
  2
*Paper_Space0
 70
     0
 10
0.0
 20
0.0
 30
0.0
  3
*Paper_Space0
  1

  0
ENDBLK
  5
25
330
23
100
AcDbEntity
  8
0
100
AcDbBlockEnd
  0
BLOCK
  5
43
330
41
100
AcDbEntity
  8
0
100
AcDbBlockBegin
  2
block 2
 70
     0
 10
0.0
 20
0.0
 30
0.0
  3
block 2
  1

  0
INSERT
  5
46
330
41
100
AcDbEntity
  8
Capa 1
100
AcDbBlockReference
  2
block 3
 10
0.0
 20
0.0
 30
0.0
  0
POLYLINE
  5
55
330
41
100
AcDbEntity
  8
Capa 1
370
     0
100
AcDb2dPolyline
 66
     1
 10
0.0
 20
0.0
 30
0.0
  0
VERTEX
  5
56
330
55
100
AcDbEntity
  8
Capa 1
370
     0
100
AcDbVertex
100
AcDb2dVertex
 10
69.13552284101792
 20
-117.9231308641851
 30
0.0
  0
VERTEX
  5
57
330
55
100
AcDbEntity
  8
Capa 1
370
     0
100
AcDbVertex
100
AcDb2dVertex
 10
97.62867759277185
 20
-117.9231308641851
 30
0.0
  0
VERTEX
  5
58
330
55
100
AcDbEntity
  8
Capa 1
370
     0
100
AcDbVertex
100
AcDb2dVertex
 10
97.62867759277185
 20
-148.8405750855817
 30
0.0
  0
VERTEX
  5
59
330
55
100
AcDbEntity
  8
Capa 1
370
     0
100
AcDbVertex
100
AcDb2dVertex
 10
69.13552284101792
 20
-148.8405750855817
 30
0.0
  0
VERTEX
  5
5A
330
55
100
AcDbEntity
  8
Capa 1
370
     0
100
AcDbVertex
100
AcDb2dVertex
 10
69.13552284101792
 20
-117.9231308641851
 30
0.0
  0
SEQEND
  5
5B
330
55
100
AcDbEntity
  8
Capa 1
370
     0
  0
ENDBLK
  5
44
330
41
100
AcDbEntity
  8
0
100
AcDbBlockEnd
  0
BLOCK
  5
47
330
45
100
AcDbEntity
  8
0
100
AcDbBlockBegin
  2
block 3
 70
     0
 10
0.0
 20
0.0
 30
0.0
  3
block 3
  1

  0
IMAGE
  5
4C
330
45
100
AcDbEntity
  8
Capa 1
160
                 8
310
0800000000000000
100
AcDbRasterImage
 90
        0
 10
68.35699316541096
 20
-149.6203814483071
 30
0.0
 11
0.1590852848787754
 21
0.0
 31
0.0
 12
0.0
 22
0.1594051610693843
 32
0.0
 13
184.0
 23
204.0
340
4A
 70
     3
280
     0
281
    50
282
    50
283
     0
360
4D
 71
     1
 91
        2
 14
-0.5
 24
-0.5
 14
183.5
 24
203.5
290
     0
  0
POLYLINE
  5
4E
330
45
100
AcDbEntity
  8
Capa 1
370
     0
100
AcDb2dPolyline
 66
     1
 10
0.0
 20
0.0
 30
0.0
  0
VERTEX
  5
4F
330
4E
100
AcDbEntity
  8
Capa 1
370
     0
100
AcDbVertex
100
AcDb2dVertex
 10
68.35699316541096
 20
-149.6203805231106
 30
0.0
  0
VERTEX
  5
50
330
4E
100
AcDbEntity
  8
Capa 1
370
     0
100
AcDbVertex
100
AcDb2dVertex
 10
97.6286856672144
 20
-149.6203805231106
 30
0.0
  0
VERTEX
  5
51
330
4E
100
AcDbEntity
  8
Capa 1
370
     0
100
AcDbVertex
100
AcDb2dVertex
 10
97.6286856672144
 20
-117.1017285901527
 30
0.0
  0
VERTEX
  5
52
330
4E
100
AcDbEntity
  8
Capa 1
370
     0
100
AcDbVertex
100
AcDb2dVertex
 10
68.35699316541096
 20
-117.1017285901527
 30
0.0
  0
VERTEX
  5
53
330
4E
100
AcDbEntity
  8
Capa 1
370
     0
100
AcDbVertex
100
AcDb2dVertex
 10
68.35699316541096
 20
-149.6203805231106
 30
0.0
  0
SEQEND
  5
54
330
4E
100
AcDbEntity
  8
Capa 1
370
     0
  0
ENDBLK
  5
48
330
45
100
AcDbEntity
  8
0
100
AcDbBlockEnd
  0
BLOCK
  5
63
330
61
100
AcDbEntity
  8
0
100
AcDbBlockBegin
  2
block 4
 70
     0
 10
0.0
 20
0.0
 30
0.0
  3
block 4
  1

  0
POLYLINE
  5
65
330
61
100
AcDbEntity
  8
Capa 1
 62
   250
420
  2236961
370
     9
100
AcDb2dPolyline
 66
     1
 10
0.0
 20
0.0
 30
0.0
  0
VERTEX
  5
66
330
65
100
AcDbEntity
  8
Capa 1
 62
   250
420
  2236961
370
     9
100
AcDbVertex
100
AcDb2dVertex
 10
128.2421648075781
 20
-131.6945178761909
 30
0.0
  0
VERTEX
  5
67
330
65
100
AcDbEntity
  8
Capa 1
 62
   250
420
  2236961
370
     9
100
AcDbVertex
100
AcDb2dVertex
 10
130.0914274685198
 20
-131.3643216228148
 30
0.0
  0
SEQEND
  5
68
330
65
100
AcDbEntity
  8
Capa 1
 62
   250
420
  2236961
370
     9
  0
POLYLINE
  5
69
330
61
100
AcDbEntity
  8
Capa 1
 62
   250
420
  2236961
370
     9
100
AcDb2dPolyline
 66
     1
 10
0.0
 20
0.0
 30
0.0
  0
VERTEX
  5
6A
330
69
100
AcDbEntity
  8
Capa 1
 62
   250
420
  2236961
370
     9
100
AcDbVertex
100
AcDb2dVertex
 10
128.2753238516236
 20
-131.7608413472437
 30
0.0
  0
VERTEX
  5
6B
330
69
100
AcDbEntity
  8
Capa 1
 62
   250
420
  2236961
370
     9
100
AcDbVertex
100
AcDb2dVertex
 10
130.0582630415126
 20
-131.4638041379131
 30
0.0
  0
SEQEND
  5
6C
330
69
100
AcDbEntity
  8
Capa 1
 62
   250
420
  2236961
370
     9
  0
POLYLINE
  5
6D
330
61
100
AcDbEntity
  8
Capa 1
 62
   250
420
  2236961
370
     9
100
AcDb2dPolyline
 66
     1
 10
0.0
 20
0.0
 30
0.0
  0
VERTEX
  5
6E
330
6D
100
AcDbEntity
  8
Capa 1
 62
   250
420
  2236961
370
     9
100
AcDbVertex
100
AcDb2dVertex
 10
127.714408477008
 20
-132.0578785565743
 30
0.0
  0
VERTEX
  5
6F
330
6D
100
AcDbEntity
  8
Capa 1
 62
   250
420
  2236961
370
     9
100
AcDbVertex
100
AcDb2dVertex
 10
130.0914274685198
 20
-131.628904956082
 30
0.0
  0
SEQEND
  5
70
330
6D
100
AcDbEntity
  8
Capa 1
 62
   250
420
  2236961
370
     9
  0
POLYLINE
  5
71
330
61
100
AcDbEntity
  8
Capa 1
 62
   250
420
  2236961
370
     9
100
AcDb2dPolyline
 66
     1
 10
0.0
 20
0.0
 30
0.0
  0
VERTEX
  5
72
330
71
100
AcDbEntity
  8
Capa 1
 62
   250
420
  2236961
370
     9
100
AcDbVertex
100
AcDb2dVertex
 10
128.3416473226764
 20
-132.2229793747432
 30
0.0
  0
VERTEX
  5
73
330
71
100
AcDbEntity
  8
Capa 1
 62
   250
420
  2236961
370
     9
100
AcDbVertex
100
AcDb2dVertex
 10
130.1238813445832
 20
-131.8927831213671
 30
0.0
  0
SEQEND
  5
74
330
71
100
AcDbEntity
  8
Capa 1
 62
   250
420
  2236961
370
     9
  0
POLYLINE
  5
75
330
61
100
AcDbEntity
  8
Capa 1
 62
   250
420
  2236961
370
     9
100
AcDb2dPolyline
 66
     1
 10
0.0
 20
0.0
 30
0.0
  0
VERTEX
  5
76
330
75
100
AcDbEntity
  8
Capa 1
 62
   250
420
  2236961
370
     9
100
AcDbVertex
100
AcDb2dVertex
 10
128.4079707937291
 20
-132.553181011081
 30
0.0
  0
VERTEX
  5
77
330
75
100
AcDbEntity
  8
Capa 1
 62
   250
420
  2236961
370
     9
100
AcDbVertex
100
AcDb2dVertex
 10
130.190204815636
 20
-132.2229793747432
 30
0.0
  0
SEQEND
  5
78
330
75
100
AcDbEntity
  8
Capa 1
 62
   250
420
  2236961
370
     9
  0
POLYLINE
  5
79
330
61
100
AcDbEntity
  8
Capa 1
 62
   250
420
  2236961
370
     9
100
AcDb2dPolyline
 66
     1
 10
0.0
 20
0.0
 30
0.0
  0
VERTEX
  5
7A
330
79
100
AcDbEntity
  8
Capa 1
 62
   250
420
  2236961
370
     9
100
AcDbVertex
100
AcDb2dVertex
 10
128.4735890967997
 20
-132.9497061184715
 30
0.0
  0
VERTEX
  5
7B
330
79
100
AcDbEntity
  8
Capa 1
 62
   250
420
  2236961
370
     9
100
AcDbVertex
100
AcDb2dVertex
 10
130.2558177357449
 20
-132.6519583581971
 30
0.0
  0
SEQEND
  5
7C
330
79
100
AcDbEntity
  8
Capa 1
 62
   250
420
  2236961
370
     9
  0
POLYLINE
  5
7D
330
61
100
AcDbEntity
  8
Capa 1
 62
   250
420
  2236961
370
     9
100
AcDb2dPolyline
 66
     1
 10
0.0
 20
0.0
 30
0.0
  0
VERTEX
  5
7E
330
7D
100
AcDbEntity
  8
Capa 1
 62
   250
420
  2236961
370
     9
100
AcDbVertex
100
AcDb2dVertex
 10
128.5723664439159
 20
-133.4442980220344
 30
0.0
  0
VERTEX
  5
7F
330
7D
100
AcDbEntity
  8
Capa 1
 62
   250
420
  2236961
370
     9
100
AcDbVertex
100
AcDb2dVertex
 10
130.3553056338049
 20
-133.1140963856966
 30
0.0
  0
SEQEND
  5
80
330
7D
100
AcDbEntity
  8
Capa 1
 62
   250
420
  2236961
370
     9
  0
POLYLINE
  5
81
330
61
100
AcDbEntity
  8
Capa 1
 62
   250
420
  2236961
370
     9
100
AcDb2dPolyline
 66
     1
 10
0.0
 20
0.0
 30
0.0
  0
VERTEX
  5
82
330
81
100
AcDbEntity
  8
Capa 1
 62
   250
420
  2236961
370
     9
100
AcDbVertex
100
AcDb2dVertex
 10
128.6718489590142
 20
-133.9727595205867
 30
0.0
  0
VERTEX
  5
83
330
81
100
AcDbEntity
  8
Capa 1
 62
   250
420
  2236961
370
     9
100
AcDbVertex
100
AcDb2dVertex
 10
130.4216237218959
 20
-133.6757223112561
 30
0.0
  0
SEQEND
  5
84
330
81
100
AcDbEntity
  8
Capa 1
 62
   250
420
  2236961
370
     9
  0
POLYLINE
  5
85
330
61
100
AcDbEntity
  8
Capa 1
 62
   250
420
  2236961
370
     9
100
AcDb2dPolyline
 66
     1
 10
0.0
 20
0.0
 30
0.0
  0
VERTEX
  5
86
330
85
100
AcDbEntity
  8
Capa 1
 62
   250
420
  2236961
370
     9
100
AcDbVertex
100
AcDb2dVertex
 10
128.7706263061303
 20
-134.5668366307287
 30
0.0
  0
VERTEX
  5
87
330
85
100
AcDbEntity
  8
Capa 1
 62
   250
420
  2236961
370
     9
100
AcDbVertex
100
AcDb2dVertex
 10
130.5535654960193
 20
-134.2697967299172
 30
0.0
  0
SEQEND
  5
88
330
85
100
AcDbEntity
  8
Capa 1
 62
   250
420
  2236961
370
     9
  0
POLYLINE
  5
89
330
61
100
AcDbEntity
  8
Capa 1
 62
   250
420
  2236961
370
     9
100
AcDb2dPolyline
 66
     1
 10
0.0
 20
0.0
 30
0.0
  0
VERTEX
  5
8A
330
89
100
AcDbEntity
  8
Capa 1
 62
   250
420
  2236961
370
     9
100
AcDbVertex
100
AcDb2dVertex
 10
128.8694036532465
 20
-135.2272372119234
 30
0.0
  0
VERTEX
  5
8B
330
89
100
AcDbEntity
  8
Capa 1
 62
   250
420
  2236961
370
     9
100
AcDbVertex
100
AcDb2dVertex
 10
130.6523428431355
 20
-134.8970355755856
 30
0.0
  0
SEQEND
  5
8C
330
89
100
AcDbEntity
  8
Capa 1
 62
   250
420
  2236961
370
     9
  0
POLYLINE
  5
8D
330
61
100
AcDbEntity
  8
Capa 1
 62
   250
420
  2236961
370
     9
100
AcDb2dPolyline
 66
     1
 10
0.0
 20
0.0
 30
0.0
  0
VERTEX
  5
8E
330
8D
100
AcDbEntity
  8
Capa 1
 62
   250
420
  2236961
370
     9
100
AcDbVertex
100
AcDb2dVertex
 10
129.0013400444081
 20
-135.8876377931182
 30
0.0
  0
VERTEX
  5
8F
330
8D
100
AcDbEntity
  8
Capa 1
 62
   250
420
  2236961
370
     9
100
AcDbVertex
100
AcDb2dVertex
 10
130.7842792342971
 20
-135.5898927243246
 30
0.0
  0
SEQEND
  5
90
330
8D
100
AcDbEntity
  8
Capa 1
 62
   250
420
  2236961
370
     9
  0
POLYLINE
  5
91
330
61
100
AcDbEntity
  8
Capa 1
 62
   250
420
  2236961
370
     9
100
AcDb2dPolyline
 66
     1
 10
0.0
 20
0.0
 30
0.0
  0
VERTEX
  5
92
330
91
100
AcDbEntity
  8
Capa 1
 62
   250
420
  2236961
370
     9
100
AcDbVertex
100
AcDb2dVertex
 10
129.1332818185315
 20
-136.6136539859027
 30
0.0
  0
VERTEX
  5
93
330
91
100
AcDbEntity
  8
Capa 1
 62
   250
420
  2236961
370
     9
100
AcDbVertex
100
AcDb2dVertex
 10
130.8837671323571
 20
-136.2834523495649
 30
0.0
  0
SEQEND
  5
94
330
91
100
AcDbEntity
  8
Capa 1
 62
   250
420
  2236961
370
     9
  0
POLYLINE
  5
95
330
61
100
AcDbEntity
  8
Capa 1
 62
   250
420
  2236961
370
     9
100
AcDb2dPolyline
 66
     1
 10
0.0
 20
0.0
 30
0.0
  0
VERTEX
  5
96
330
95
100
AcDbEntity
  8
Capa 1
 62
   250
420
  2236961
370
     9
100
AcDbVertex
100
AcDb2dVertex
 10
129.2327643336298
 20
-137.307213611143
 30
0.0
  0
VERTEX
  5
97
330
95
100
AcDbEntity
  8
Capa 1
 62
   250
420
  2236961
370
     9
100
AcDbVertex
100
AcDb2dVertex
 10
131.0157035235188
 20
-137.0094712338303
 30
0.0
  0
SEQEND
  5
98
330
95
100
AcDbEntity
  8
Capa 1
 62
   250
420
  2236961
370
     9
  0
POLYLINE
  5
99
330
61
100
AcDbEntity
  8
Capa 1
 62
   250
420
  2236961
370
     9
100
AcDb2dPolyline
 66
     1
 10
0.0
 20
0.0
 30
0.0
  0
VERTEX
  5
9A
330
99
100
AcDbEntity
  8
Capa 1
 62
   250
420
  2236961
370
     9
100
AcDbVertex
100
AcDb2dVertex
 10
129.3647061077532
 20
-138.0332324954084
 30
0.0
  0
VERTEX
  5
9B
330
99
100
AcDbEntity
  8
Capa 1
 62
   250
420
  2236961
370
     9
100
AcDbVertex
100
AcDb2dVertex
 10
131.1476399146805
 20
-137.736192594597
 30
0.0
  0
SEQEND
  5
9C
330
99
100
AcDbEntity
  8
Capa 1
 62
   250
420
  2236961
370
     9
  0
POLYLINE
  5
9D
330
61
100
AcDbEntity
  8
Capa 1
 62
   250
420
  2236961
370
     9
100
AcDb2dPolyline
 66
     1
 10
0.0
 20
0.0
 30
0.0
  0
VERTEX
  5
9E
330
9D
100
AcDbEntity
  8
Capa 1
 62
   250
420
  2236961
370
     9
100
AcDbVertex
100
AcDb2dVertex
 10
132.0719213526411
 20
-143.0186866932112
 30
0.0
  0
VERTEX
  5
9F
330
9D
100
AcDbEntity
  8
Capa 1
 62
   250
420
  2236961
370
     9
100
AcDbVertex
100
AcDb2dVertex
 10
132.0055978815884
 20
-142.6221642773015
 30
0.0
  0
VERTEX
  5
A0
330
9D
100
AcDbEntity
  8
Capa 1
 62
   250
420
  2236961
370
     9
100
AcDbVertex
100
AcDb2dVertex
 10
130.0914274685198
 20
-131.7608413472437
 30
0.0
  0
SEQEND
  5
A1
330
9D
100
AcDbEntity
  8
Capa 1
 62
   250
420
  2236961
370
     9
  0
POLYLINE
  5
A2
330
61
100
AcDbEntity
  8
Capa 1
 62
   250
420
  2236961
370
     9
100
AcDb2dPolyline
 66
     1
 10
0.0
 20
0.0
 30
0.0
  0
VERTEX
  5
A3
330
A2
100
AcDbEntity
  8
Capa 1
 62
   250
420
  2236961
370
     9
100
AcDbVertex
100
AcDb2dVertex
 10
130.0914274685198
 20
-131.7283874711803
 30
0.0
  0
VERTEX
  5
A4
330
A2
100
AcDbEntity
  8
Capa 1
 62
   250
420
  2236961
370
     9
100
AcDbVertex
100
AcDb2dVertex
 10
130.0251039974671
 20
-131.3643216228148
 30
0.0
  0
SEQEND
  5
A5
330
A2
100
AcDbEntity
  8
Capa 1
 62
   250
420
  2236961
370
     9
  0
POLYLINE
  5
A6
330
61
100
AcDbEntity
  8
Capa 1
 62
   250
420
  2236961
370
     9
100
AcDb2dPolyline
 66
     1
 10
0.0
 20
0.0
 30
0.0
  0
VERTEX
  5
A7
330
A6
100
AcDbEntity
  8
Capa 1
 62
   250
420
  2236961
370
     9
100
AcDbVertex
100
AcDb2dVertex
 10
129.4966424989148
 20
-138.7599538561751
 30
0.0
  0
VERTEX
  5
A8
330
A6
100
AcDbEntity
  8
Capa 1
 62
   250
420
  2236961
370
     9
100
AcDbVertex
100
AcDb2dVertex
 10
131.2795816888039
 20
-138.4297522198373
 30
0.0
  0
SEQEND
  5
A9
330
A6
100
AcDbEntity
  8
Capa 1
 62
   250
420
  2236961
370
     9
  0
POLYLINE
  5
AA
330
61
100
AcDbEntity
  8
Capa 1
 62
   250
420
  2236961
370
     9
100
AcDb2dPolyline
 66
     1
 10
0.0
 20
0.0
 30
0.0
  0
VERTEX
  5
AB
330
AA
100
AcDbEntity
  8
Capa 1
 62
   250
420
  2236961
370
     9
100
AcDbVertex
100
AcDb2dVertex
 10
129.6285788900765
 20
-139.4203544373698
 30
0.0
  0
VERTEX
  5
AC
330
AA
100
AcDbEntity
  8
Capa 1
 62
   250
420
  2236961
370
     9
100
AcDbVertex
100
AcDb2dVertex
 10
131.4115180799655
 20
-139.1226093685763
 30
0.0
  0
SEQEND
  5
AD
330
AA
100
AcDbEntity
  8
Capa 1
 62
   250
420
  2236961
370
     9
  0
POLYLINE
  5
AE
330
61
100
AcDbEntity
  8
Capa 1
 62
   250
420
  2236961
370
     9
100
AcDb2dPolyline
 66
     1
 10
0.0
 20
0.0
 30
0.0
  0
VERTEX
  5
AF
330
AE
100
AcDbEntity
  8
Capa 1
 62
   250
420
  2236961
370
     9
100
AcDbVertex
100
AcDb2dVertex
 10
129.7280667881365
 20
-140.0807523270838
 30
0.0
  0
VERTEX
  5
B0
330
AE
100
AcDbEntity
  8
Capa 1
 62
   250
420
  2236961
370
     9
100
AcDbVertex
100
AcDb2dVertex
 10
131.5102954270817
 20
-139.783009949771
 30
0.0
  0
SEQEND
  5
B1
330
AE
100
AcDbEntity
  8
Capa 1
 62
   250
420
  2236961
370
     9
  0
POLYLINE
  5
B2
330
61
100
AcDbEntity
  8
Capa 1
 62
   250
420
  2236961
370
     9
100
AcDb2dPolyline
 66
     1
 10
0.0
 20
0.0
 30
0.0
  0
VERTEX
  5
B3
330
B2
100
AcDbEntity
  8
Capa 1
 62
   250
420
  2236961
370
     9
100
AcDbVertex
100
AcDb2dVertex
 10
128.3084882786308
 20
-132.0578785565743
 30
0.0
  0
VERTEX
  5
B4
330
B2
100
AcDbEntity
  8
Capa 1
 62
   250
420
  2236961
370
     9
100
AcDbVertex
100
AcDb2dVertex
 10
130.2889821627521
 20
-143.3157265940227
 30
0.0
  0
VERTEX
  5
B5
330
B2
100
AcDbEntity
  8
Capa 1
 62
   250
420
  2236961
370
     9
100
AcDbVertex
100
AcDb2dVertex
 10
128.2421648075781
 20
-131.6945178761909
 30
0.0
  0
SEQEND
  5
B6
330
B2
100
AcDbEntity
  8
Capa 1
 62
   250
420
  2236961
370
     9
  0
POLYLINE
  5
B7
330
61
100
AcDbEntity
  8
Capa 1
 62
   250
420
  2236961
370
     9
100
AcDb2dPolyline
 66
     1
 10
0.0
 20
0.0
 30
0.0
  0
VERTEX
  5
B8
330
B7
100
AcDbEntity
  8
Capa 1
 62
   250
420
  2236961
370
     9
100
AcDbVertex
100
AcDb2dVertex
 10
129.8600031792982
 20
-140.70728600477
 30
0.0
  0
VERTEX
  5
B9
330
B7
100
AcDbEntity
  8
Capa 1
 62
   250
420
  2236961
370
     9
100
AcDbVertex
100
AcDb2dVertex
 10
131.6097833251416
 20
-140.4102487954394
 30
0.0
  0
SEQEND
  5
BA
330
B7
100
AcDbEntity
  8
Capa 1
 62
   250
420
  2236961
370
     9
  0
POLYLINE
  5
BB
330
61
100
AcDbEntity
  8
Capa 1
 62
   250
420
  2236961
370
     9
100
AcDb2dPolyline
 66
     1
 10
0.0
 20
0.0
 30
0.0
  0
VERTEX
  5
BC
330
BB
100
AcDbEntity
  8
Capa 1
 62
   250
420
  2236961
370
     9
100
AcDbVertex
100
AcDb2dVertex
 10
129.9587805264143
 20
-141.2689092388486
 30
0.0
  0
VERTEX
  5
BD
330
BB
100
AcDbEntity
  8
Capa 1
 62
   250
420
  2236961
370
     9
100
AcDbVertex
100
AcDb2dVertex
 10
131.7085606722578
 20
-140.9718693380372
 30
0.0
  0
SEQEND
  5
BE
330
BB
100
AcDbEntity
  8
Capa 1
 62
   250
420
  2236961
370
     9
  0
POLYLINE
  5
BF
330
61
100
AcDbEntity
  8
Capa 1
 62
   250
420
  2236961
370
     9
100
AcDb2dPolyline
 66
     1
 10
0.0
 20
0.0
 30
0.0
  0
VERTEX
  5
C0
330
BF
100
AcDbEntity
  8
Capa 1
 62
   250
420
  2236961
370
     9
100
AcDbVertex
100
AcDb2dVertex
 10
130.0251039974671
 20
-141.7973707374009
 30
0.0
  0
VERTEX
  5
C1
330
BF
100
AcDbEntity
  8
Capa 1
 62
   250
420
  2236961
370
     9
100
AcDbVertex
100
AcDb2dVertex
 10
131.8080431873561
 20
-141.4996256686073
 30
0.0
  0
SEQEND
  5
C2
330
BF
100
AcDbEntity
  8
Capa 1
 62
   250
420
  2236961
370
     9
  0
POLYLINE
  5
C3
330
61
100
AcDbEntity
  8
Capa 1
 62
   250
420
  2236961
370
     9
100
AcDb2dPolyline
 66
     1
 10
0.0
 20
0.0
 30
0.0
  0
VERTEX
  5
C4
330
C3
100
AcDbEntity
  8
Capa 1
 62
   250
420
  2236961
370
     9
100
AcDbVertex
100
AcDb2dVertex
 10
130.1238813445832
 20
-142.2595087649003
 30
0.0
  0
VERTEX
  5
C5
330
C3
100
AcDbEntity
  8
Capa 1
 62
   250
420
  2236961
370
     9
100
AcDbVertex
100
AcDb2dVertex
 10
131.9068205344722
 20
-141.9293098200434
 30
0.0
  0
SEQEND
  5
C6
330
C3
100
AcDbEntity
  8
Capa 1
 62
   250
420
  2236961
370
     9
  0
POLYLINE
  5
C7
330
61
100
AcDbEntity
  8
Capa 1
 62
   250
420
  2236961
370
     9
100
AcDb2dPolyline
 66
     1
 10
0.0
 20
0.0
 30
0.0
  0
VERTEX
  5
C8
330
C7
100
AcDbEntity
  8
Capa 1
 62
   250
420
  2236961
370
     9
100
AcDbVertex
100
AcDb2dVertex
 10
130.190204815636
 20
-142.6221642773015
 30
0.0
  0
VERTEX
  5
C9
330
C7
100
AcDbEntity
  8
Capa 1
 62
   250
420
  2236961
370
     9
100
AcDbVertex
100
AcDb2dVertex
 10
131.973144005525
 20
-142.3251243764901
 30
0.0
  0
SEQEND
  5
CA
330
C7
100
AcDbEntity
  8
Capa 1
 62
   250
420
  2236961
370
     9
  0
POLYLINE
  5
CB
330
61
100
AcDbEntity
  8
Capa 1
 62
   250
420
  2236961
370
     9
100
AcDb2dPolyline
 66
     1
 10
0.0
 20
0.0
 30
0.0
  0
VERTEX
  5
CC
330
CB
100
AcDbEntity
  8
Capa 1
 62
   250
420
  2236961
370
     9
100
AcDbVertex
100
AcDb2dVertex
 10
129.6285788900765
 20
-143.0186866932112
 30
0.0
  0
VERTEX
  5
CD
330
CB
100
AcDbEntity
  8
Capa 1
 62
   250
420
  2236961
370
     9
100
AcDbVertex
100
AcDb2dVertex
 10
132.0055978815884
 20
-142.6221642773015
 30
0.0
  0
SEQEND
  5
CE
330
CB
100
AcDbEntity
  8
Capa 1
 62
   250
420
  2236961
370
     9
  0
POLYLINE
  5
CF
330
61
100
AcDbEntity
  8
Capa 1
 62
   250
420
  2236961
370
     9
100
AcDb2dPolyline
 66
     1
 10
0.0
 20
0.0
 30
0.0
  0
VERTEX
  5
D0
330
CF
100
AcDbEntity
  8
Capa 1
 62
   250
420
  2236961
370
     9
100
AcDbVertex
100
AcDb2dVertex
 10
130.2889821627521
 20
-143.1506257758538
 30
0.0
  0
VERTEX
  5
D1
330
CF
100
AcDbEntity
  8
Capa 1
 62
   250
420
  2236961
370
     9
100
AcDbVertex
100
AcDb2dVertex
 10
132.0387569256339
 20
-142.8204268309968
 30
0.0
  0
SEQEND
  5
D2
330
CF
100
AcDbEntity
  8
Capa 1
 62
   250
420
  2236961
370
     9
  0
POLYLINE
  5
D3
330
61
100
AcDbEntity
  8
Capa 1
 62
   250
420
  2236961
370
     9
100
AcDb2dPolyline
 66
     1
 10
0.0
 20
0.0
 30
0.0
  0
VERTEX
  5
D4
330
D3
100
AcDbEntity
  8
Capa 1
 62
   250
420
  2236961
370
     9
100
AcDbVertex
100
AcDb2dVertex
 10
130.2889821627521
 20
-143.2825648584963
 30
0.0
  0
VERTEX
  5
D5
330
D3
100
AcDbEntity
  8
Capa 1
 62
   250
420
  2236961
370
     9
100
AcDbVertex
100
AcDb2dVertex
 10
132.0719213526411
 20
-142.9523632221585
 30
0.0
  0
SEQEND
  5
D6
330
D3
100
AcDbEntity
  8
Capa 1
 62
   250
420
  2236961
370
     9
  0
POLYLINE
  5
D7
330
61
100
AcDbEntity
  8
Capa 1
 62
   250
420
  2236961
370
     9
100
AcDb2dPolyline
 66
     1
 10
0.0
 20
0.0
 30
0.0
  0
VERTEX
  5
D8
330
D7
100
AcDbEntity
  8
Capa 1
 62
   250
420
  2236961
370
     9
100
AcDbVertex
100
AcDb2dVertex
 10
130.2889821627521
 20
-143.3157265940227
 30
0.0
  0
VERTEX
  5
D9
330
D7
100
AcDbEntity
  8
Capa 1
 62
   250
420
  2236961
370
     9
100
AcDbVertex
100
AcDb2dVertex
 10
132.1382448236939
 20
-142.9855249576849
 30
0.0
  0
SEQEND
  5
DA
330
D7
100
AcDbEntity
  8
Capa 1
 62
   250
420
  2236961
370
     9
  0
POLYLINE
  5
DB
330
61
100
AcDbEntity
  8
Capa 1
 62
   250
420
  2236961
370
     9
100
AcDb2dPolyline
 66
     1
 10
0.0
 20
0.0
 30
0.0
  0
VERTEX
  5
DC
330
DB
100
AcDbEntity
  8
Capa 1
 62
   250
420
  2236961
370
     9
100
AcDbVertex
100
AcDb2dVertex
 10
123.5544556785688
 20
-175.5045806127699
 30
0.0
  0
VERTEX
  5
DD
330
DB
100
AcDbEntity
  8
Capa 1
 62
   250
420
  2236961
370
     9
100
AcDbVertex
100
AcDb2dVertex
 10
124.4787317335678
 20
-147.079159668033
 30
0.0
  0
SEQEND
  5
DE
330
DB
100
AcDbEntity
  8
Capa 1
 62
   250
420
  2236961
370
     9
  0
POLYLINE
  5
DF
330
61
100
AcDbEntity
  8
Capa 1
 62
   250
420
  2236961
370
     9
100
AcDb2dPolyline
 66
     1
 10
0.0
 20
0.0
 30
0.0
  0
VERTEX
  5
E0
330
DF
100
AcDbEntity
  8
Capa 1
 62
   250
420
  2236961
370
     9
100
AcDbVertex
100
AcDb2dVertex
 10
107.1460553166295
 20
-155.9931477580151
 30
0.0
  0
VERTEX
  5
E1
330
DF
100
AcDbEntity
  8
Capa 1
 62
   250
420
  2236961
370
     9
100
AcDbVertex
100
AcDb2dVertex
 10
105.5945404159621
 20
-155.5973305100875
 30
0.0
  0
SEQEND
  5
E2
330
DF
100
AcDbEntity
  8
Capa 1
 62
   250
420
  2236961
370
     9
  0
POLYLINE
  5
E3
330
61
100
AcDbEntity
  8
Capa 1
 62
   250
420
  2236961
370
     9
100
AcDb2dPolyline
 66
     1
 10
0.0
 20
0.0
 30
0.0
  0
VERTEX
  5
E4
330
E3
100
AcDbEntity
  8
Capa 1
 62
   250
420
  2236961
370
     9
100
AcDbVertex
100
AcDb2dVertex
 10
113.9137435363392
 20
-175.5045806127699
 30
0.0
  0
VERTEX
  5
E5
330
E3
100
AcDbEntity
  8
Capa 1
 62
   250
420
  2236961
370
     9
100
AcDbVertex
100
AcDb2dVertex
 10
112.9894674813402
 20
-147.5744594310588
 30
0.0
  0
SEQEND
  5
E6
330
E3
100
AcDbEntity
  8
Capa 1
 62
   250
420
  2236961
370
     9
  0
POLYLINE
  5
E7
330
61
100
AcDbEntity
  8
Capa 1
 62
   250
420
  2236961
370
     9
100
AcDb2dPolyline
 66
     1
 10
0.0
 20
0.0
 30
0.0
  0
VERTEX
  5
E8
330
E7
100
AcDbEntity
  8
Capa 1
 62
   250
420
  2236961
370
     9
100
AcDbVertex
100
AcDb2dVertex
 10
110.6787719608811
 20
-144.702143368002
 30
0.0
  0
VERTEX
  5
E9
330
E7
100
AcDbEntity
  8
Capa 1
 62
   250
420
  2236961
370
     9
100
AcDbVertex
100
AcDb2dVertex
 10
109.1272570602138
 20
-135.788152586539
 30
0.0
  0
SEQEND
  5
EA
330
E7
100
AcDbEntity
  8
Capa 1
 62
   250
420
  2236961
370
     9
  0
POLYLINE
  5
EB
330
61
100
AcDbEntity
  8
Capa 1
 62
   250
420
  2236961
370
     9
100
AcDb2dPolyline
 66
     1
 10
0.0
 20
0.0
 30
0.0
  0
VERTEX
  5
EC
330
EB
100
AcDbEntity
  8
Capa 1
 62
   250
420
  2236961
370
     9
100
AcDbVertex
100
AcDb2dVertex
 10
122.795275058777
 20
-176.033041774887
 30
0.0
  0
VERTEX
  5
ED
330
EB
100
AcDbEntity
  8
Capa 1
 62
   250
420
  2236961
370
     9
100
AcDbVertex
100
AcDb2dVertex
 10
122.795275058777
 20
-175.9998807122309
 30
0.0
  0
SEQEND
  5
EE
330
EB
100
AcDbEntity
  8
Capa 1
 62
   250
420
  2236961
370
     9
  0
POLYLINE
  5
EF
330
61
100
AcDbEntity
  8
Capa 1
 62
   250
420
  2236961
370
     9
100
AcDb2dPolyline
 66
     1
 10
0.0
 20
0.0
 30
0.0
  0
VERTEX
  5
F0
330
EF
100
AcDbEntity
  8
Capa 1
 62
   250
420
  2236961
370
     9
100
AcDbVertex
100
AcDb2dVertex
 10
110.4480555311225
 20
-144.7353024120475
 30
0.0
  0
VERTEX
  5
F1
330
EF
100
AcDbEntity
  8
Capa 1
 62
   250
420
  2236961
370
     9
100
AcDbVertex
100
AcDb2dVertex
 10
107.6413550796554
 20
-155.6961078572036
 30
0.0
  0
SEQEND
  5
F2
330
EF
100
AcDbEntity
  8
Capa 1
 62
   250
420
  2236961
370
     9
  0
POLYLINE
  5
F3
330
61
100
AcDbEntity
  8
Capa 1
 62
   250
420
  2236961
370
     9
100
AcDb2dPolyline
 66
     1
 10
0.0
 20
0.0
 30
0.0
  0
VERTEX
  5
F4
330
F3
100
AcDbEntity
  8
Capa 1
 62
   250
420
  2236961
370
     9
100
AcDbVertex
100
AcDb2dVertex
 10
114.6736293241131
 20
-176.296919603737
 30
0.0
  0
VERTEX
  5
F5
330
F3
100
AcDbEntity
  8
Capa 1
 62
   250
420
  2236961
370
     9
100
AcDbVertex
100
AcDb2dVertex
 10
114.6736293241131
 20
-176.2637585410808
 30
0.0
  0
SEQEND
  5
F6
330
F3
100
AcDbEntity
  8
Capa 1
 62
   250
420
  2236961
370
     9
  0
POLYLINE
  5
F7
330
61
100
AcDbEntity
  8
Capa 1
 62
   250
420
  2236961
370
     9
100
AcDb2dPolyline
 66
     1
 10
0.0
 20
0.0
 30
0.0
  0
VERTEX
  5
F8
330
F7
100
AcDbEntity
  8
Capa 1
 62
   250
420
  2236961
370
     9
100
AcDbVertex
100
AcDb2dVertex
 10
123.5544556785688
 20
-175.5045806127699
 30
0.0
  0
VERTEX
  5
F9
330
F7
100
AcDbEntity
  8
Capa 1
 62
   250
420
  2236961
370
     9
100
AcDbVertex
100
AcDb2dVertex
 10
113.9137435363392
 20
-175.5045806127699
 30
0.0
  0
SEQEND
  5
FA
330
F7
100
AcDbEntity
  8
Capa 1
 62
   250
420
  2236961
370
     9
  0
POLYLINE
  5
FB
330
61
100
AcDbEntity
  8
Capa 1
 62
   250
420
  2236961
370
     9
100
AcDb2dPolyline
 66
     1
 10
0.0
 20
0.0
 30
0.0
  0
VERTEX
  5
FC
330
FB
100
AcDbEntity
  8
Capa 1
 62
   250
420
  2236961
370
     9
100
AcDbVertex
100
AcDb2dVertex
 10
109.2591934513755
 20
-137.7686491621412
 30
0.0
  0
VERTEX
  5
FD
330
FB
100
AcDbEntity
  8
Capa 1
 62
   250
420
  2236961
370
     9
100
AcDbVertex
100
AcDb2dVertex
 10
108.5656338261352
 20
-139.4859700489596
 30
0.0
  0
VERTEX
  5
FE
330
FB
100
AcDbEntity
  8
Capa 1
 62
   250
420
  2236961
370
     9
100
AcDbVertex
100
AcDb2dVertex
 10
108.0378774955651
 20
-141.2689092388486
 30
0.0
  0
VERTEX
  5
FF
330
FB
100
AcDbEntity
  8
Capa 1
 62
   250
420
  2236961
370
     9
100
AcDbVertex
100
AcDb2dVertex
 10
107.8396176333506
 20
-142.1268645142757
 30
0.0
  0
SEQEND
  5
100
330
FB
100
AcDbEntity
  8
Capa 1
 62
   250
420
  2236961
370
     9
  0
POLYLINE
  5
101
330
61
100
AcDbEntity
  8
Capa 1
 62
   250
420
  2236961
370
     9
100
AcDb2dPolyline
 66
     1
 10
0.0
 20
0.0
 30
0.0
  0
VERTEX
  5
102
330
101
100
AcDbEntity
  8
Capa 1
 62
   250
420
  2236961
370
     9
100
AcDbVertex
100
AcDb2dVertex
 10
124.4787317335678
 20
-147.079159668033
 30
0.0
  0
VERTEX
  5
103
330
101
100
AcDbEntity
  8
Capa 1
 62
   250
420
  2236961
370
     9
100
AcDbVertex
100
AcDb2dVertex
 10
124.6438325517367
 20
-146.1217191860268
 30
0.0
  0
VERTEX
  5
104
330
101
100
AcDbEntity
  8
Capa 1
 62
   250
420
  2236961
370
     9
100
AcDbVertex
100
AcDb2dVertex
 10
124.8089333699056
 20
-145.7259046295801
 30
0.0
  0
SEQEND
  5
105
330
101
100
AcDbEntity
  8
Capa 1
 62
   250
420
  2236961
370
     9
  0
POLYLINE
  5
106
330
61
100
AcDbEntity
  8
Capa 1
 62
   250
420
  2236961
370
     9
100
AcDb2dPolyline
 66
     1
 10
0.0
 20
0.0
 30
0.0
  0
VERTEX
  5
107
330
106
100
AcDbEntity
  8
Capa 1
 62
   250
420
  2236961
370
     9
100
AcDbVertex
100
AcDb2dVertex
 10
112.9894674813402
 20
-147.5744594310588
 30
0.0
  0
VERTEX
  5
108
330
106
100
AcDbEntity
  8
Capa 1
 62
   250
420
  2236961
370
     9
100
AcDbVertex
100
AcDb2dVertex
 10
112.8243666631713
 20
-146.9796744614538
 30
0.0
  0
VERTEX
  5
109
330
106
100
AcDbEntity
  8
Capa 1
 62
   250
420
  2236961
370
     9
100
AcDbVertex
100
AcDb2dVertex
 10
112.5604884978863
 20
-146.3855973513118
 30
0.0
  0
VERTEX
  5
10A
330
106
100
AcDbEntity
  8
Capa 1
 62
   250
420
  2236961
370
     9
100
AcDbVertex
100
AcDb2dVertex
 10
112.197127817503
 20
-145.8578410207417
 30
0.0
  0
VERTEX
  5
10B
330
106
100
AcDbEntity
  8
Capa 1
 62
   250
420
  2236961
370
     9
100
AcDbVertex
100
AcDb2dVertex
 10
111.7681515255298
 20
-145.3957029932423
 30
0.0
  0
VERTEX
  5
10C
330
106
100
AcDbEntity
  8
Capa 1
 62
   250
420
  2236961
370
     9
100
AcDbVertex
100
AcDb2dVertex
 10
111.2396900269776
 20
-144.9991805773325
 30
0.0
  0
VERTEX
  5
10D
330
106
100
AcDbEntity
  8
Capa 1
 62
   250
420
  2236961
370
     9
100
AcDbVertex
100
AcDb2dVertex
 10
110.6787719608811
 20
-144.702143368002
 30
0.0
  0
SEQEND
  5
10E
330
106
100
AcDbEntity
  8
Capa 1
 62
   250
420
  2236961
370
     9
  0
POLYLINE
  5
10F
330
61
100
AcDbEntity
  8
Capa 1
 62
   250
420
  2236961
370
     9
100
AcDb2dPolyline
 66
     1
 10
0.0
 20
0.0
 30
0.0
  0
VERTEX
  5
110
330
10F
100
AcDbEntity
  8
Capa 1
 62
   250
420
  2236961
370
     9
100
AcDbVertex
100
AcDb2dVertex
 10
109.4242942695444
 20
-137.5710917764281
 30
0.0
  0
VERTEX
  5
111
330
10F
100
AcDbEntity
  8
Capa 1
 62
   250
420
  2236961
370
     9
100
AcDbVertex
100
AcDb2dVertex
 10
109.2591934513755
 20
-137.7686491621412
 30
0.0
  0
SEQEND
  5
112
330
10F
100
AcDbEntity
  8
Capa 1
 62
   250
420
  2236961
370
     9
  0
POLYLINE
  5
113
330
61
100
AcDbEntity
  8
Capa 1
 62
   250
420
  2236961
370
     9
100
AcDb2dPolyline
 66
     1
 10
0.0
 20
0.0
 30
0.0
  0
VERTEX
  5
114
330
113
100
AcDbEntity
  8
Capa 1
 62
   250
420
  2236961
370
     9
100
AcDbVertex
100
AcDb2dVertex
 10
107.1460553166295
 20
-155.9931477580151
 30
0.0
  0
VERTEX
  5
115
330
113
100
AcDbEntity
  8
Capa 1
 62
   250
420
  2236961
370
     9
100
AcDbVertex
100
AcDb2dVertex
 10
107.3774769143703
 20
-155.9931477580151
 30
0.0
  0
VERTEX
  5
116
330
113
100
AcDbEntity
  8
Capa 1
 62
   250
420
  2236961
370
     9
100
AcDbVertex
100
AcDb2dVertex
 10
107.5418725645571
 20
-155.8943704108989
 30
0.0
  0
VERTEX
  5
117
330
113
100
AcDbEntity
  8
Capa 1
 62
   250
420
  2236961
370
     9
100
AcDbVertex
100
AcDb2dVertex
 10
107.6413550796554
 20
-155.6961078572036
 30
0.0
  0
SEQEND
  5
118
330
113
100
AcDbEntity
  8
Capa 1
 62
   250
420
  2236961
370
     9
  0
POLYLINE
  5
119
330
61
100
AcDbEntity
  8
Capa 1
 62
   250
420
  2236961
370
     9
100
AcDb2dPolyline
 66
     1
 10
0.0
 20
0.0
 30
0.0
  0
VERTEX
  5
11A
330
119
100
AcDbEntity
  8
Capa 1
 62
   250
420
  2236961
370
     9
100
AcDbVertex
100
AcDb2dVertex
 10
105.2975005151507
 20
-155.1344873146058
 30
0.0
  0
VERTEX
  5
11B
330
119
100
AcDbEntity
  8
Capa 1
 62
   250
420
  2236961
370
     9
100
AcDbVertex
100
AcDb2dVertex
 10
105.2975005151507
 20
-155.3327471768203
 30
0.0
  0
VERTEX
  5
11C
330
119
100
AcDbEntity
  8
Capa 1
 62
   250
420
  2236961
370
     9
100
AcDbVertex
100
AcDb2dVertex
 10
105.3962778622669
 20
-155.4985531629713
 30
0.0
  0
VERTEX
  5
11D
330
119
100
AcDbEntity
  8
Capa 1
 62
   250
420
  2236961
370
     9
100
AcDbVertex
100
AcDb2dVertex
 10
105.5945404159621
 20
-155.5973305100875
 30
0.0
  0
SEQEND
  5
11E
330
119
100
AcDbEntity
  8
Capa 1
 62
   250
420
  2236961
370
     9
  0
POLYLINE
  5
11F
330
61
100
AcDbEntity
  8
Capa 1
 62
   250
420
  2236961
370
     9
100
AcDb2dPolyline
 66
     1
 10
0.0
 20
0.0
 30
0.0
  0
VERTEX
  5
120
330
11F
100
AcDbEntity
  8
Capa 1
 62
   250
420
  2236961
370
     9
100
AcDbVertex
100
AcDb2dVertex
 10
107.8396176333506
 20
-142.1268645142757
 30
0.0
  0
VERTEX
  5
121
330
11F
100
AcDbEntity
  8
Capa 1
 62
   250
420
  2236961
370
     9
100
AcDbVertex
100
AcDb2dVertex
 10
105.2975005151507
 20
-155.1344873146058
 30
0.0
  0
SEQEND
  5
122
330
11F
100
AcDbEntity
  8
Capa 1
 62
   250
420
  2236961
370
     9
  0
POLYLINE
  5
123
330
61
100
AcDbEntity
  8
Capa 1
 62
   250
420
  2236961
370
     9
100
AcDb2dPolyline
 66
     1
 10
0.0
 20
0.0
 30
0.0
  0
VERTEX
  5
124
330
123
100
AcDbEntity
  8
Capa 1
 62
   250
420
  2236961
370
     9
100
AcDbVertex
100
AcDb2dVertex
 10
124.8089333699056
 20
-145.7259046295801
 30
0.0
  0
VERTEX
  5
125
330
123
100
AcDbEntity
  8
Capa 1
 62
   250
420
  2236961
370
     9
100
AcDbVertex
100
AcDb2dVertex
 10
125.0396471081834
 20
-145.2637639105997
 30
0.0
  0
VERTEX
  5
126
330
123
100
AcDbEntity
  8
Capa 1
 62
   250
420
  2236961
370
     9
100
AcDbVertex
100
AcDb2dVertex
 10
125.3366897004757
 20
-144.8340824506445
 30
0.0
  0
VERTEX
  5
127
330
123
100
AcDbEntity
  8
Capa 1
 62
   250
420
  2236961
370
     9
100
AcDbVertex
100
AcDb2dVertex
 10
125.6668859538518
 20
-144.4714269382433
 30
0.0
  0
VERTEX
  5
128
330
123
100
AcDbEntity
  8
Capa 1
 62
   250
420
  2236961
370
     9
100
AcDbVertex
100
AcDb2dVertex
 10
126.0965701052879
 20
-144.1412253019055
 30
0.0
  0
VERTEX
  5
129
330
123
100
AcDbEntity
  8
Capa 1
 62
   250
420
  2236961
370
     9
100
AcDbVertex
100
AcDb2dVertex
 10
126.5587081327873
 20
-143.9098037041647
 30
0.0
  0
VERTEX
  5
12A
330
123
100
AcDbEntity
  8
Capa 1
 62
   250
420
  2236961
370
     9
100
AcDbVertex
100
AcDb2dVertex
 10
127.0540105872941
 20
-143.8110263570485
 30
0.0
  0
VERTEX
  5
12B
330
123
100
AcDbEntity
  8
Capa 1
 62
   250
420
  2236961
370
     9
100
AcDbVertex
100
AcDb2dVertex
 10
128.0770639894092
 20
-143.6459255388796
 30
0.0
  0
SEQEND
  5
12C
330
123
100
AcDbEntity
  8
Capa 1
 62
   250
420
  2236961
370
     9
  0
POLYLINE
  5
12D
330
61
100
AcDbEntity
  8
Capa 1
 62
   250
420
  2236961
370
     9
100
AcDb2dPolyline
 66
     1
 10
0.0
 20
0.0
 30
0.0
  0
VERTEX
  5
12E
330
12D
100
AcDbEntity
  8
Capa 1
 62
   250
420
  2236961
370
     9
100
AcDbVertex
100
AcDb2dVertex
 10
129.8931622233437
 20
-140.9055485584653
 30
0.0
  0
VERTEX
  5
12F
330
12D
100
AcDbEntity
  8
Capa 1
 62
   250
420
  2236961
370
     9
100
AcDbVertex
100
AcDb2dVertex
 10
129.8931622233437
 20
-141.0043259055814
 30
0.0
  0
SEQEND
  5
130
330
12D
100
AcDbEntity
  8
Capa 1
 62
   250
420
  2236961
370
     9
  0
POLYLINE
  5
131
330
61
100
AcDbEntity
  8
Capa 1
 62
   250
420
  2236961
370
     9
100
AcDb2dPolyline
 66
     1
 10
0.0
 20
0.0
 30
0.0
  0
VERTEX
  5
132
330
131
100
AcDbEntity
  8
Capa 1
 62
   250
420
  2236961
370
     9
100
AcDbVertex
100
AcDb2dVertex
 10
110.4480555311225
 20
-144.7353024120475
 30
0.0
  0
VERTEX
  5
133
330
131
100
AcDbEntity
  8
Capa 1
 62
   250
420
  2236961
370
     9
100
AcDbVertex
100
AcDb2dVertex
 10
110.6787719608811
 20
-144.6365250649313
 30
0.0
  0
SEQEND
  5
134
330
131
100
AcDbEntity
  8
Capa 1
 62
   250
420
  2236961
370
     9
  0
POLYLINE
  5
135
330
61
100
AcDbEntity
  8
Capa 1
 62
   250
420
  2236961
370
     9
100
AcDb2dPolyline
 66
     1
 10
0.0
 20
0.0
 30
0.0
  0
VERTEX
  5
136
330
135
100
AcDbEntity
  8
Capa 1
 62
   250
420
  2236961
370
     9
100
AcDbVertex
100
AcDb2dVertex
 10
130.5535654960193
 20
-131.6945178761909
 30
0.0
  0
VERTEX
  5
137
330
135
100
AcDbEntity
  8
Capa 1
 62
   250
420
  2236961
370
     9
100
AcDbVertex
100
AcDb2dVertex
 10
132.4677359090879
 20
-142.5233869301854
 30
0.0
  0
SEQEND
  5
138
330
135
100
AcDbEntity
  8
Capa 1
 62
   250
420
  2236961
370
     9
  0
POLYLINE
  5
139
330
61
100
AcDbEntity
  8
Capa 1
 62
   250
420
  2236961
370
     9
100
AcDb2dPolyline
 66
     1
 10
0.0
 20
0.0
 30
0.0
  0
VERTEX
  5
13A
330
139
100
AcDbEntity
  8
Capa 1
 62
   250
420
  2236961
370
     9
100
AcDbVertex
100
AcDb2dVertex
 10
132.1382448236939
 20
-142.9855249576849
 30
0.0
  0
VERTEX
  5
13B
330
139
100
AcDbEntity
  8
Capa 1
 62
   250
420
  2236961
370
     9
100
AcDbVertex
100
AcDb2dVertex
 10
132.3357995179262
 20
-142.9192041781129
 30
0.0
  0
VERTEX
  5
13C
330
139
100
AcDbEntity
  8
Capa 1
 62
   250
420
  2236961
370
     9
100
AcDbVertex
100
AcDb2dVertex
 10
132.4677359090879
 20
-142.7216467923998
 30
0.0
  0
VERTEX
  5
13D
330
139
100
AcDbEntity
  8
Capa 1
 62
   250
420
  2236961
370
     9
100
AcDbVertex
100
AcDb2dVertex
 10
132.4677359090879
 20
-142.5233869301854
 30
0.0
  0
SEQEND
  5
13E
330
139
100
AcDbEntity
  8
Capa 1
 62
   250
420
  2236961
370
     9
  0
POLYLINE
  5
13F
330
61
100
AcDbEntity
  8
Capa 1
 62
   250
420
  2236961
370
     9
100
AcDb2dPolyline
 66
     1
 10
0.0
 20
0.0
 30
0.0
  0
VERTEX
  5
140
330
13F
100
AcDbEntity
  8
Capa 1
 62
   250
420
  2236961
370
     9
100
AcDbVertex
100
AcDb2dVertex
 10
130.5535654960193
 20
-131.6945178761909
 30
0.0
  0
VERTEX
  5
141
330
13F
100
AcDbEntity
  8
Capa 1
 62
   250
420
  2236961
370
     9
100
AcDbVertex
100
AcDb2dVertex
 10
130.4872420249665
 20
-131.4962580139765
 30
0.0
  0
VERTEX
  5
142
330
13F
100
AcDbEntity
  8
Capa 1
 62
   250
420
  2236961
370
     9
100
AcDbVertex
100
AcDb2dVertex
 10
130.2889821627521
 20
-131.3643216228148
 30
0.0
  0
VERTEX
  5
143
330
13F
100
AcDbEntity
  8
Capa 1
 62
   250
420
  2236961
370
     9
100
AcDbVertex
100
AcDb2dVertex
 10
130.0914274685198
 20
-131.3643216228148
 30
0.0
  0
SEQEND
  5
144
330
13F
100
AcDbEntity
  8
Capa 1
 62
   250
420
  2236961
370
     9
  0
POLYLINE
  5
145
330
61
100
AcDbEntity
  8
Capa 1
 62
   250
420
  2236961
370
     9
100
AcDb2dPolyline
 66
     1
 10
0.0
 20
0.0
 30
0.0
  0
VERTEX
  5
146
330
145
100
AcDbEntity
  8
Capa 1
 62
   250
420
  2236961
370
     9
100
AcDbVertex
100
AcDb2dVertex
 10
127.6480850059552
 20
-131.7608413472437
 30
0.0
  0
VERTEX
  5
147
330
145
100
AcDbEntity
  8
Capa 1
 62
   250
420
  2236961
370
     9
100
AcDbVertex
100
AcDb2dVertex
 10
123.8846519319449
 20
-132.2554386337683
 30
0.0
  0
VERTEX
  5
148
330
145
100
AcDbEntity
  8
Capa 1
 62
   250
420
  2236961
370
     9
100
AcDbVertex
100
AcDb2dVertex
 10
120.1536781169597
 20
-132.9158365234822
 30
0.0
  0
VERTEX
  5
149
330
145
100
AcDbEntity
  8
Capa 1
 62
   250
420
  2236961
370
     9
100
AcDbVertex
100
AcDb2dVertex
 10
116.4234040869949
 20
-133.7413406143267
 30
0.0
  0
VERTEX
  5
14A
330
145
100
AcDbEntity
  8
Capa 1
 62
   250
420
  2236961
370
     9
100
AcDbVertex
100
AcDb2dVertex
 10
112.7587510515816
 20
-134.6987757133712
 30
0.0
  0
VERTEX
  5
14B
330
145
100
AcDbEntity
  8
Capa 1
 62
   250
420
  2236961
370
     9
100
AcDbVertex
100
AcDb2dVertex
 10
109.1272570602138
 20
-135.788152586539
 30
0.0
  0
SEQEND
  5
14C
330
145
100
AcDbEntity
  8
Capa 1
 62
   250
420
  2236961
370
     9
  0
POLYLINE
  5
14D
330
61
100
AcDbEntity
  8
Capa 1
 62
   250
420
  2236961
370
     9
100
AcDb2dPolyline
 66
     1
 10
0.0
 20
0.0
 30
0.0
  0
VERTEX
  5
14E
330
14D
100
AcDbEntity
  8
Capa 1
 62
   250
420
  2236961
370
     9
100
AcDbVertex
100
AcDb2dVertex
 10
128.0770639894092
 20
-143.6459255388796
 30
0.0
  0
VERTEX
  5
14F
330
14D
100
AcDbEntity
  8
Capa 1
 62
   250
420
  2236961
370
     9
100
AcDbVertex
100
AcDb2dVertex
 10
129.6949023611293
 20
-143.415209109121
 30
0.0
  0
SEQEND
  5
150
330
14D
100
AcDbEntity
  8
Capa 1
 62
   250
420
  2236961
370
     9
  0
POLYLINE
  5
151
330
61
100
AcDbEntity
  8
Capa 1
 62
   250
420
  2236961
370
     9
100
AcDb2dPolyline
 66
     1
 10
0.0
 20
0.0
 30
0.0
  0
VERTEX
  5
152
330
151
100
AcDbEntity
  8
Capa 1
 62
   250
420
  2236961
370
     9
100
AcDbVertex
100
AcDb2dVertex
 10
131.3127407328494
 20
-131.3643216228148
 30
0.0
  0
VERTEX
  5
153
330
151
100
AcDbEntity
  8
Capa 1
 62
   250
420
  2236961
370
     9
100
AcDbVertex
100
AcDb2dVertex
 10
141.3817266905508
 20
-131.3643216228148
 30
0.0
  0
SEQEND
  5
154
330
151
100
AcDbEntity
  8
Capa 1
 62
   250
420
  2236961
370
     9
  0
POLYLINE
  5
155
330
61
100
AcDbEntity
  8
Capa 1
 62
   250
420
  2236961
370
     9
100
AcDb2dPolyline
 66
     1
 10
0.0
 20
0.0
 30
0.0
  0
VERTEX
  5
156
330
155
100
AcDbEntity
  8
Capa 1
 62
   250
420
  2236961
370
     9
100
AcDbVertex
100
AcDb2dVertex
 10
122.2336545161793
 20
-179.3999527694227
 30
0.0
  0
VERTEX
  5
157
330
155
100
AcDbEntity
  8
Capa 1
 62
   250
420
  2236961
370
     9
100
AcDbVertex
100
AcDb2dVertex
 10
139.6319465447073
 20
-179.3999527694227
 30
0.0
  0
SEQEND
  5
158
330
155
100
AcDbEntity
  8
Capa 1
 62
   250
420
  2236961
370
     9
  0
POLYLINE
  5
159
330
61
100
AcDbEntity
  8
Capa 1
 62
   250
420
  2236961
370
     9
100
AcDb2dPolyline
 66
     1
 10
0.0
 20
0.0
 30
0.0
  0
VERTEX
  5
15A
330
159
100
AcDbEntity
  8
Capa 1
 62
   250
420
  2236961
370
     9
100
AcDbVertex
100
AcDb2dVertex
 10
139.5663336245984
 20
-131.4306397109059
 30
0.0
  0
VERTEX
  5
15B
330
159
100
AcDbEntity
  8
Capa 1
 62
   250
420
  2236961
370
     9
100
AcDbVertex
100
AcDb2dVertex
 10
139.5663336245984
 20
-152.7250144470306
 30
0.0
  0
SEQEND
  5
15C
330
159
100
AcDbEntity
  8
Capa 1
 62
   250
420
  2236961
370
     9
  0
POLYLINE
  5
15D
330
61
100
AcDbEntity
  8
Capa 1
 62
   250
420
  2236961
370
     9
100
AcDb2dPolyline
 66
     1
 10
0.0
 20
0.0
 30
0.0
  0
VERTEX
  5
15E
330
15D
100
AcDbEntity
  8
Capa 1
 62
   250
420
  2236961
370
     9
100
AcDbVertex
100
AcDb2dVertex
 10
139.5663336245984
 20
-178.8058749864105
 30
0.0
  0
VERTEX
  5
15F
330
15D
100
AcDbEntity
  8
Capa 1
 62
   250
420
  2236961
370
     9
100
AcDbVertex
100
AcDb2dVertex
 10
139.5663336245984
 20
-157.512208782619
 30
0.0
  0
SEQEND
  5
160
330
15D
100
AcDbEntity
  8
Capa 1
 62
   250
420
  2236961
370
     9
  0
POLYLINE
  5
161
330
61
100
AcDbEntity
  8
Capa 1
370
     0
100
AcDb2dPolyline
 66
     1
 10
0.0
 20
0.0
 30
0.0
  0
VERTEX
  5
162
330
161
100
AcDbEntity
  8
Capa 1
370
     0
100
AcDbVertex
100
AcDb2dVertex
 10
69.13552284101792
 20
-179.5273055687005
 30
0.0
  0
VERTEX
  5
163
330
161
100
AcDbEntity
  8
Capa 1
370
     0
100
AcDbVertex
100
AcDb2dVertex
 10
141.5092974997772
 20
-179.5273055687005
 30
0.0
  0
VERTEX
  5
164
330
161
100
AcDbEntity
  8
Capa 1
370
     0
100
AcDbVertex
100
AcDb2dVertex
 10
141.5092974997772
 20
-117.9210153602387
 30
0.0
  0
VERTEX
  5
165
330
161
100
AcDbEntity
  8
Capa 1
370
     0
100
AcDbVertex
100
AcDb2dVertex
 10
69.13552284101792
 20
-117.9210153602387
 30
0.0
  0
VERTEX
  5
166
330
161
100
AcDbEntity
  8
Capa 1
370
     0
100
AcDbVertex
100
AcDb2dVertex
 10
69.13552284101792
 20
-179.5273055687005
 30
0.0
  0
SEQEND
  5
167
330
161
100
AcDbEntity
  8
Capa 1
370
     0
  0
ENDBLK
  5
64
330
61
100
AcDbEntity
  8
0
100
AcDbBlockEnd
  0
BLOCK
  5
1B4
330
1B2
100
AcDbEntity
  8
0
100
AcDbBlockBegin
  2
block 5
 70
     0
 10
0.0
 20
0.0
 30
0.0
  3
block 5
  1

  0
POLYLINE
  5
1B6
330
1B2
100
AcDbEntity
  8
Capa 1
 62
   250
420
  2236961
370
     9
100
AcDb2dPolyline
 66
     1
 10
0.0
 20
0.0
 30
0.0
  0
VERTEX
  5
1B7
330
1B6
100
AcDbEntity
  8
Capa 1
 62
   250
420
  2236961
370
     9
100
AcDbVertex
100
AcDb2dVertex
 10
122.2337244946813
 20
-179.4003753319159
 30
0.0
  0
VERTEX
  5
1B8
330
1B6
100
AcDbEntity
  8
Capa 1
 62
   250
420
  2236961
370
     9
100
AcDbVertex
100
AcDb2dVertex
 10
115.1358373301146
 20
-179.4003753319159
 30
0.0
  0
SEQEND
  5
1B9
330
1B6
100
AcDbEntity
  8
Capa 1
 62
   250
420
  2236961
370
     9
  0
POLYLINE
  5
1BA
330
1B2
100
AcDbEntity
  8
Capa 1
 62
   250
420
  2236961
370
     9
100
AcDb2dPolyline
 66
     1
 10
0.0
 20
0.0
 30
0.0
  0
VERTEX
  5
1BB
330
1BA
100
AcDbEntity
  8
Capa 1
 62
   250
420
  2236961
370
     9
100
AcDbVertex
100
AcDb2dVertex
 10
122.4976026599664
 20
-179.2684389407542
 30
0.0
  0
VERTEX
  5
1BC
330
1BA
100
AcDbEntity
  8
Capa 1
 62
   250
420
  2236961
370
     9
100
AcDbVertex
100
AcDb2dVertex
 10
122.465148783903
 20
-179.2684389407542
 30
0.0
  0
VERTEX
  5
1BD
330
1BA
100
AcDbEntity
  8
Capa 1
 62
   250
420
  2236961
370
     9
100
AcDbVertex
100
AcDb2dVertex
 10
122.2337244946813
 20
-179.4003753319159
 30
0.0
  0
SEQEND
  5
1BE
330
1BA
100
AcDbEntity
  8
Capa 1
 62
   250
420
  2236961
370
     9
  0
POLYLINE
  5
1BF
330
1B2
100
AcDbEntity
  8
Capa 1
 62
   250
420
  2236961
370
     9
100
AcDb2dPolyline
 66
     1
 10
0.0
 20
0.0
 30
0.0
  0
VERTEX
  5
1C0
330
1BF
100
AcDbEntity
  8
Capa 1
 62
   250
420
  2236961
370
     9
100
AcDbVertex
100
AcDb2dVertex
 10
122.2337244946813
 20
-178.6411974036049
 30
0.0
  0
VERTEX
  5
1C1
330
1BF
100
AcDbEntity
  8
Capa 1
 62
   250
420
  2236961
370
     9
100
AcDbVertex
100
AcDb2dVertex
 10
122.729026949188
 20
-178.3434550262922
 30
0.0
  0
SEQEND
  5
1C2
330
1BF
100
AcDbEntity
  8
Capa 1
 62
   250
420
  2236961
370
     9
  0
POLYLINE
  5
1C3
330
1B2
100
AcDbEntity
  8
Capa 1
 62
   250
420
  2236961
370
     9
100
AcDb2dPolyline
 66
     1
 10
0.0
 20
0.0
 30
0.0
  0
VERTEX
  5
1C4
330
1C3
100
AcDbEntity
  8
Capa 1
 62
   250
420
  2236961
370
     9
100
AcDbVertex
100
AcDb2dVertex
 10
119.5596682938389
 20
-176.8582609051968
 30
0.0
  0
VERTEX
  5
1C5
330
1C3
100
AcDbEntity
  8
Capa 1
 62
   250
420
  2236961
370
     9
100
AcDbVertex
100
AcDb2dVertex
 10
121.7052629961291
 20
-176.8582609051968
 30
0.0
  0
SEQEND
  5
1C6
330
1C3
100
AcDbEntity
  8
Capa 1
 62
   250
420
  2236961
370
     9
  0
POLYLINE
  5
1C7
330
1B2
100
AcDbEntity
  8
Capa 1
 62
   250
420
  2236961
370
     9
100
AcDb2dPolyline
 66
     1
 10
0.0
 20
0.0
 30
0.0
  0
VERTEX
  5
1C8
330
1C7
100
AcDbEntity
  8
Capa 1
 62
   250
420
  2236961
370
     9
100
AcDbVertex
100
AcDb2dVertex
 10
115.1358373301146
 20
-176.4948975333326
 30
0.0
  0
VERTEX
  5
1C9
330
1C7
100
AcDbEntity
  8
Capa 1
 62
   250
420
  2236961
370
     9
100
AcDbVertex
100
AcDb2dVertex
 10
118.6022331947944
 20
-176.4948975333326
 30
0.0
  0
SEQEND
  5
1CA
330
1C7
100
AcDbEntity
  8
Capa 1
 62
   250
420
  2236961
370
     9
  0
POLYLINE
  5
1CB
330
1B2
100
AcDbEntity
  8
Capa 1
 62
   250
420
  2236961
370
     9
100
AcDb2dPolyline
 66
     1
 10
0.0
 20
0.0
 30
0.0
  0
VERTEX
  5
1CC
330
1CB
100
AcDbEntity
  8
Capa 1
 62
   250
420
  2236961
370
     9
100
AcDbVertex
100
AcDb2dVertex
 10
121.8372047702524
 20
-176.4948975333326
 30
0.0
  0
VERTEX
  5
1CD
330
1CB
100
AcDbEntity
  8
Capa 1
 62
   250
420
  2236961
370
     9
100
AcDbVertex
100
AcDb2dVertex
 10
122.3332070097796
 20
-176.4948975333326
 30
0.0
  0
SEQEND
  5
1CE
330
1CB
100
AcDbEntity
  8
Capa 1
 62
   250
420
  2236961
370
     9
  0
POLYLINE
  5
1CF
330
1B2
100
AcDbEntity
  8
Capa 1
 62
   250
420
  2236961
370
     9
100
AcDb2dPolyline
 66
     1
 10
0.0
 20
0.0
 30
0.0
  0
VERTEX
  5
1D0
330
1CF
100
AcDbEntity
  8
Capa 1
 62
   250
420
  2236961
370
     9
100
AcDbVertex
100
AcDb2dVertex
 10
114.7393122227241
 20
-178.7399774422019
 30
0.0
  0
VERTEX
  5
1D1
330
1CF
100
AcDbEntity
  8
Capa 1
 62
   250
420
  2236961
370
     9
100
AcDbVertex
100
AcDb2dVertex
 10
115.2346146772308
 20
-179.0370146515325
 30
0.0
  0
SEQEND
  5
1D2
330
1CF
100
AcDbEntity
  8
Capa 1
 62
   250
420
  2236961
370
     9
  0
POLYLINE
  5
1D3
330
1B2
100
AcDbEntity
  8
Capa 1
 62
   250
420
  2236961
370
     9
100
AcDb2dPolyline
 66
     1
 10
0.0
 20
0.0
 30
0.0
  0
VERTEX
  5
1D4
330
1D3
100
AcDbEntity
  8
Capa 1
 62
   250
420
  2236961
370
     9
100
AcDbVertex
100
AcDb2dVertex
 10
122.4976026599664
 20
-179.2684389407542
 30
0.0
  0
VERTEX
  5
1D5
330
1D3
100
AcDbEntity
  8
Capa 1
 62
   250
420
  2236961
370
     9
100
AcDbVertex
100
AcDb2dVertex
 10
122.729026949188
 20
-179.0370146515325
 30
0.0
  0
SEQEND
  5
1D6
330
1D3
100
AcDbEntity
  8
Capa 1
 62
   250
420
  2236961
370
     9
  0
POLYLINE
  5
1D7
330
1B2
100
AcDbEntity
  8
Capa 1
 62
   250
420
  2236961
370
     9
100
AcDb2dPolyline
 66
     1
 10
0.0
 20
0.0
 30
0.0
  0
VERTEX
  5
1D8
330
1D7
100
AcDbEntity
  8
Capa 1
 62
   250
420
  2236961
370
     9
100
AcDbVertex
100
AcDb2dVertex
 10
122.2337244946813
 20
-177.8481552632664
 30
0.0
  0
VERTEX
  5
1D9
330
1D7
100
AcDbEntity
  8
Capa 1
 62
   250
420
  2236961
370
     9
100
AcDbVertex
100
AcDb2dVertex
 10
122.729026949188
 20
-177.5511153624549
 30
0.0
  0
SEQEND
  5
1DA
330
1D7
100
AcDbEntity
  8
Capa 1
 62
   250
420
  2236961
370
     9
  0
POLYLINE
  5
1DB
330
1B2
100
AcDbEntity
  8
Capa 1
 62
   250
420
  2236961
370
     9
100
AcDb2dPolyline
 66
     1
 10
0.0
 20
0.0
 30
0.0
  0
VERTEX
  5
1DC
330
1DB
100
AcDbEntity
  8
Capa 1
 62
   250
420
  2236961
370
     9
100
AcDbVertex
100
AcDb2dVertex
 10
122.2337244946813
 20
-177.0889773349554
 30
0.0
  0
VERTEX
  5
1DD
330
1DB
100
AcDbEntity
  8
Capa 1
 62
   250
420
  2236961
370
     9
100
AcDbVertex
100
AcDb2dVertex
 10
122.6627034781353
 20
-176.8250991696704
 30
0.0
  0
SEQEND
  5
1DE
330
1DB
100
AcDbEntity
  8
Capa 1
 62
   250
420
  2236961
370
     9
  0
POLYLINE
  5
1DF
330
1B2
100
AcDbEntity
  8
Capa 1
 62
   250
420
  2236961
370
     9
100
AcDb2dPolyline
 66
     1
 10
0.0
 20
0.0
 30
0.0
  0
VERTEX
  5
1E0
330
1DF
100
AcDbEntity
  8
Capa 1
 62
   250
420
  2236961
370
     9
100
AcDbVertex
100
AcDb2dVertex
 10
114.7393122227241
 20
-177.9476377783647
 30
0.0
  0
VERTEX
  5
1E1
330
1DF
100
AcDbEntity
  8
Capa 1
 62
   250
420
  2236961
370
     9
100
AcDbVertex
100
AcDb2dVertex
 10
115.2346146772308
 20
-178.2446776791761
 30
0.0
  0
SEQEND
  5
1E2
330
1DF
100
AcDbEntity
  8
Capa 1
 62
   250
420
  2236961
370
     9
  0
POLYLINE
  5
1E3
330
1B2
100
AcDbEntity
  8
Capa 1
 62
   250
420
  2236961
370
     9
100
AcDb2dPolyline
 66
     1
 10
0.0
 20
0.0
 30
0.0
  0
VERTEX
  5
1E4
330
1E3
100
AcDbEntity
  8
Capa 1
 62
   250
420
  2236961
370
     9
100
AcDbVertex
100
AcDb2dVertex
 10
114.7393122227241
 20
-177.1877546820716
 30
0.0
  0
VERTEX
  5
1E5
330
1E3
100
AcDbEntity
  8
Capa 1
 62
   250
420
  2236961
370
     9
100
AcDbVertex
100
AcDb2dVertex
 10
115.2346146772308
 20
-177.4523380153388
 30
0.0
  0
SEQEND
  5
1E6
330
1E3
100
AcDbEntity
  8
Capa 1
 62
   250
420
  2236961
370
     9
  0
POLYLINE
  5
1E7
330
1B2
100
AcDbEntity
  8
Capa 1
 62
   250
420
  2236961
370
     9
100
AcDb2dPolyline
 66
     1
 10
0.0
 20
0.0
 30
0.0
  0
VERTEX
  5
1E8
330
1E7
100
AcDbEntity
  8
Capa 1
 62
   250
420
  2236961
370
     9
100
AcDbVertex
100
AcDb2dVertex
 10
122.729026949188
 20
-178.3434550262922
 30
0.0
  0
VERTEX
  5
1E9
330
1E7
100
AcDbEntity
  8
Capa 1
 62
   250
420
  2236961
370
     9
100
AcDbVertex
100
AcDb2dVertex
 10
122.729026949188
 20
-178.3102932907658
 30
0.0
  0
SEQEND
  5
1EA
330
1E7
100
AcDbEntity
  8
Capa 1
 62
   250
420
  2236961
370
     9
  0
POLYLINE
  5
1EB
330
1B2
100
AcDbEntity
  8
Capa 1
 62
   250
420
  2236961
370
     9
100
AcDb2dPolyline
 66
     1
 10
0.0
 20
0.0
 30
0.0
  0
VERTEX
  5
1EC
330
1EB
100
AcDbEntity
  8
Capa 1
 62
   250
420
  2236961
370
     9
100
AcDbVertex
100
AcDb2dVertex
 10
122.729026949188
 20
-177.5511153624549
 30
0.0
  0
VERTEX
  5
1ED
330
1EB
100
AcDbEntity
  8
Capa 1
 62
   250
420
  2236961
370
     9
100
AcDbVertex
100
AcDb2dVertex
 10
122.729026949188
 20
-177.5179536269285
 30
0.0
  0
SEQEND
  5
1EE
330
1EB
100
AcDbEntity
  8
Capa 1
 62
   250
420
  2236961
370
     9
  0
POLYLINE
  5
1EF
330
1B2
100
AcDbEntity
  8
Capa 1
 62
   250
420
  2236961
370
     9
100
AcDb2dPolyline
 66
     1
 10
0.0
 20
0.0
 30
0.0
  0
VERTEX
  5
1F0
330
1EF
100
AcDbEntity
  8
Capa 1
 62
   250
420
  2236961
370
     9
100
AcDbVertex
100
AcDb2dVertex
 10
115.2346146772308
 20
-179.1357919986486
 30
0.0
  0
VERTEX
  5
1F1
330
1EF
100
AcDbEntity
  8
Capa 1
 62
   250
420
  2236961
370
     9
100
AcDbVertex
100
AcDb2dVertex
 10
115.0038955559913
 20
-179.2684389407542
 30
0.0
  0
SEQEND
  5
1F2
330
1EF
100
AcDbEntity
  8
Capa 1
 62
   250
420
  2236961
370
     9
  0
POLYLINE
  5
1F3
330
1B2
100
AcDbEntity
  8
Capa 1
 62
   250
420
  2236961
370
     9
100
AcDb2dPolyline
 66
     1
 10
0.0
 20
0.0
 30
0.0
  0
VERTEX
  5
1F4
330
1F3
100
AcDbEntity
  8
Capa 1
 62
   250
420
  2236961
370
     9
100
AcDbVertex
100
AcDb2dVertex
 10
115.2346146772308
 20
-178.3434550262922
 30
0.0
  0
VERTEX
  5
1F5
330
1F3
100
AcDbEntity
  8
Capa 1
 62
   250
420
  2236961
370
     9
100
AcDbVertex
100
AcDb2dVertex
 10
114.7393122227241
 20
-178.6411974036049
 30
0.0
  0
SEQEND
  5
1F6
330
1F3
100
AcDbEntity
  8
Capa 1
 62
   250
420
  2236961
370
     9
  0
POLYLINE
  5
1F7
330
1B2
100
AcDbEntity
  8
Capa 1
 62
   250
420
  2236961
370
     9
100
AcDb2dPolyline
 66
     1
 10
0.0
 20
0.0
 30
0.0
  0
VERTEX
  5
1F8
330
1F7
100
AcDbEntity
  8
Capa 1
 62
   250
420
  2236961
370
     9
100
AcDbVertex
100
AcDb2dVertex
 10
115.0363548150164
 20
-176.5612210043853
 30
0.0
  0
VERTEX
  5
1F9
330
1F7
100
AcDbEntity
  8
Capa 1
 62
   250
420
  2236961
370
     9
100
AcDbVertex
100
AcDb2dVertex
 10
115.2346146772308
 20
-176.6924549190457
 30
0.0
  0
SEQEND
  5
1FA
330
1F7
100
AcDbEntity
  8
Capa 1
 62
   250
420
  2236961
370
     9
  0
POLYLINE
  5
1FB
330
1B2
100
AcDbEntity
  8
Capa 1
 62
   250
420
  2236961
370
     9
100
AcDb2dPolyline
 66
     1
 10
0.0
 20
0.0
 30
0.0
  0
VERTEX
  5
1FC
330
1FB
100
AcDbEntity
  8
Capa 1
 62
   250
420
  2236961
370
     9
100
AcDbVertex
100
AcDb2dVertex
 10
115.1358373301146
 20
-179.4003753319159
 30
0.0
  0
VERTEX
  5
1FD
330
1FB
100
AcDbEntity
  8
Capa 1
 62
   250
420
  2236961
370
     9
100
AcDbVertex
100
AcDb2dVertex
 10
115.0038955559913
 20
-179.2684389407542
 30
0.0
  0
SEQEND
  5
1FE
330
1FB
100
AcDbEntity
  8
Capa 1
 62
   250
420
  2236961
370
     9
  0
POLYLINE
  5
1FF
330
1B2
100
AcDbEntity
  8
Capa 1
 62
   250
420
  2236961
370
     9
100
AcDb2dPolyline
 66
     1
 10
0.0
 20
0.0
 30
0.0
  0
VERTEX
  5
200
330
1FF
100
AcDbEntity
  8
Capa 1
 62
   250
420
  2236961
370
     9
100
AcDbVertex
100
AcDb2dVertex
 10
122.2337244946813
 20
-176.2966376711182
 30
0.0
  0
VERTEX
  5
201
330
1FF
100
AcDbEntity
  8
Capa 1
 62
   250
420
  2236961
370
     9
100
AcDbVertex
100
AcDb2dVertex
 10
122.2337244946813
 20
-176.2641811035739
 30
0.0
  0
SEQEND
  5
202
330
1FF
100
AcDbEntity
  8
Capa 1
 62
   250
420
  2236961
370
     9
  0
POLYLINE
  5
203
330
1B2
100
AcDbEntity
  8
Capa 1
 62
   250
420
  2236961
370
     9
100
AcDb2dPolyline
 66
     1
 10
0.0
 20
0.0
 30
0.0
  0
VERTEX
  5
204
330
203
100
AcDbEntity
  8
Capa 1
 62
   250
420
  2236961
370
     9
100
AcDbVertex
100
AcDb2dVertex
 10
115.2346146772308
 20
-177.5842770979813
 30
0.0
  0
VERTEX
  5
205
330
203
100
AcDbEntity
  8
Capa 1
 62
   250
420
  2236961
370
     9
100
AcDbVertex
100
AcDb2dVertex
 10
114.7393122227241
 20
-177.8481552632664
 30
0.0
  0
SEQEND
  5
206
330
203
100
AcDbEntity
  8
Capa 1
 62
   250
420
  2236961
370
     9
  0
POLYLINE
  5
207
330
1B2
100
AcDbEntity
  8
Capa 1
 62
   250
420
  2236961
370
     9
100
AcDb2dPolyline
 66
     1
 10
0.0
 20
0.0
 30
0.0
  0
VERTEX
  5
208
330
207
100
AcDbEntity
  8
Capa 1
 62
   250
420
  2236961
370
     9
100
AcDbVertex
100
AcDb2dVertex
 10
115.2346146772308
 20
-176.7926426021262
 30
0.0
  0
VERTEX
  5
209
330
207
100
AcDbEntity
  8
Capa 1
 62
   250
420
  2236961
370
     9
100
AcDbVertex
100
AcDb2dVertex
 10
114.7393122227241
 20
-177.0889773349554
 30
0.0
  0
SEQEND
  5
20A
330
207
100
AcDbEntity
  8
Capa 1
 62
   250
420
  2236961
370
     9
  0
POLYLINE
  5
20B
330
1B2
100
AcDbEntity
  8
Capa 1
 62
   250
420
  2236961
370
     9
100
AcDb2dPolyline
 66
     1
 10
0.0
 20
0.0
 30
0.0
  0
VERTEX
  5
20C
330
20B
100
AcDbEntity
  8
Capa 1
 62
   250
420
  2236961
370
     9
100
AcDbVertex
100
AcDb2dVertex
 10
122.729026949188
 20
-179.0370146515325
 30
0.0
  0
VERTEX
  5
20D
330
20B
100
AcDbEntity
  8
Capa 1
 62
   250
420
  2236961
370
     9
100
AcDbVertex
100
AcDb2dVertex
 10
122.2337244946813
 20
-178.7399774422019
 30
0.0
  0
SEQEND
  5
20E
330
20B
100
AcDbEntity
  8
Capa 1
 62
   250
420
  2236961
370
     9
  0
POLYLINE
  5
20F
330
1B2
100
AcDbEntity
  8
Capa 1
 62
   250
420
  2236961
370
     9
100
AcDb2dPolyline
 66
     1
 10
0.0
 20
0.0
 30
0.0
  0
VERTEX
  5
210
330
20F
100
AcDbEntity
  8
Capa 1
 62
   250
420
  2236961
370
     9
100
AcDbVertex
100
AcDb2dVertex
 10
122.729026949188
 20
-178.2446776791761
 30
0.0
  0
VERTEX
  5
211
330
20F
100
AcDbEntity
  8
Capa 1
 62
   250
420
  2236961
370
     9
100
AcDbVertex
100
AcDb2dVertex
 10
122.2337244946813
 20
-177.9476377783647
 30
0.0
  0
SEQEND
  5
212
330
20F
100
AcDbEntity
  8
Capa 1
 62
   250
420
  2236961
370
     9
  0
POLYLINE
  5
213
330
1B2
100
AcDbEntity
  8
Capa 1
 62
   250
420
  2236961
370
     9
100
AcDb2dPolyline
 66
     1
 10
0.0
 20
0.0
 30
0.0
  0
VERTEX
  5
214
330
213
100
AcDbEntity
  8
Capa 1
 62
   250
420
  2236961
370
     9
100
AcDbVertex
100
AcDb2dVertex
 10
122.729026949188
 20
-177.4854997508652
 30
0.0
  0
VERTEX
  5
215
330
213
100
AcDbEntity
  8
Capa 1
 62
   250
420
  2236961
370
     9
100
AcDbVertex
100
AcDb2dVertex
 10
122.2337244946813
 20
-177.1877546820716
 30
0.0
  0
SEQEND
  5
216
330
213
100
AcDbEntity
  8
Capa 1
 62
   250
420
  2236961
370
     9
  0
POLYLINE
  5
217
330
1B2
100
AcDbEntity
  8
Capa 1
 62
   250
420
  2236961
370
     9
100
AcDb2dPolyline
 66
     1
 10
0.0
 20
0.0
 30
0.0
  0
VERTEX
  5
218
330
217
100
AcDbEntity
  8
Capa 1
 62
   250
420
  2236961
370
     9
100
AcDbVertex
100
AcDb2dVertex
 10
114.7393122227241
 20
-178.7399774422019
 30
0.0
  0
VERTEX
  5
219
330
217
100
AcDbEntity
  8
Capa 1
 62
   250
420
  2236961
370
     9
100
AcDbVertex
100
AcDb2dVertex
 10
114.7393122227241
 20
-178.7068157066755
 30
0.0
  0
SEQEND
  5
21A
330
217
100
AcDbEntity
  8
Capa 1
 62
   250
420
  2236961
370
     9
  0
POLYLINE
  5
21B
330
1B2
100
AcDbEntity
  8
Capa 1
 62
   250
420
  2236961
370
     9
100
AcDb2dPolyline
 66
     1
 10
0.0
 20
0.0
 30
0.0
  0
VERTEX
  5
21C
330
21B
100
AcDbEntity
  8
Capa 1
 62
   250
420
  2236961
370
     9
100
AcDbVertex
100
AcDb2dVertex
 10
114.7393122227241
 20
-177.9476377783647
 30
0.0
  0
VERTEX
  5
21D
330
21B
100
AcDbEntity
  8
Capa 1
 62
   250
420
  2236961
370
     9
100
AcDbVertex
100
AcDb2dVertex
 10
114.7393122227241
 20
-177.9144760428383
 30
0.0
  0
SEQEND
  5
21E
330
21B
100
AcDbEntity
  8
Capa 1
 62
   250
420
  2236961
370
     9
  0
POLYLINE
  5
21F
330
1B2
100
AcDbEntity
  8
Capa 1
 62
   250
420
  2236961
370
     9
100
AcDb2dPolyline
 66
     1
 10
0.0
 20
0.0
 30
0.0
  0
VERTEX
  5
220
330
21F
100
AcDbEntity
  8
Capa 1
 62
   250
420
  2236961
370
     9
100
AcDbVertex
100
AcDb2dVertex
 10
122.2337244946813
 20
-176.3961201862165
 30
0.0
  0
VERTEX
  5
221
330
21F
100
AcDbEntity
  8
Capa 1
 62
   250
420
  2236961
370
     9
100
AcDbVertex
100
AcDb2dVertex
 10
122.2337244946813
 20
-176.3629611421709
 30
0.0
  0
SEQEND
  5
222
330
21F
100
AcDbEntity
  8
Capa 1
 62
   250
420
  2236961
370
     9
  0
POLYLINE
  5
223
330
1B2
100
AcDbEntity
  8
Capa 1
 62
   250
420
  2236961
370
     9
100
AcDb2dPolyline
 66
     1
 10
0.0
 20
0.0
 30
0.0
  0
VERTEX
  5
224
330
223
100
AcDbEntity
  8
Capa 1
 62
   250
420
  2236961
370
     9
100
AcDbVertex
100
AcDb2dVertex
 10
114.7393122227241
 20
-177.1552981145273
 30
0.0
  0
VERTEX
  5
225
330
223
100
AcDbEntity
  8
Capa 1
 62
   250
420
  2236961
370
     9
100
AcDbVertex
100
AcDb2dVertex
 10
114.7393122227241
 20
-177.1877546820716
 30
0.0
  0
SEQEND
  5
226
330
223
100
AcDbEntity
  8
Capa 1
 62
   250
420
  2236961
370
     9
  0
POLYLINE
  5
227
330
1B2
100
AcDbEntity
  8
Capa 1
 62
   250
420
  2236961
370
     9
100
AcDb2dPolyline
 66
     1
 10
0.0
 20
0.0
 30
0.0
  0
VERTEX
  5
228
330
227
100
AcDbEntity
  8
Capa 1
 62
   250
420
  2236961
370
     9
100
AcDbVertex
100
AcDb2dVertex
 10
115.1358373301146
 20
-176.4948975333326
 30
0.0
  0
VERTEX
  5
229
330
227
100
AcDbEntity
  8
Capa 1
 62
   250
420
  2236961
370
     9
100
AcDbVertex
100
AcDb2dVertex
 10
115.0363548150164
 20
-176.5612210043853
 30
0.0
  0
SEQEND
  5
22A
330
227
100
AcDbEntity
  8
Capa 1
 62
   250
420
  2236961
370
     9
  0
POLYLINE
  5
22B
330
1B2
100
AcDbEntity
  8
Capa 1
 62
   250
420
  2236961
370
     9
100
AcDb2dPolyline
 66
     1
 10
0.0
 20
0.0
 30
0.0
  0
VERTEX
  5
22C
330
22B
100
AcDbEntity
  8
Capa 1
 62
   250
420
  2236961
370
     9
100
AcDbVertex
100
AcDb2dVertex
 10
114.7393122227241
 20
-177.8481552632664
 30
0.0
  0
VERTEX
  5
22D
330
22B
100
AcDbEntity
  8
Capa 1
 62
   250
420
  2236961
370
     9
100
AcDbVertex
100
AcDb2dVertex
 10
114.7393122227241
 20
-177.8820221667749
 30
0.0
  0
SEQEND
  5
22E
330
22B
100
AcDbEntity
  8
Capa 1
 62
   250
420
  2236961
370
     9
  0
POLYLINE
  5
22F
330
1B2
100
AcDbEntity
  8
Capa 1
 62
   250
420
  2236961
370
     9
100
AcDb2dPolyline
 66
     1
 10
0.0
 20
0.0
 30
0.0
  0
VERTEX
  5
230
330
22F
100
AcDbEntity
  8
Capa 1
 62
   250
420
  2236961
370
     9
100
AcDbVertex
100
AcDb2dVertex
 10
114.7393122227241
 20
-177.0889773349554
 30
0.0
  0
VERTEX
  5
231
330
22F
100
AcDbEntity
  8
Capa 1
 62
   250
420
  2236961
370
     9
100
AcDbVertex
100
AcDb2dVertex
 10
114.7393122227241
 20
-177.0565207674112
 30
0.0
  0
SEQEND
  5
232
330
22F
100
AcDbEntity
  8
Capa 1
 62
   250
420
  2236961
370
     9
  0
POLYLINE
  5
233
330
1B2
100
AcDbEntity
  8
Capa 1
 62
   250
420
  2236961
370
     9
100
AcDb2dPolyline
 66
     1
 10
0.0
 20
0.0
 30
0.0
  0
VERTEX
  5
234
330
233
100
AcDbEntity
  8
Capa 1
 62
   250
420
  2236961
370
     9
100
AcDbVertex
100
AcDb2dVertex
 10
122.3332070097796
 20
-176.4948975333326
 30
0.0
  0
VERTEX
  5
235
330
233
100
AcDbEntity
  8
Capa 1
 62
   250
420
  2236961
370
     9
100
AcDbVertex
100
AcDb2dVertex
 10
122.6627034781353
 20
-176.8250991696704
 30
0.0
  0
SEQEND
  5
236
330
233
100
AcDbEntity
  8
Capa 1
 62
   250
420
  2236961
370
     9
  0
POLYLINE
  5
237
330
1B2
100
AcDbEntity
  8
Capa 1
 62
   250
420
  2236961
370
     9
100
AcDb2dPolyline
 66
     1
 10
0.0
 20
0.0
 30
0.0
  0
VERTEX
  5
238
330
237
100
AcDbEntity
  8
Capa 1
 62
   250
420
  2236961
370
     9
100
AcDbVertex
100
AcDb2dVertex
 10
122.729026949188
 20
-178.2446776791761
 30
0.0
  0
VERTEX
  5
239
330
237
100
AcDbEntity
  8
Capa 1
 62
   250
420
  2236961
370
     9
100
AcDbVertex
100
AcDb2dVertex
 10
122.729026949188
 20
-178.2115159436497
 30
0.0
  0
SEQEND
  5
23A
330
237
100
AcDbEntity
  8
Capa 1
 62
   250
420
  2236961
370
     9
  0
POLYLINE
  5
23B
330
1B2
100
AcDbEntity
  8
Capa 1
 62
   250
420
  2236961
370
     9
100
AcDb2dPolyline
 66
     1
 10
0.0
 20
0.0
 30
0.0
  0
VERTEX
  5
23C
330
23B
100
AcDbEntity
  8
Capa 1
 62
   250
420
  2236961
370
     9
100
AcDbVertex
100
AcDb2dVertex
 10
122.729026949188
 20
-177.4854997508652
 30
0.0
  0
VERTEX
  5
23D
330
23B
100
AcDbEntity
  8
Capa 1
 62
   250
420
  2236961
370
     9
100
AcDbVertex
100
AcDb2dVertex
 10
122.729026949188
 20
-177.4523380153388
 30
0.0
  0
SEQEND
  5
23E
330
23B
100
AcDbEntity
  8
Capa 1
 62
   250
420
  2236961
370
     9
  0
POLYLINE
  5
23F
330
1B2
100
AcDbEntity
  8
Capa 1
 62
   250
420
  2236961
370
     9
100
AcDb2dPolyline
 66
     1
 10
0.0
 20
0.0
 30
0.0
  0
VERTEX
  5
240
330
23F
100
AcDbEntity
  8
Capa 1
 62
   250
420
  2236961
370
     9
100
AcDbVertex
100
AcDb2dVertex
 10
122.2337244946813
 20
-176.4285767537607
 30
0.0
  0
VERTEX
  5
241
330
23F
100
AcDbEntity
  8
Capa 1
 62
   250
420
  2236961
370
     9
100
AcDbVertex
100
AcDb2dVertex
 10
122.2337244946813
 20
-176.3961201862165
 30
0.0
  0
SEQEND
  5
242
330
23F
100
AcDbEntity
  8
Capa 1
 62
   250
420
  2236961
370
     9
  0
POLYLINE
  5
243
330
1B2
100
AcDbEntity
  8
Capa 1
 62
   250
420
  2236961
370
     9
100
AcDb2dPolyline
 66
     1
 10
0.0
 20
0.0
 30
0.0
  0
VERTEX
  5
244
330
243
100
AcDbEntity
  8
Capa 1
 62
   250
420
  2236961
370
     9
100
AcDbVertex
100
AcDb2dVertex
 10
115.0363548150164
 20
-176.5612210043853
 30
0.0
  0
VERTEX
  5
245
330
243
100
AcDbEntity
  8
Capa 1
 62
   250
420
  2236961
370
     9
100
AcDbVertex
100
AcDb2dVertex
 10
115.0363548150164
 20
-176.528059268859
 30
0.0
  0
SEQEND
  5
246
330
243
100
AcDbEntity
  8
Capa 1
 62
   250
420
  2236961
370
     9
  0
POLYLINE
  5
247
330
1B2
100
AcDbEntity
  8
Capa 1
 62
   250
420
  2236961
370
     9
100
AcDb2dPolyline
 66
     1
 10
0.0
 20
0.0
 30
0.0
  0
VERTEX
  5
248
330
247
100
AcDbEntity
  8
Capa 1
 62
   250
420
  2236961
370
     9
100
AcDbVertex
100
AcDb2dVertex
 10
122.729026949188
 20
-177.4854997508652
 30
0.0
  0
VERTEX
  5
249
330
247
100
AcDbEntity
  8
Capa 1
 62
   250
420
  2236961
370
     9
100
AcDbVertex
100
AcDb2dVertex
 10
122.729026949188
 20
-177.5511153624549
 30
0.0
  0
SEQEND
  5
24A
330
247
100
AcDbEntity
  8
Capa 1
 62
   250
420
  2236961
370
     9
  0
POLYLINE
  5
24B
330
1B2
100
AcDbEntity
  8
Capa 1
 62
   250
420
  2236961
370
     9
100
AcDb2dPolyline
 66
     1
 10
0.0
 20
0.0
 30
0.0
  0
VERTEX
  5
24C
330
24B
100
AcDbEntity
  8
Capa 1
 62
   250
420
  2236961
370
     9
100
AcDbVertex
100
AcDb2dVertex
 10
122.729026949188
 20
-178.2446776791761
 30
0.0
  0
VERTEX
  5
24D
330
24B
100
AcDbEntity
  8
Capa 1
 62
   250
420
  2236961
370
     9
100
AcDbVertex
100
AcDb2dVertex
 10
122.729026949188
 20
-178.3434550262922
 30
0.0
  0
SEQEND
  5
24E
330
24B
100
AcDbEntity
  8
Capa 1
 62
   250
420
  2236961
370
     9
  0
POLYLINE
  5
24F
330
1B2
100
AcDbEntity
  8
Capa 1
 62
   250
420
  2236961
370
     9
100
AcDb2dPolyline
 66
     1
 10
0.0
 20
0.0
 30
0.0
  0
VERTEX
  5
250
330
24F
100
AcDbEntity
  8
Capa 1
 62
   250
420
  2236961
370
     9
100
AcDbVertex
100
AcDb2dVertex
 10
122.2337244946813
 20
-175.505003175263
 30
0.0
  0
VERTEX
  5
251
330
24F
100
AcDbEntity
  8
Capa 1
 62
   250
420
  2236961
370
     9
100
AcDbVertex
100
AcDb2dVertex
 10
122.2337244946813
 20
-176.2641811035739
 30
0.0
  0
SEQEND
  5
252
330
24F
100
AcDbEntity
  8
Capa 1
 62
   250
420
  2236961
370
     9
  0
POLYLINE
  5
253
330
1B2
100
AcDbEntity
  8
Capa 1
 62
   250
420
  2236961
370
     9
100
AcDb2dPolyline
 66
     1
 10
0.0
 20
0.0
 30
0.0
  0
VERTEX
  5
254
330
253
100
AcDbEntity
  8
Capa 1
 62
   250
420
  2236961
370
     9
100
AcDbVertex
100
AcDb2dVertex
 10
122.2337244946813
 20
-176.4285767537607
 30
0.0
  0
VERTEX
  5
255
330
253
100
AcDbEntity
  8
Capa 1
 62
   250
420
  2236961
370
     9
100
AcDbVertex
100
AcDb2dVertex
 10
122.2337244946813
 20
-176.4948975333326
 30
0.0
  0
SEQEND
  5
256
330
253
100
AcDbEntity
  8
Capa 1
 62
   250
420
  2236961
370
     9
  0
POLYLINE
  5
257
330
1B2
100
AcDbEntity
  8
Capa 1
 62
   250
420
  2236961
370
     9
100
AcDb2dPolyline
 66
     1
 10
0.0
 20
0.0
 30
0.0
  0
VERTEX
  5
258
330
257
100
AcDbEntity
  8
Capa 1
 62
   250
420
  2236961
370
     9
100
AcDbVertex
100
AcDb2dVertex
 10
122.2337244946813
 20
-178.7399774422019
 30
0.0
  0
VERTEX
  5
259
330
257
100
AcDbEntity
  8
Capa 1
 62
   250
420
  2236961
370
     9
100
AcDbVertex
100
AcDb2dVertex
 10
122.2337244946813
 20
-178.6411974036049
 30
0.0
  0
SEQEND
  5
25A
330
257
100
AcDbEntity
  8
Capa 1
 62
   250
420
  2236961
370
     9
  0
POLYLINE
  5
25B
330
1B2
100
AcDbEntity
  8
Capa 1
 62
   250
420
  2236961
370
     9
100
AcDb2dPolyline
 66
     1
 10
0.0
 20
0.0
 30
0.0
  0
VERTEX
  5
25C
330
25B
100
AcDbEntity
  8
Capa 1
 62
   250
420
  2236961
370
     9
100
AcDbVertex
100
AcDb2dVertex
 10
122.2337244946813
 20
-177.980799513891
 30
0.0
  0
VERTEX
  5
25D
330
25B
100
AcDbEntity
  8
Capa 1
 62
   250
420
  2236961
370
     9
100
AcDbVertex
100
AcDb2dVertex
 10
122.2337244946813
 20
-177.8481552632664
 30
0.0
  0
SEQEND
  5
25E
330
25B
100
AcDbEntity
  8
Capa 1
 62
   250
420
  2236961
370
     9
  0
POLYLINE
  5
25F
330
1B2
100
AcDbEntity
  8
Capa 1
 62
   250
420
  2236961
370
     9
100
AcDb2dPolyline
 66
     1
 10
0.0
 20
0.0
 30
0.0
  0
VERTEX
  5
260
330
25F
100
AcDbEntity
  8
Capa 1
 62
   250
420
  2236961
370
     9
100
AcDbVertex
100
AcDb2dVertex
 10
122.2337244946813
 20
-177.1877546820716
 30
0.0
  0
VERTEX
  5
261
330
25F
100
AcDbEntity
  8
Capa 1
 62
   250
420
  2236961
370
     9
100
AcDbVertex
100
AcDb2dVertex
 10
122.2337244946813
 20
-177.0889773349554
 30
0.0
  0
SEQEND
  5
262
330
25F
100
AcDbEntity
  8
Capa 1
 62
   250
420
  2236961
370
     9
  0
POLYLINE
  5
263
330
1B2
100
AcDbEntity
  8
Capa 1
 62
   250
420
  2236961
370
     9
100
AcDb2dPolyline
 66
     1
 10
0.0
 20
0.0
 30
0.0
  0
VERTEX
  5
264
330
263
100
AcDbEntity
  8
Capa 1
 62
   250
420
  2236961
370
     9
100
AcDbVertex
100
AcDb2dVertex
 10
122.2337244946813
 20
-176.3961201862165
 30
0.0
  0
VERTEX
  5
265
330
263
100
AcDbEntity
  8
Capa 1
 62
   250
420
  2236961
370
     9
100
AcDbVertex
100
AcDb2dVertex
 10
122.2337244946813
 20
-176.2966376711182
 30
0.0
  0
SEQEND
  5
266
330
263
100
AcDbEntity
  8
Capa 1
 62
   250
420
  2236961
370
     9
  0
POLYLINE
  5
267
330
1B2
100
AcDbEntity
  8
Capa 1
 62
   250
420
  2236961
370
     9
100
AcDb2dPolyline
 66
     1
 10
0.0
 20
0.0
 30
0.0
  0
VERTEX
  5
268
330
267
100
AcDbEntity
  8
Capa 1
 62
   250
420
  2236961
370
     9
100
AcDbVertex
100
AcDb2dVertex
 10
115.0038955559913
 20
-179.2684389407542
 30
0.0
  0
VERTEX
  5
269
330
267
100
AcDbEntity
  8
Capa 1
 62
   250
420
  2236961
370
     9
100
AcDbVertex
100
AcDb2dVertex
 10
115.0038955559913
 20
-179.2345720372456
 30
0.0
  0
SEQEND
  5
26A
330
267
100
AcDbEntity
  8
Capa 1
 62
   250
420
  2236961
370
     9
  0
POLYLINE
  5
26B
330
1B2
100
AcDbEntity
  8
Capa 1
 62
   250
420
  2236961
370
     9
100
AcDb2dPolyline
 66
     1
 10
0.0
 20
0.0
 30
0.0
  0
VERTEX
  5
26C
330
26B
100
AcDbEntity
  8
Capa 1
 62
   250
420
  2236961
370
     9
100
AcDbVertex
100
AcDb2dVertex
 10
122.729026949188
 20
-179.0370146515325
 30
0.0
  0
VERTEX
  5
26D
330
26B
100
AcDbEntity
  8
Capa 1
 62
   250
420
  2236961
370
     9
100
AcDbVertex
100
AcDb2dVertex
 10
122.729026949188
 20
-179.003855607487
 30
0.0
  0
SEQEND
  5
26E
330
26B
100
AcDbEntity
  8
Capa 1
 62
   250
420
  2236961
370
     9
  0
POLYLINE
  5
26F
330
1B2
100
AcDbEntity
  8
Capa 1
 62
   250
420
  2236961
370
     9
100
AcDb2dPolyline
 66
     1
 10
0.0
 20
0.0
 30
0.0
  0
VERTEX
  5
270
330
26F
100
AcDbEntity
  8
Capa 1
 62
   250
420
  2236961
370
     9
100
AcDbVertex
100
AcDb2dVertex
 10
115.2346146772308
 20
-176.6924549190457
 30
0.0
  0
VERTEX
  5
271
330
26F
100
AcDbEntity
  8
Capa 1
 62
   250
420
  2236961
370
     9
100
AcDbVertex
100
AcDb2dVertex
 10
115.2346146772308
 20
-176.7926426021262
 30
0.0
  0
SEQEND
  5
272
330
26F
100
AcDbEntity
  8
Capa 1
 62
   250
420
  2236961
370
     9
  0
POLYLINE
  5
273
330
1B2
100
AcDbEntity
  8
Capa 1
 62
   250
420
  2236961
370
     9
100
AcDb2dPolyline
 66
     1
 10
0.0
 20
0.0
 30
0.0
  0
VERTEX
  5
274
330
273
100
AcDbEntity
  8
Capa 1
 62
   250
420
  2236961
370
     9
100
AcDbVertex
100
AcDb2dVertex
 10
115.2346146772308
 20
-177.4523380153388
 30
0.0
  0
VERTEX
  5
275
330
273
100
AcDbEntity
  8
Capa 1
 62
   250
420
  2236961
370
     9
100
AcDbVertex
100
AcDb2dVertex
 10
115.2346146772308
 20
-177.5842770979813
 30
0.0
  0
SEQEND
  5
276
330
273
100
AcDbEntity
  8
Capa 1
 62
   250
420
  2236961
370
     9
  0
POLYLINE
  5
277
330
1B2
100
AcDbEntity
  8
Capa 1
 62
   250
420
  2236961
370
     9
100
AcDb2dPolyline
 66
     1
 10
0.0
 20
0.0
 30
0.0
  0
VERTEX
  5
278
330
277
100
AcDbEntity
  8
Capa 1
 62
   250
420
  2236961
370
     9
100
AcDbVertex
100
AcDb2dVertex
 10
115.2346146772308
 20
-178.2446776791761
 30
0.0
  0
VERTEX
  5
279
330
277
100
AcDbEntity
  8
Capa 1
 62
   250
420
  2236961
370
     9
100
AcDbVertex
100
AcDb2dVertex
 10
115.2346146772308
 20
-178.3434550262922
 30
0.0
  0
SEQEND
  5
27A
330
277
100
AcDbEntity
  8
Capa 1
 62
   250
420
  2236961
370
     9
  0
POLYLINE
  5
27B
330
1B2
100
AcDbEntity
  8
Capa 1
 62
   250
420
  2236961
370
     9
100
AcDb2dPolyline
 66
     1
 10
0.0
 20
0.0
 30
0.0
  0
VERTEX
  5
27C
330
27B
100
AcDbEntity
  8
Capa 1
 62
   250
420
  2236961
370
     9
100
AcDbVertex
100
AcDb2dVertex
 10
115.2346146772308
 20
-179.003855607487
 30
0.0
  0
VERTEX
  5
27D
330
27B
100
AcDbEntity
  8
Capa 1
 62
   250
420
  2236961
370
     9
100
AcDbVertex
100
AcDb2dVertex
 10
115.2346146772308
 20
-179.1357919986486
 30
0.0
  0
SEQEND
  5
27E
330
27B
100
AcDbEntity
  8
Capa 1
 62
   250
420
  2236961
370
     9
  0
POLYLINE
  5
27F
330
1B2
100
AcDbEntity
  8
Capa 1
 62
   250
420
  2236961
370
     9
100
AcDb2dPolyline
 66
     1
 10
0.0
 20
0.0
 30
0.0
  0
VERTEX
  5
280
330
27F
100
AcDbEntity
  8
Capa 1
 62
   250
420
  2236961
370
     9
100
AcDbVertex
100
AcDb2dVertex
 10
115.2346146772308
 20
-175.505003175263
 30
0.0
  0
VERTEX
  5
281
330
27F
100
AcDbEntity
  8
Capa 1
 62
   250
420
  2236961
370
     9
100
AcDbVertex
100
AcDb2dVertex
 10
115.2346146772308
 20
-176.4948975333326
 30
0.0
  0
SEQEND
  5
282
330
27F
100
AcDbEntity
  8
Capa 1
 62
   250
420
  2236961
370
     9
  0
POLYLINE
  5
283
330
1B2
100
AcDbEntity
  8
Capa 1
 62
   250
420
  2236961
370
     9
100
AcDb2dPolyline
 66
     1
 10
0.0
 20
0.0
 30
0.0
  0
VERTEX
  5
284
330
283
100
AcDbEntity
  8
Capa 1
 62
   250
420
  2236961
370
     9
100
AcDbVertex
100
AcDb2dVertex
 10
114.7393122227241
 20
-177.0889773349554
 30
0.0
  0
VERTEX
  5
285
330
283
100
AcDbEntity
  8
Capa 1
 62
   250
420
  2236961
370
     9
100
AcDbVertex
100
AcDb2dVertex
 10
114.7393122227241
 20
-177.1552981145273
 30
0.0
  0
SEQEND
  5
286
330
283
100
AcDbEntity
  8
Capa 1
 62
   250
420
  2236961
370
     9
  0
POLYLINE
  5
287
330
1B2
100
AcDbEntity
  8
Capa 1
 62
   250
420
  2236961
370
     9
100
AcDb2dPolyline
 66
     1
 10
0.0
 20
0.0
 30
0.0
  0
VERTEX
  5
288
330
287
100
AcDbEntity
  8
Capa 1
 62
   250
420
  2236961
370
     9
100
AcDbVertex
100
AcDb2dVertex
 10
114.7393122227241
 20
-177.8820221667749
 30
0.0
  0
VERTEX
  5
289
330
287
100
AcDbEntity
  8
Capa 1
 62
   250
420
  2236961
370
     9
100
AcDbVertex
100
AcDb2dVertex
 10
114.7393122227241
 20
-177.9476377783647
 30
0.0
  0
SEQEND
  5
28A
330
287
100
AcDbEntity
  8
Capa 1
 62
   250
420
  2236961
370
     9
  0
POLYLINE
  5
28B
330
1B2
100
AcDbEntity
  8
Capa 1
 62
   250
420
  2236961
370
     9
100
AcDb2dPolyline
 66
     1
 10
0.0
 20
0.0
 30
0.0
  0
VERTEX
  5
28C
330
28B
100
AcDbEntity
  8
Capa 1
 62
   250
420
  2236961
370
     9
100
AcDbVertex
100
AcDb2dVertex
 10
114.7393122227241
 20
-178.6411974036049
 30
0.0
  0
VERTEX
  5
28D
330
28B
100
AcDbEntity
  8
Capa 1
 62
   250
420
  2236961
370
     9
100
AcDbVertex
100
AcDb2dVertex
 10
114.7393122227241
 20
-178.7399774422019
 30
0.0
  0
SEQEND
  5
28E
330
28B
100
AcDbEntity
  8
Capa 1
 62
   250
420
  2236961
370
     9
  0
POLYLINE
  5
28F
330
1B2
100
AcDbEntity
  8
Capa 1
 62
   250
420
  2236961
370
     9
100
AcDb2dPolyline
 66
     1
 10
0.0
 20
0.0
 30
0.0
  0
VERTEX
  5
290
330
28F
100
AcDbEntity
  8
Capa 1
 62
   250
420
  2236961
370
     9
100
AcDbVertex
100
AcDb2dVertex
 10
122.6627034781353
 20
-176.8250991696704
 30
0.0
  0
VERTEX
  5
291
330
28F
100
AcDbEntity
  8
Capa 1
 62
   250
420
  2236961
370
     9
100
AcDbVertex
100
AcDb2dVertex
 10
122.6627034781353
 20
-176.7926426021262
 30
0.0
  0
SEQEND
  5
292
330
28F
100
AcDbEntity
  8
Capa 1
 62
   250
420
  2236961
370
     9
  0
POLYLINE
  5
293
330
1B2
100
AcDbEntity
  8
Capa 1
 62
   250
420
  2236961
370
     9
100
AcDb2dPolyline
 66
     1
 10
0.0
 20
0.0
 30
0.0
  0
VERTEX
  5
294
330
293
100
AcDbEntity
  8
Capa 1
 62
   250
420
  2236961
370
     9
100
AcDbVertex
100
AcDb2dVertex
 10
114.7393122227241
 20
-178.6411974036049
 30
0.0
  0
VERTEX
  5
295
330
293
100
AcDbEntity
  8
Capa 1
 62
   250
420
  2236961
370
     9
100
AcDbVertex
100
AcDb2dVertex
 10
114.7393122227241
 20
-178.6080383595594
 30
0.0
  0
SEQEND
  5
296
330
293
100
AcDbEntity
  8
Capa 1
 62
   250
420
  2236961
370
     9
  0
POLYLINE
  5
297
330
1B2
100
AcDbEntity
  8
Capa 1
 62
   250
420
  2236961
370
     9
100
AcDb2dPolyline
 66
     1
 10
0.0
 20
0.0
 30
0.0
  0
VERTEX
  5
298
330
297
100
AcDbEntity
  8
Capa 1
 62
   250
420
  2236961
370
     9
100
AcDbVertex
100
AcDb2dVertex
 10
117.0175538671198
 20
-176.4948975333326
 30
0.0
  0
VERTEX
  5
299
330
297
100
AcDbEntity
  8
Capa 1
 62
   250
420
  2236961
370
     9
100
AcDbVertex
100
AcDb2dVertex
 10
115.0363548150164
 20
-176.5612210043853
 30
0.0
  0
SEQEND
  5
29A
330
297
100
AcDbEntity
  8
Capa 1
 62
   250
420
  2236961
370
     9
  0
POLYLINE
  5
29B
330
1B2
100
AcDbEntity
  8
Capa 1
 62
   250
420
  2236961
370
     9
100
AcDb2dPolyline
 66
     1
 10
0.0
 20
0.0
 30
0.0
  0
VERTEX
  5
29C
330
29B
100
AcDbEntity
  8
Capa 1
 62
   250
420
  2236961
370
     9
100
AcDbVertex
100
AcDb2dVertex
 10
122.3332070097796
 20
-176.4948975333326
 30
0.0
  0
VERTEX
  5
29D
330
29B
100
AcDbEntity
  8
Capa 1
 62
   250
420
  2236961
370
     9
100
AcDbVertex
100
AcDb2dVertex
 10
122.2005654506358
 20
-176.5612210043853
 30
0.0
  0
VERTEX
  5
29E
330
29B
100
AcDbEntity
  8
Capa 1
 62
   250
420
  2236961
370
     9
100
AcDbVertex
100
AcDb2dVertex
 10
122.0354646324669
 20
-176.6268366159751
 30
0.0
  0
VERTEX
  5
29F
330
29B
100
AcDbEntity
  8
Capa 1
 62
   250
420
  2236961
370
     9
100
AcDbVertex
100
AcDb2dVertex
 10
121.6728091200657
 20
-176.6599983515015
 30
0.0
  0
VERTEX
  5
2A0
330
29B
100
AcDbEntity
  8
Capa 1
 62
   250
420
  2236961
370
     9
100
AcDbVertex
100
AcDb2dVertex
 10
120.9792468033445
 20
-176.7594808665998
 30
0.0
  0
VERTEX
  5
2A1
330
29B
100
AcDbEntity
  8
Capa 1
 62
   250
420
  2236961
370
     9
100
AcDbVertex
100
AcDb2dVertex
 10
119.5596682938389
 20
-176.8582609051968
 30
0.0
  0
SEQEND
  5
2A2
330
29B
100
AcDbEntity
  8
Capa 1
 62
   250
420
  2236961
370
     9
  0
POLYLINE
  5
2A3
330
1B2
100
AcDbEntity
  8
Capa 1
 62
   250
420
  2236961
370
     9
100
AcDb2dPolyline
 66
     1
 10
0.0
 20
0.0
 30
0.0
  0
VERTEX
  5
2A4
330
2A3
100
AcDbEntity
  8
Capa 1
 62
   250
420
  2236961
370
     9
100
AcDbVertex
100
AcDb2dVertex
 10
122.6627034781353
 20
-176.8250991696704
 30
0.0
  0
VERTEX
  5
2A5
330
2A3
100
AcDbEntity
  8
Capa 1
 62
   250
420
  2236961
370
     9
100
AcDbVertex
100
AcDb2dVertex
 10
121.7052629961291
 20
-176.8582609051968
 30
0.0
  0
SEQEND
  5
2A6
330
2A3
100
AcDbEntity
  8
Capa 1
 62
   250
420
  2236961
370
     9
  0
POLYLINE
  5
2A7
330
1B2
100
AcDbEntity
  8
Capa 1
 62
   250
420
  2236961
370
     9
100
AcDb2dPolyline
 66
     1
 10
0.0
 20
0.0
 30
0.0
  0
VERTEX
  5
2A8
330
2A7
100
AcDbEntity
  8
Capa 1
 62
   250
420
  2236961
370
     9
100
AcDbVertex
100
AcDb2dVertex
 10
122.2337244946813
 20
-177.0889773349554
 30
0.0
  0
VERTEX
  5
2A9
330
2A7
100
AcDbEntity
  8
Capa 1
 62
   250
420
  2236961
370
     9
100
AcDbVertex
100
AcDb2dVertex
 10
121.5408673459423
 20
-177.1552981145273
 30
0.0
  0
VERTEX
  5
2AA
330
2A7
100
AcDbEntity
  8
Capa 1
 62
   250
420
  2236961
370
     9
100
AcDbVertex
100
AcDb2dVertex
 10
121.5070031339146
 20
-177.1552981145273
 30
0.0
  0
VERTEX
  5
2AB
330
2A7
100
AcDbEntity
  8
Capa 1
 62
   250
420
  2236961
370
     9
100
AcDbVertex
100
AcDb2dVertex
 10
118.3708089055727
 20
-177.2872371971699
 30
0.0
  0
VERTEX
  5
2AC
330
2A7
100
AcDbEntity
  8
Capa 1
 62
   250
420
  2236961
370
     9
100
AcDbVertex
100
AcDb2dVertex
 10
116.8192940049054
 20
-177.3528555002405
 30
0.0
  0
VERTEX
  5
2AD
330
2A7
100
AcDbEntity
  8
Capa 1
 62
   250
420
  2236961
370
     9
100
AcDbVertex
100
AcDb2dVertex
 10
115.2346146772308
 20
-177.4523380153388
 30
0.0
  0
SEQEND
  5
2AE
330
2A7
100
AcDbEntity
  8
Capa 1
 62
   250
420
  2236961
370
     9
  0
POLYLINE
  5
2AF
330
1B2
100
AcDbEntity
  8
Capa 1
 62
   250
420
  2236961
370
     9
100
AcDb2dPolyline
 66
     1
 10
0.0
 20
0.0
 30
0.0
  0
VERTEX
  5
2B0
330
2AF
100
AcDbEntity
  8
Capa 1
 62
   250
420
  2236961
370
     9
100
AcDbVertex
100
AcDb2dVertex
 10
122.729026949188
 20
-178.2446776791761
 30
0.0
  0
VERTEX
  5
2B1
330
2AF
100
AcDbEntity
  8
Capa 1
 62
   250
420
  2236961
370
     9
100
AcDbVertex
100
AcDb2dVertex
 10
122.6958625221808
 20
-178.2778367232216
 30
0.0
  0
VERTEX
  5
2B2
330
2AF
100
AcDbEntity
  8
Capa 1
 62
   250
420
  2236961
370
     9
100
AcDbVertex
100
AcDb2dVertex
 10
120.1537480954617
 20
-178.4097758058641
 30
0.0
  0
SEQEND
  5
2B3
330
2AF
100
AcDbEntity
  8
Capa 1
 62
   250
420
  2236961
370
     9
  0
POLYLINE
  5
2B4
330
1B2
100
AcDbEntity
  8
Capa 1
 62
   250
420
  2236961
370
     9
100
AcDb2dPolyline
 66
     1
 10
0.0
 20
0.0
 30
0.0
  0
VERTEX
  5
2B5
330
2B4
100
AcDbEntity
  8
Capa 1
 62
   250
420
  2236961
370
     9
100
AcDbVertex
100
AcDb2dVertex
 10
118.6022331947944
 20
-176.4948975333326
 30
0.0
  0
VERTEX
  5
2B6
330
2B4
100
AcDbEntity
  8
Capa 1
 62
   250
420
  2236961
370
     9
100
AcDbVertex
100
AcDb2dVertex
 10
120.4176262607468
 20
-176.3961201862165
 30
0.0
  0
VERTEX
  5
2B7
330
2B4
100
AcDbEntity
  8
Capa 1
 62
   250
420
  2236961
370
     9
100
AcDbVertex
100
AcDb2dVertex
 10
122.2337244946813
 20
-176.2966376711182
 30
0.0
  0
SEQEND
  5
2B8
330
2B4
100
AcDbEntity
  8
Capa 1
 62
   250
420
  2236961
370
     9
  0
POLYLINE
  5
2B9
330
1B2
100
AcDbEntity
  8
Capa 1
 62
   250
420
  2236961
370
     9
100
AcDb2dPolyline
 66
     1
 10
0.0
 20
0.0
 30
0.0
  0
VERTEX
  5
2BA
330
2B9
100
AcDbEntity
  8
Capa 1
 62
   250
420
  2236961
370
     9
100
AcDbVertex
100
AcDb2dVertex
 10
115.0038955559913
 20
-179.2684389407542
 30
0.0
  0
VERTEX
  5
2BB
330
2B9
100
AcDbEntity
  8
Capa 1
 62
   250
420
  2236961
370
     9
100
AcDbVertex
100
AcDb2dVertex
 10
115.0363548150164
 20
-179.2684389407542
 30
0.0
  0
VERTEX
  5
2BC
330
2B9
100
AcDbEntity
  8
Capa 1
 62
   250
420
  2236961
370
     9
100
AcDbVertex
100
AcDb2dVertex
 10
122.729026949188
 20
-179.0370146515325
 30
0.0
  0
SEQEND
  5
2BD
330
2B9
100
AcDbEntity
  8
Capa 1
 62
   250
420
  2236961
370
     9
  0
POLYLINE
  5
2BE
330
1B2
100
AcDbEntity
  8
Capa 1
 62
   250
420
  2236961
370
     9
100
AcDb2dPolyline
 66
     1
 10
0.0
 20
0.0
 30
0.0
  0
VERTEX
  5
2BF
330
2BE
100
AcDbEntity
  8
Capa 1
 62
   250
420
  2236961
370
     9
100
AcDbVertex
100
AcDb2dVertex
 10
122.2337244946813
 20
-176.2966376711182
 30
0.0
  0
VERTEX
  5
2C0
330
2BE
100
AcDbEntity
  8
Capa 1
 62
   250
420
  2236961
370
     9
100
AcDbVertex
100
AcDb2dVertex
 10
122.2005654506358
 20
-176.2966376711182
 30
0.0
  0
VERTEX
  5
2C1
330
2BE
100
AcDbEntity
  8
Capa 1
 62
   250
420
  2236961
370
     9
100
AcDbVertex
100
AcDb2dVertex
 10
118.6022331947944
 20
-176.4948975333326
 30
0.0
  0
VERTEX
  5
2C2
330
2BE
100
AcDbEntity
  8
Capa 1
 62
   250
420
  2236961
370
     9
100
AcDbVertex
100
AcDb2dVertex
 10
118.5690687677871
 20
-176.4948975333326
 30
0.0
  0
VERTEX
  5
2C3
330
2BE
100
AcDbEntity
  8
Capa 1
 62
   250
420
  2236961
370
     9
100
AcDbVertex
100
AcDb2dVertex
 10
116.9180713520215
 20
-176.5612210043853
 30
0.0
  0
VERTEX
  5
2C4
330
2BE
100
AcDbEntity
  8
Capa 1
 62
   250
420
  2236961
370
     9
100
AcDbVertex
100
AcDb2dVertex
 10
115.2346146772308
 20
-176.6924549190457
 30
0.0
  0
SEQEND
  5
2C5
330
2BE
100
AcDbEntity
  8
Capa 1
 62
   250
420
  2236961
370
     9
  0
POLYLINE
  5
2C6
330
1B2
100
AcDbEntity
  8
Capa 1
 62
   250
420
  2236961
370
     9
100
AcDb2dPolyline
 66
     1
 10
0.0
 20
0.0
 30
0.0
  0
VERTEX
  5
2C7
330
2C6
100
AcDbEntity
  8
Capa 1
 62
   250
420
  2236961
370
     9
100
AcDbVertex
100
AcDb2dVertex
 10
119.9554882332473
 20
-178.0132533899544
 30
0.0
  0
VERTEX
  5
2C8
330
2C6
100
AcDbEntity
  8
Capa 1
 62
   250
420
  2236961
370
     9
100
AcDbVertex
100
AcDb2dVertex
 10
117.6116336687426
 20
-178.0795768610072
 30
0.0
  0
VERTEX
  5
2C9
330
2C6
100
AcDbEntity
  8
Capa 1
 62
   250
420
  2236961
370
     9
100
AcDbVertex
100
AcDb2dVertex
 10
116.4234740654969
 20
-178.1451924725969
 30
0.0
  0
VERTEX
  5
2CA
330
2C6
100
AcDbEntity
  8
Capa 1
 62
   250
420
  2236961
370
     9
100
AcDbVertex
100
AcDb2dVertex
 10
115.2346146772308
 20
-178.2446776791761
 30
0.0
  0
SEQEND
  5
2CB
330
2C6
100
AcDbEntity
  8
Capa 1
 62
   250
420
  2236961
370
     9
  0
POLYLINE
  5
2CC
330
1B2
100
AcDbEntity
  8
Capa 1
 62
   250
420
  2236961
370
     9
100
AcDb2dPolyline
 66
     1
 10
0.0
 20
0.0
 30
0.0
  0
VERTEX
  5
2CD
330
2CC
100
AcDbEntity
  8
Capa 1
 62
   250
420
  2236961
370
     9
100
AcDbVertex
100
AcDb2dVertex
 10
119.9554882332473
 20
-178.1127385965335
 30
0.0
  0
VERTEX
  5
2CE
330
2CC
100
AcDbEntity
  8
Capa 1
 62
   250
420
  2236961
370
     9
100
AcDbVertex
100
AcDb2dVertex
 10
117.6116336687426
 20
-178.2115159436497
 30
0.0
  0
VERTEX
  5
2CF
330
2CC
100
AcDbEntity
  8
Capa 1
 62
   250
420
  2236961
370
     9
100
AcDbVertex
100
AcDb2dVertex
 10
115.2346146772308
 20
-178.3434550262922
 30
0.0
  0
SEQEND
  5
2D0
330
2CC
100
AcDbEntity
  8
Capa 1
 62
   250
420
  2236961
370
     9
  0
POLYLINE
  5
2D1
330
1B2
100
AcDbEntity
  8
Capa 1
 62
   250
420
  2236961
370
     9
100
AcDb2dPolyline
 66
     1
 10
0.0
 20
0.0
 30
0.0
  0
VERTEX
  5
2D2
330
2D1
100
AcDbEntity
  8
Capa 1
 62
   250
420
  2236961
370
     9
100
AcDbVertex
100
AcDb2dVertex
 10
114.7393122227241
 20
-178.6411974036049
 30
0.0
  0
VERTEX
  5
2D3
330
2D1
100
AcDbEntity
  8
Capa 1
 62
   250
420
  2236961
370
     9
100
AcDbVertex
100
AcDb2dVertex
 10
117.4465328505737
 20
-178.5085531529803
 30
0.0
  0
VERTEX
  5
2D4
330
2D1
100
AcDbEntity
  8
Capa 1
 62
   250
420
  2236961
370
     9
100
AcDbVertex
100
AcDb2dVertex
 10
120.1537480954617
 20
-178.4097758058641
 30
0.0
  0
SEQEND
  5
2D5
330
2D1
100
AcDbEntity
  8
Capa 1
 62
   250
420
  2236961
370
     9
  0
POLYLINE
  5
2D6
330
1B2
100
AcDbEntity
  8
Capa 1
 62
   250
420
  2236961
370
     9
100
AcDb2dPolyline
 66
     1
 10
0.0
 20
0.0
 30
0.0
  0
VERTEX
  5
2D7
330
2D6
100
AcDbEntity
  8
Capa 1
 62
   250
420
  2236961
370
     9
100
AcDbVertex
100
AcDb2dVertex
 10
121.8372047702524
 20
-176.4948975333326
 30
0.0
  0
VERTEX
  5
2D8
330
2D6
100
AcDbEntity
  8
Capa 1
 62
   250
420
  2236961
370
     9
100
AcDbVertex
100
AcDb2dVertex
 10
122.2337244946813
 20
-176.4285767537607
 30
0.0
  0
SEQEND
  5
2D9
330
2D6
100
AcDbEntity
  8
Capa 1
 62
   250
420
  2236961
370
     9
  0
POLYLINE
  5
2DA
330
1B2
100
AcDbEntity
  8
Capa 1
 62
   250
420
  2236961
370
     9
100
AcDb2dPolyline
 66
     1
 10
0.0
 20
0.0
 30
0.0
  0
VERTEX
  5
2DB
330
2DA
100
AcDbEntity
  8
Capa 1
 62
   250
420
  2236961
370
     9
100
AcDbVertex
100
AcDb2dVertex
 10
114.7393122227241
 20
-177.0889773349554
 30
0.0
  0
VERTEX
  5
2DC
330
2DA
100
AcDbEntity
  8
Capa 1
 62
   250
420
  2236961
370
     9
100
AcDbVertex
100
AcDb2dVertex
 10
117.1494902582815
 20
-176.9577434202951
 30
0.0
  0
VERTEX
  5
2DD
330
2DA
100
AcDbEntity
  8
Capa 1
 62
   250
420
  2236961
370
     9
100
AcDbVertex
100
AcDb2dVertex
 10
119.5596682938389
 20
-176.8582609051968
 30
0.0
  0
SEQEND
  5
2DE
330
2DA
100
AcDbEntity
  8
Capa 1
 62
   250
420
  2236961
370
     9
  0
POLYLINE
  5
2DF
330
1B2
100
AcDbEntity
  8
Capa 1
 62
   250
420
  2236961
370
     9
100
AcDb2dPolyline
 66
     1
 10
0.0
 20
0.0
 30
0.0
  0
VERTEX
  5
2E0
330
2DF
100
AcDbEntity
  8
Capa 1
 62
   250
420
  2236961
370
     9
100
AcDbVertex
100
AcDb2dVertex
 10
120.1537480954617
 20
-177.716921348606
 30
0.0
  0
VERTEX
  5
2E1
330
2DF
100
AcDbEntity
  8
Capa 1
 62
   250
420
  2236961
370
     9
100
AcDbVertex
100
AcDb2dVertex
 10
114.7724766497313
 20
-177.9144760428383
 30
0.0
  0
VERTEX
  5
2E2
330
2DF
100
AcDbEntity
  8
Capa 1
 62
   250
420
  2236961
370
     9
100
AcDbVertex
100
AcDb2dVertex
 10
114.7393122227241
 20
-177.9476377783647
 30
0.0
  0
SEQEND
  5
2E3
330
2DF
100
AcDbEntity
  8
Capa 1
 62
   250
420
  2236961
370
     9
  0
POLYLINE
  5
2E4
330
1B2
100
AcDbEntity
  8
Capa 1
 62
   250
420
  2236961
370
     9
100
AcDb2dPolyline
 66
     1
 10
0.0
 20
0.0
 30
0.0
  0
VERTEX
  5
2E5
330
2E4
100
AcDbEntity
  8
Capa 1
 62
   250
420
  2236961
370
     9
100
AcDbVertex
100
AcDb2dVertex
 10
122.2337244946813
 20
-177.980799513891
 30
0.0
  0
VERTEX
  5
2E6
330
2E4
100
AcDbEntity
  8
Capa 1
 62
   250
420
  2236961
370
     9
100
AcDbVertex
100
AcDb2dVertex
 10
121.1111885774679
 20
-178.0795768610072
 30
0.0
  0
VERTEX
  5
2E7
330
2E4
100
AcDbEntity
  8
Capa 1
 62
   250
420
  2236961
370
     9
100
AcDbVertex
100
AcDb2dVertex
 10
119.9554882332473
 20
-178.1127385965335
 30
0.0
  0
SEQEND
  5
2E8
330
2E4
100
AcDbEntity
  8
Capa 1
 62
   250
420
  2236961
370
     9
  0
POLYLINE
  5
2E9
330
1B2
100
AcDbEntity
  8
Capa 1
 62
   250
420
  2236961
370
     9
100
AcDb2dPolyline
 66
     1
 10
0.0
 20
0.0
 30
0.0
  0
VERTEX
  5
2EA
330
2E9
100
AcDbEntity
  8
Capa 1
 62
   250
420
  2236961
370
     9
100
AcDbVertex
100
AcDb2dVertex
 10
121.7052629961291
 20
-176.8582609051968
 30
0.0
  0
VERTEX
  5
2EB
330
2E9
100
AcDbEntity
  8
Capa 1
 62
   250
420
  2236961
370
     9
100
AcDbVertex
100
AcDb2dVertex
 10
118.2064132553859
 20
-176.9901999878393
 30
0.0
  0
VERTEX
  5
2EC
330
2E9
100
AcDbEntity
  8
Capa 1
 62
   250
420
  2236961
370
     9
100
AcDbVertex
100
AcDb2dVertex
 10
116.455933324522
 20
-177.0565207674112
 30
0.0
  0
VERTEX
  5
2ED
330
2E9
100
AcDbEntity
  8
Capa 1
 62
   250
420
  2236961
370
     9
100
AcDbVertex
100
AcDb2dVertex
 10
114.7393122227241
 20
-177.1552981145273
 30
0.0
  0
SEQEND
  5
2EE
330
2E9
100
AcDbEntity
  8
Capa 1
 62
   250
420
  2236961
370
     9
  0
POLYLINE
  5
2EF
330
1B2
100
AcDbEntity
  8
Capa 1
 62
   250
420
  2236961
370
     9
100
AcDb2dPolyline
 66
     1
 10
0.0
 20
0.0
 30
0.0
  0
VERTEX
  5
2F0
330
2EF
100
AcDbEntity
  8
Capa 1
 62
   250
420
  2236961
370
     9
100
AcDbVertex
100
AcDb2dVertex
 10
122.2337244946813
 20
-177.1877546820716
 30
0.0
  0
VERTEX
  5
2F1
330
2EF
100
AcDbEntity
  8
Capa 1
 62
   250
420
  2236961
370
     9
100
AcDbVertex
100
AcDb2dVertex
 10
115.2346146772308
 20
-177.5842770979813
 30
0.0
  0
SEQEND
  5
2F2
330
2EF
100
AcDbEntity
  8
Capa 1
 62
   250
420
  2236961
370
     9
  0
POLYLINE
  5
2F3
330
1B2
100
AcDbEntity
  8
Capa 1
 62
   250
420
  2236961
370
     9
100
AcDb2dPolyline
 66
     1
 10
0.0
 20
0.0
 30
0.0
  0
VERTEX
  5
2F4
330
2F3
100
AcDbEntity
  8
Capa 1
 62
   250
420
  2236961
370
     9
100
AcDbVertex
100
AcDb2dVertex
 10
122.729026949188
 20
-177.4854997508652
 30
0.0
  0
VERTEX
  5
2F5
330
2F3
100
AcDbEntity
  8
Capa 1
 62
   250
420
  2236961
370
     9
100
AcDbVertex
100
AcDb2dVertex
 10
122.6958625221808
 20
-177.4854997508652
 30
0.0
  0
VERTEX
  5
2F6
330
2F3
100
AcDbEntity
  8
Capa 1
 62
   250
420
  2236961
370
     9
100
AcDbVertex
100
AcDb2dVertex
 10
114.7393122227241
 20
-177.8481552632664
 30
0.0
  0
SEQEND
  5
2F7
330
2F3
100
AcDbEntity
  8
Capa 1
 62
   250
420
  2236961
370
     9
  0
POLYLINE
  5
2F8
330
1B2
100
AcDbEntity
  8
Capa 1
 62
   250
420
  2236961
370
     9
100
AcDb2dPolyline
 66
     1
 10
0.0
 20
0.0
 30
0.0
  0
VERTEX
  5
2F9
330
2F8
100
AcDbEntity
  8
Capa 1
 62
   250
420
  2236961
370
     9
100
AcDbVertex
100
AcDb2dVertex
 10
122.2337244946813
 20
-176.3961201862165
 30
0.0
  0
VERTEX
  5
2FA
330
2F8
100
AcDbEntity
  8
Capa 1
 62
   250
420
  2236961
370
     9
100
AcDbVertex
100
AcDb2dVertex
 10
122.2005654506358
 20
-176.4285767537607
 30
0.0
  0
VERTEX
  5
2FB
330
2F8
100
AcDbEntity
  8
Capa 1
 62
   250
420
  2236961
370
     9
100
AcDbVertex
100
AcDb2dVertex
 10
121.8372047702524
 20
-176.4617384892871
 30
0.0
  0
VERTEX
  5
2FC
330
2F8
100
AcDbEntity
  8
Capa 1
 62
   250
420
  2236961
370
     9
100
AcDbVertex
100
AcDb2dVertex
 10
118.5359097237416
 20
-176.5936775719296
 30
0.0
  0
VERTEX
  5
2FD
330
2F8
100
AcDbEntity
  8
Capa 1
 62
   250
420
  2236961
370
     9
100
AcDbVertex
100
AcDb2dVertex
 10
116.8849069250143
 20
-176.6599983515015
 30
0.0
  0
VERTEX
  5
2FE
330
2F8
100
AcDbEntity
  8
Capa 1
 62
   250
420
  2236961
370
     9
100
AcDbVertex
100
AcDb2dVertex
 10
115.2346146772308
 20
-176.7926426021262
 30
0.0
  0
SEQEND
  5
2FF
330
2F8
100
AcDbEntity
  8
Capa 1
 62
   250
420
  2236961
370
     9
  0
POLYLINE
  5
300
330
1B2
100
AcDbEntity
  8
Capa 1
 62
   250
420
  2236961
370
     9
100
AcDb2dPolyline
 66
     1
 10
0.0
 20
0.0
 30
0.0
  0
VERTEX
  5
301
330
300
100
AcDbEntity
  8
Capa 1
 62
   250
420
  2236961
370
     9
100
AcDbVertex
100
AcDb2dVertex
 10
122.729026949188
 20
-178.3434550262922
 30
0.0
  0
VERTEX
  5
302
330
300
100
AcDbEntity
  8
Capa 1
 62
   250
420
  2236961
370
     9
100
AcDbVertex
100
AcDb2dVertex
 10
114.7393122227241
 20
-178.7399774422019
 30
0.0
  0
SEQEND
  5
303
330
300
100
AcDbEntity
  8
Capa 1
 62
   250
420
  2236961
370
     9
  0
POLYLINE
  5
304
330
1B2
100
AcDbEntity
  8
Capa 1
 62
   250
420
  2236961
370
     9
100
AcDb2dPolyline
 66
     1
 10
0.0
 20
0.0
 30
0.0
  0
VERTEX
  5
305
330
304
100
AcDbEntity
  8
Capa 1
 62
   250
420
  2236961
370
     9
100
AcDbVertex
100
AcDb2dVertex
 10
122.2337244946813
 20
-178.6411974036049
 30
0.0
  0
VERTEX
  5
306
330
304
100
AcDbEntity
  8
Capa 1
 62
   250
420
  2236961
370
     9
100
AcDbVertex
100
AcDb2dVertex
 10
115.2346146772308
 20
-179.003855607487
 30
0.0
  0
SEQEND
  5
307
330
304
100
AcDbEntity
  8
Capa 1
 62
   250
420
  2236961
370
     9
  0
POLYLINE
  5
308
330
1B2
100
AcDbEntity
  8
Capa 1
 62
   250
420
  2236961
370
     9
100
AcDb2dPolyline
 66
     1
 10
0.0
 20
0.0
 30
0.0
  0
VERTEX
  5
309
330
308
100
AcDbEntity
  8
Capa 1
 62
   250
420
  2236961
370
     9
100
AcDbVertex
100
AcDb2dVertex
 10
122.2337244946813
 20
-178.7399774422019
 30
0.0
  0
VERTEX
  5
30A
330
308
100
AcDbEntity
  8
Capa 1
 62
   250
420
  2236961
370
     9
100
AcDbVertex
100
AcDb2dVertex
 10
115.2677737212763
 20
-179.1357919986486
 30
0.0
  0
VERTEX
  5
30B
330
308
100
AcDbEntity
  8
Capa 1
 62
   250
420
  2236961
370
     9
100
AcDbVertex
100
AcDb2dVertex
 10
115.2346146772308
 20
-179.1357919986486
 30
0.0
  0
SEQEND
  5
30C
330
308
100
AcDbEntity
  8
Capa 1
 62
   250
420
  2236961
370
     9
  0
POLYLINE
  5
30D
330
1B2
100
AcDbEntity
  8
Capa 1
 62
   250
420
  2236961
370
     9
100
AcDb2dPolyline
 66
     1
 10
0.0
 20
0.0
 30
0.0
  0
VERTEX
  5
30E
330
30D
100
AcDbEntity
  8
Capa 1
 62
   250
420
  2236961
370
     9
100
AcDbVertex
100
AcDb2dVertex
 10
122.729026949188
 20
-177.5511153624549
 30
0.0
  0
VERTEX
  5
30F
330
30D
100
AcDbEntity
  8
Capa 1
 62
   250
420
  2236961
370
     9
100
AcDbVertex
100
AcDb2dVertex
 10
120.1537480954617
 20
-177.716921348606
 30
0.0
  0
SEQEND
  5
310
330
30D
100
AcDbEntity
  8
Capa 1
 62
   250
420
  2236961
370
     9
  0
POLYLINE
  5
311
330
1B2
100
AcDbEntity
  8
Capa 1
 62
   250
420
  2236961
370
     9
100
AcDb2dPolyline
 66
     1
 10
0.0
 20
0.0
 30
0.0
  0
VERTEX
  5
312
330
311
100
AcDbEntity
  8
Capa 1
 62
   250
420
  2236961
370
     9
100
AcDbVertex
100
AcDb2dVertex
 10
122.2337244946813
 20
-177.8481552632664
 30
0.0
  0
VERTEX
  5
313
330
311
100
AcDbEntity
  8
Capa 1
 62
   250
420
  2236961
370
     9
100
AcDbVertex
100
AcDb2dVertex
 10
119.9554882332473
 20
-178.0132533899544
 30
0.0
  0
SEQEND
  5
314
330
311
100
AcDbEntity
  8
Capa 1
 62
   250
420
  2236961
370
     9
  0
POLYLINE
  5
315
330
1B2
100
AcDbEntity
  8
Capa 1
 62
   250
420
  2236961
370
     9
100
AcDb2dPolyline
 66
     1
 10
0.0
 20
0.0
 30
0.0
  0
VERTEX
  5
316
330
315
100
AcDbEntity
  8
Capa 1
 62
   250
420
  2236961
370
     9
100
AcDbVertex
100
AcDb2dVertex
 10
122.465148783903
 20
-179.2684389407542
 30
0.0
  0
VERTEX
  5
317
330
315
100
AcDbEntity
  8
Capa 1
 62
   250
420
  2236961
370
     9
100
AcDbVertex
100
AcDb2dVertex
 10
121.9035228583435
 20
-179.4003753319159
 30
0.0
  0
SEQEND
  5
318
330
315
100
AcDbEntity
  8
Capa 1
 62
   250
420
  2236961
370
     9
  0
POLYLINE
  5
319
330
1B2
100
AcDbEntity
  8
Capa 1
 62
   250
420
  2236961
370
     9
100
AcDb2dPolyline
 66
     1
 10
0.0
 20
0.0
 30
0.0
  0
VERTEX
  5
31A
330
319
100
AcDbEntity
  8
Capa 1
 62
   250
420
  2236961
370
     9
100
AcDbVertex
100
AcDb2dVertex
 10
129.694977722593
 20
-143.4149265036319
 30
0.0
  0
VERTEX
  5
31B
330
319
100
AcDbEntity
  8
Capa 1
 62
   250
420
  2236961
370
     9
100
AcDbVertex
100
AcDb2dVertex
 10
127.648160367419
 20
-131.7605614332355
 30
0.0
  0
SEQEND
  5
31C
330
319
100
AcDbEntity
  8
Capa 1
 62
   250
420
  2236961
370
     9
  0
POLYLINE
  5
31D
330
1B2
100
AcDbEntity
  8
Capa 1
370
     0
100
AcDb2dPolyline
 66
     1
 10
0.0
 20
0.0
 30
0.0
  0
VERTEX
  5
31E
330
31D
100
AcDbEntity
  8
Capa 1
370
     0
100
AcDbVertex
100
AcDb2dVertex
 10
69.13552284101792
 20
-179.5273055687005
 30
0.0
  0
VERTEX
  5
31F
330
31D
100
AcDbEntity
  8
Capa 1
370
     0
100
AcDbVertex
100
AcDb2dVertex
 10
141.5092974997772
 20
-179.5273055687005
 30
0.0
  0
VERTEX
  5
320
330
31D
100
AcDbEntity
  8
Capa 1
370
     0
100
AcDbVertex
100
AcDb2dVertex
 10
141.5092974997772
 20
-117.9210153602387
 30
0.0
  0
VERTEX
  5
321
330
31D
100
AcDbEntity
  8
Capa 1
370
     0
100
AcDbVertex
100
AcDb2dVertex
 10
69.13552284101792
 20
-117.9210153602387
 30
0.0
  0
VERTEX
  5
322
330
31D
100
AcDbEntity
  8
Capa 1
370
     0
100
AcDbVertex
100
AcDb2dVertex
 10
69.13552284101792
 20
-179.5273055687005
 30
0.0
  0
SEQEND
  5
323
330
31D
100
AcDbEntity
  8
Capa 1
370
     0
  0
ENDBLK
  5
1B5
330
1B2
100
AcDbEntity
  8
0
100
AcDbBlockEnd
  0
BLOCK
  5
326
330
324
100
AcDbEntity
  8
0
100
AcDbBlockBegin
  2
block 6
 70
     0
 10
0.0
 20
0.0
 30
0.0
  3
block 6
  1

  0
INSERT
  5
329
330
324
100
AcDbEntity
  8
Capa 1
100
AcDbBlockReference
  2
block 7
 10
0.0
 20
0.0
 30
0.0
  0
POLYLINE
  5
336
330
324
100
AcDbEntity
  8
Capa 1
370
     0
100
AcDb2dPolyline
 66
     1
 10
0.0
 20
0.0
 30
0.0
  0
VERTEX
  5
337
330
336
100
AcDbEntity
  8
Capa 1
370
     0
100
AcDbVertex
100
AcDb2dVertex
 10
69.13552284101792
 20
-152.3027399423686
 30
0.0
  0
VERTEX
  5
338
330
336
100
AcDbEntity
  8
Capa 1
370
     0
100
AcDbVertex
100
AcDb2dVertex
 10
97.64843306219508
 20
-152.3027399423686
 30
0.0
  0
VERTEX
  5
339
330
336
100
AcDbEntity
  8
Capa 1
370
     0
100
AcDbVertex
100
AcDb2dVertex
 10
97.64843306219508
 20
-178.1535898928422
 30
0.0
  0
VERTEX
  5
33A
330
336
100
AcDbEntity
  8
Capa 1
370
     0
100
AcDbVertex
100
AcDb2dVertex
 10
69.13552284101792
 20
-178.1535898928422
 30
0.0
  0
VERTEX
  5
33B
330
336
100
AcDbEntity
  8
Capa 1
370
     0
100
AcDbVertex
100
AcDb2dVertex
 10
69.13552284101792
 20
-152.3027399423686
 30
0.0
  0
SEQEND
  5
33C
330
336
100
AcDbEntity
  8
Capa 1
370
     0
  0
ENDBLK
  5
327
330
324
100
AcDbEntity
  8
0
100
AcDbBlockEnd
  0
BLOCK
  5
32A
330
328
100
AcDbEntity
  8
0
100
AcDbBlockBegin
  2
block 7
 70
     0
 10
0.0
 20
0.0
 30
0.0
  3
block 7
  1

  0
IMAGE
  5
32D
330
328
100
AcDbEntity
  8
Capa 1
160
                 8
310
0800000000000000
100
AcDbRasterImage
 90
        0
 10
68.91368022361462
 20
-178.1539055951348
 30
0.0
 11
0.1590852848787754
 21
0.0
 31
0.0
 12
0.0
 22
0.1594051820965784
 32
0.0
 13
186.0
 23
167.0
340
32C
 70
     3
280
     0
281
    50
282
    50
283
     0
360
32E
 71
     1
 91
        2
 14
-0.5
 24
-0.5
 14
185.5
 24
166.5
290
     0
  0
POLYLINE
  5
32F
330
328
100
AcDbEntity
  8
Capa 1
370
     0
100
AcDb2dPolyline
 66
     1
 10
0.0
 20
0.0
 30
0.0
  0
VERTEX
  5
330
330
32F
100
AcDbEntity
  8
Capa 1
370
     0
100
AcDbVertex
100
AcDb2dVertex
 10
68.91368022361462
 20
-178.153901936403
 30
0.0
  0
VERTEX
  5
331
330
32F
100
AcDbEntity
  8
Capa 1
370
     0
100
AcDbVertex
100
AcDb2dVertex
 10
98.50354344236597
 20
-178.153901936403
 30
0.0
  0
VERTEX
  5
332
330
32F
100
AcDbEntity
  8
Capa 1
370
     0
100
AcDbVertex
100
AcDb2dVertex
 10
98.50354344236597
 20
-151.5332401850062
 30
0.0
  0
VERTEX
  5
333
330
32F
100
AcDbEntity
  8
Capa 1
370
     0
100
AcDbVertex
100
AcDb2dVertex
 10
68.91368022361462
 20
-151.5332401850062
 30
0.0
  0
VERTEX
  5
334
330
32F
100
AcDbEntity
  8
Capa 1
370
     0
100
AcDbVertex
100
AcDb2dVertex
 10
68.91368022361462
 20
-178.153901936403
 30
0.0
  0
SEQEND
  5
335
330
32F
100
AcDbEntity
  8
Capa 1
370
     0
  0
ENDBLK
  5
32B
330
328
100
AcDbEntity
  8
0
100
AcDbBlockEnd
  0
ENDSEC
  0
SECTION
  2
ENTITIES
  0
INSERT
  5
42
330
1F
100
AcDbEntity
  8
Capa 1
100
AcDbBlockReference
  2
block 2
 10
0.0
 20
0.0
 30
0.0
  0
MTEXT
  5
5C
330
1F
100
AcDbEntity
  8
Capa 1
 62
   250
420
  2236961
100
AcDbMText
 10
114.6908660706985
 20
-126.4846902525515
 30
0.0
 40
2.497666633480887
 41
0.0
 46
0.0
 71
     7
 72
     1
  1
\fArial|b1|i0|c0|p34;\W1;7
 11
0.9834849366609799
 21
0.1809899979583077
 31
0.0
 73
     1
 44
1.0
  0
MTEXT
  5
5D
330
1F
100
AcDbEntity
  8
Capa 1
 62
   250
420
  2236961
100
AcDbMText
 10
116.3605707699733
 20
-126.1774157444755
 30
0.0
 40
2.497666633480887
 41
0.0
 46
0.0
 71
     7
 72
     1
  1
\fArial|b1|i0|c0|p34;\W1;8
 11
0.9834849366609799
 21
0.1809899979583077
 31
0.0
 73
     1
 44
1.0
  0
MTEXT
  5
5E
330
1F
100
AcDbEntity
  8
Capa 1
 62
   250
420
  2236961
100
AcDbMText
 10
138.3602023308613
 20
-157.5834906290069
 30
0.0
 40
2.49766666604225
 41
0.0
 46
0.0
 71
     7
 72
     1
  1
\fArial|b1|i0|c0|p34;\W1;124
 11
-1.608122649676637E-16
 21
1.0
 31
0.0
 73
     1
 44
1.0
  0
MTEXT
  5
5F
330
1F
100
AcDbEntity
  8
Capa 1
 62
   250
420
  2236961
100
AcDbMText
 10
133.1245450559988
 20
-134.1061621296576
 30
0.0
 40
2.497666628314995
 41
0.0
 46
0.0
 71
     7
 72
     1
  1
\fArial|b1|i0|c0|p34;\W1;Ø
 11
0.1881315736577668
 21
-0.9821438341674056
 31
0.0
 73
     1
 44
1.0
  0
MTEXT
  5
60
330
1F
100
AcDbEntity
  8
Capa 1
 62
   250
420
  2236961
100
AcDbMText
 10
133.5713667226871
 20
-136.4388016562294
 30
0.0
 40
2.497666628314995
 41
0.0
 46
0.0
 71
     7
 72
     1
  1
\fArial|b1|i0|c0|p34;\W1;31
 11
0.1881315736577668
 21
-0.9821438341674056
 31
0.0
 73
     1
 44
1.0
  0
INSERT
  5
62
330
1F
100
AcDbEntity
  8
Capa 1
100
AcDbBlockReference
  2
block 4
 10
0.0
 20
0.0
 30
0.0
  0
POLYLINE
  5
168
330
1F
100
AcDbEntity
  8
Capa 1
370
     0
100
AcDb2dPolyline
 66
     1
 10
0.0
 20
0.0
 30
0.0
  0
VERTEX
  5
169
330
168
100
AcDbEntity
  8
Capa 1
370
     0
100
AcDbVertex
100
AcDb2dVertex
 10
139.4668511095001
 20
-132.0248594695328
 30
0.0
  0
VERTEX
  5
16A
330
168
100
AcDbEntity
  8
Capa 1
370
     0
100
AcDbVertex
100
AcDb2dVertex
 10
139.6651109717145
 20
-132.0248594695328
 30
0.0
  0
VERTEX
  5
16B
330
168
100
AcDbEntity
  8
Capa 1
370
     0
100
AcDbVertex
100
AcDb2dVertex
 10
139.5663336245984
 20
-131.4307850508717
 30
0.0
  0
VERTEX
  5
16C
330
168
100
AcDbEntity
  8
Capa 1
370
     0
100
AcDbVertex
100
AcDb2dVertex
 10
139.4668511095001
 20
-132.0248594695328
 30
0.0
  0
SEQEND
  5
16E
330
168
100
AcDbEntity
  8
Capa 1
370
     0
  0
HATCH
  5
16D
330
1F
100
AcDbEntity
  8
Capa 1
 62
   250
420
  2236961
100
AcDbHatch
 10
0.0
 20
0.0
 30
0.0
210
0.0
220
0.0
230
1.0
  2
SOLID
 70
     1
 71
     0
 91
        1
 92
        1
 93
        3
 72
     1
 10
139.4668511095001
 20
-132.0248594695328
 11
139.6651109717145
 21
-132.0248594695328
 72
     1
 10
139.6651109717145
 20
-132.0248594695328
 11
139.5663336245984
 21
-131.4307850508717
 72
     1
 10
139.5663336245984
 20
-131.4307850508717
 11
139.4668511095001
 21
-132.0248594695328
 97
        0
 75
     2
 76
     1
 98
        0
  0
POLYLINE
  5
16F
330
1F
100
AcDbEntity
  8
Capa 1
370
     0
100
AcDb2dPolyline
 66
     1
 10
0.0
 20
0.0
 30
0.0
  0
VERTEX
  5
170
330
16F
100
AcDbEntity
  8
Capa 1
370
     0
100
AcDbVertex
100
AcDb2dVertex
 10
139.4668511095001
 20
-178.805945553674
 30
0.0
  0
VERTEX
  5
171
330
16F
100
AcDbEntity
  8
Capa 1
370
     0
100
AcDbVertex
100
AcDb2dVertex
 10
139.5663336245984
 20
-179.4000233366862
 30
0.0
  0
VERTEX
  5
172
330
16F
100
AcDbEntity
  8
Capa 1
370
     0
100
AcDbVertex
100
AcDb2dVertex
 10
139.6651109717145
 20
-178.805945553674
 30
0.0
  0
VERTEX
  5
173
330
16F
100
AcDbEntity
  8
Capa 1
370
     0
100
AcDbVertex
100
AcDb2dVertex
 10
139.4668511095001
 20
-178.805945553674
 30
0.0
  0
SEQEND
  5
175
330
16F
100
AcDbEntity
  8
Capa 1
370
     0
  0
HATCH
  5
174
330
1F
100
AcDbEntity
  8
Capa 1
 62
   250
420
  2236961
100
AcDbHatch
 10
0.0
 20
0.0
 30
0.0
210
0.0
220
0.0
230
1.0
  2
SOLID
 70
     1
 71
     0
 91
        1
 92
        1
 93
        3
 72
     1
 10
139.4668511095001
 20
-178.805945553674
 11
139.5663336245984
 21
-179.4000233366862
 72
     1
 10
139.5663336245984
 20
-179.4000233366862
 11
139.6651109717145
 21
-178.805945553674
 72
     1
 10
139.6651109717145
 20
-178.805945553674
 11
139.4668511095001
 21
-178.805945553674
 97
        0
 75
     2
 76
     1
 98
        0
  0
POLYLINE
  5
176
330
1F
100
AcDbEntity
  8
Capa 1
 62
   250
420
  2236961
370
     9
100
AcDb2dPolyline
 66
     1
 10
0.0
 20
0.0
 30
0.0
  0
VERTEX
  5
177
330
176
100
AcDbEntity
  8
Capa 1
 62
   250
420
  2236961
370
     9
100
AcDbVertex
100
AcDb2dVertex
 10
130.0579131490024
 20
-131.3641816658107
 30
0.0
  0
VERTEX
  5
178
330
176
100
AcDbEntity
  8
Capa 1
 62
   250
420
  2236961
370
     9
100
AcDbVertex
100
AcDb2dVertex
 10
135.3404072476167
 20
-130.4399002278501
 30
0.0
  0
SEQEND
  5
179
330
176
100
AcDbEntity
  8
Capa 1
 62
   250
420
  2236961
370
     9
  0
POLYLINE
  5
17A
330
1F
100
AcDbEntity
  8
Capa 1
 62
   250
420
  2236961
370
     9
100
AcDb2dPolyline
 66
     1
 10
0.0
 20
0.0
 30
0.0
  0
VERTEX
  5
17B
330
17A
100
AcDbEntity
  8
Capa 1
 62
   250
420
  2236961
370
     9
100
AcDbVertex
100
AcDb2dVertex
 10
132.1047305041764
 20
-142.9853850006808
 30
0.0
  0
VERTEX
  5
17C
330
17A
100
AcDbEntity
  8
Capa 1
 62
   250
420
  2236961
370
     9
100
AcDbVertex
100
AcDb2dVertex
 10
137.3872246027907
 20
-142.061106254201
 30
0.0
  0
SEQEND
  5
17D
330
17A
100
AcDbEntity
  8
Capa 1
 62
   250
420
  2236961
370
     9
  0
POLYLINE
  5
17E
330
1F
100
AcDbEntity
  8
Capa 1
 62
   250
420
  2236961
370
     9
100
AcDb2dPolyline
 66
     1
 10
0.0
 20
0.0
 30
0.0
  0
VERTEX
  5
17F
330
17E
100
AcDbEntity
  8
Capa 1
 62
   250
420
  2236961
370
     9
100
AcDbVertex
100
AcDb2dVertex
 10
135.3735716746239
 20
-131.0346851974551
 30
0.0
  0
VERTEX
  5
180
330
17E
100
AcDbEntity
  8
Capa 1
 62
   250
420
  2236961
370
     9
100
AcDbVertex
100
AcDb2dVertex
 10
135.9020331731761
 20
-133.9062960925298
 30
0.0
  0
SEQEND
  5
181
330
17E
100
AcDbEntity
  8
Capa 1
 62
   250
420
  2236961
370
     9
  0
POLYLINE
  5
182
330
1F
100
AcDbEntity
  8
Capa 1
 62
   250
420
  2236961
370
     9
100
AcDb2dPolyline
 66
     1
 10
0.0
 20
0.0
 30
0.0
  0
VERTEX
  5
183
330
182
100
AcDbEntity
  8
Capa 1
 62
   250
420
  2236961
370
     9
100
AcDbVertex
100
AcDb2dVertex
 10
137.2221291675835
 20
-141.4994830201223
 30
0.0
  0
VERTEX
  5
184
330
182
100
AcDbEntity
  8
Capa 1
 62
   250
420
  2236961
370
     9
100
AcDbVertex
100
AcDb2dVertex
 10
136.7268267130768
 20
-138.6278721250476
 30
0.0
  0
SEQEND
  5
185
330
182
100
AcDbEntity
  8
Capa 1
 62
   250
420
  2236961
370
     9
  0
POLYLINE
  5
186
330
1F
100
AcDbEntity
  8
Capa 1
370
     0
100
AcDb2dPolyline
 66
     1
 10
0.0
 20
0.0
 30
0.0
  0
VERTEX
  5
187
330
186
100
AcDbEntity
  8
Capa 1
370
     0
100
AcDbVertex
100
AcDb2dVertex
 10
135.2745843920016
 20
-131.0342599434811
 30
0.0
  0
VERTEX
  5
188
330
186
100
AcDbEntity
  8
Capa 1
370
     0
100
AcDbVertex
100
AcDb2dVertex
 10
135.4721390862339
 20
-131.0018060674177
 30
0.0
  0
VERTEX
  5
189
330
186
100
AcDbEntity
  8
Capa 1
370
     0
100
AcDbVertex
100
AcDb2dVertex
 10
135.2745843920016
 20
-130.44018552482
 30
0.0
  0
VERTEX
  5
18A
330
186
100
AcDbEntity
  8
Capa 1
370
     0
100
AcDbVertex
100
AcDb2dVertex
 10
135.2745843920016
 20
-131.0342599434811
 30
0.0
  0
SEQEND
  5
18C
330
186
100
AcDbEntity
  8
Capa 1
370
     0
  0
HATCH
  5
18B
330
1F
100
AcDbEntity
  8
Capa 1
 62
   250
420
  2236961
100
AcDbHatch
 10
0.0
 20
0.0
 30
0.0
210
0.0
220
0.0
230
1.0
  2
SOLID
 70
     1
 71
     0
 91
        1
 92
        1
 93
        3
 72
     1
 10
135.2745843920016
 20
-131.0342599434811
 11
135.4721390862339
 21
-131.0018060674177
 72
     1
 10
135.4721390862339
 20
-131.0018060674177
 11
135.2745843920016
 21
-130.44018552482
 72
     1
 10
135.2745843920016
 20
-130.44018552482
 11
135.2745843920016
 21
-131.0342599434811
 97
        0
 75
     2
 76
     1
 98
        0
  0
POLYLINE
  5
18D
330
1F
100
AcDbEntity
  8
Capa 1
370
     0
100
AcDb2dPolyline
 66
     1
 10
0.0
 20
0.0
 30
0.0
  0
VERTEX
  5
18E
330
18D
100
AcDbEntity
  8
Capa 1
370
     0
100
AcDbVertex
100
AcDb2dVertex
 10
137.1230665234975
 20
-141.5327147341508
 30
0.0
  0
VERTEX
  5
18F
330
18D
100
AcDbEntity
  8
Capa 1
370
     0
100
AcDbVertex
100
AcDb2dVertex
 10
137.3213263857119
 20
-142.0943379682294
 30
0.0
  0
VERTEX
  5
190
330
18D
100
AcDbEntity
  8
Capa 1
370
     0
100
AcDbVertex
100
AcDb2dVertex
 10
137.3213263857119
 20
-141.4995556901052
 30
0.0
  0
VERTEX
  5
191
330
18D
100
AcDbEntity
  8
Capa 1
370
     0
100
AcDbVertex
100
AcDb2dVertex
 10
137.1230665234975
 20
-141.5327147341508
 30
0.0
  0
SEQEND
  5
193
330
18D
100
AcDbEntity
  8
Capa 1
370
     0
  0
HATCH
  5
192
330
1F
100
AcDbEntity
  8
Capa 1
 62
   250
420
  2236961
100
AcDbHatch
 10
0.0
 20
0.0
 30
0.0
210
0.0
220
0.0
230
1.0
  2
SOLID
 70
     1
 71
     0
 91
        1
 92
        1
 93
        3
 72
     1
 10
137.1230665234975
 20
-141.5327147341508
 11
137.3213263857119
 21
-142.0943379682294
 72
     1
 10
137.3213263857119
 20
-142.0943379682294
 11
137.3213263857119
 21
-141.4995556901052
 72
     1
 10
137.3213263857119
 20
-141.4995556901052
 11
137.1230665234975
 21
-141.5327147341508
 97
        0
 75
     2
 76
     1
 98
        0
  0
POLYLINE
  5
194
330
1F
100
AcDbEntity
  8
Capa 1
 62
   250
420
  2236961
370
     9
100
AcDb2dPolyline
 66
     1
 10
0.0
 20
0.0
 30
0.0
  0
VERTEX
  5
195
330
194
100
AcDbEntity
  8
Capa 1
 62
   250
420
  2236961
370
     9
100
AcDbVertex
100
AcDb2dVertex
 10
130.5206163874799
 20
-131.298918638212
 30
0.0
  0
VERTEX
  5
196
330
194
100
AcDbEntity
  8
Capa 1
 62
   250
420
  2236961
370
     9
100
AcDbVertex
100
AcDb2dVertex
 10
128.9027780157598
 20
-122.6488060220342
 30
0.0
  0
SEQEND
  5
197
330
194
100
AcDbEntity
  8
Capa 1
 62
   250
420
  2236961
370
     9
  0
POLYLINE
  5
198
330
1F
100
AcDbEntity
  8
Capa 1
 62
   250
420
  2236961
370
     9
100
AcDb2dPolyline
 66
     1
 10
0.0
 20
0.0
 30
0.0
  0
VERTEX
  5
199
330
198
100
AcDbEntity
  8
Capa 1
 62
   250
420
  2236961
370
     9
100
AcDbVertex
100
AcDb2dVertex
 10
105.1326123239688
 20
-153.8463526552667
 30
0.0
  0
VERTEX
  5
19A
330
198
100
AcDbEntity
  8
Capa 1
 62
   250
420
  2236961
370
     9
100
AcDbVertex
100
AcDb2dVertex
 10
100.3454179883804
 20
-128.1951782859335
 30
0.0
  0
SEQEND
  5
19B
330
198
100
AcDbEntity
  8
Capa 1
 62
   250
420
  2236961
370
     9
  0
POLYLINE
  5
19C
330
1F
100
AcDbEntity
  8
Capa 1
 62
   250
420
  2236961
370
     9
100
AcDb2dPolyline
 66
     1
 10
0.0
 20
0.0
 30
0.0
  0
VERTEX
  5
19D
330
19C
100
AcDbEntity
  8
Capa 1
 62
   250
420
  2236961
370
     9
100
AcDbVertex
100
AcDb2dVertex
 10
128.2755391700914
 20
-123.0777850054881
 30
0.0
  0
VERTEX
  5
19E
330
19C
100
AcDbEntity
  8
Capa 1
 62
   250
420
  2236961
370
     9
100
AcDbVertex
100
AcDb2dVertex
 10
118.4372723336296
 20
-124.8938832394227
 30
0.0
  0
SEQEND
  5
19F
330
19C
100
AcDbEntity
  8
Capa 1
 62
   250
420
  2236961
370
     9
  0
POLYLINE
  5
1A0
330
1F
100
AcDbEntity
  8
Capa 1
 62
   250
420
  2236961
370
     9
100
AcDb2dPolyline
 66
     1
 10
0.0
 20
0.0
 30
0.0
  0
VERTEX
  5
1A1
330
1A0
100
AcDbEntity
  8
Capa 1
 62
   250
420
  2236961
370
     9
100
AcDbVertex
100
AcDb2dVertex
 10
100.9394977900032
 20
-128.1620138589263
 30
0.0
  0
VERTEX
  5
1A2
330
1A0
100
AcDbEntity
  8
Capa 1
 62
   250
420
  2236961
370
     9
100
AcDbVertex
100
AcDb2dVertex
 10
113.6832424250484
 20
-125.7850002503761
 30
0.0
  0
SEQEND
  5
1A3
330
1A0
100
AcDbEntity
  8
Capa 1
 62
   250
420
  2236961
370
     9
  0
POLYLINE
  5
1A4
330
1F
100
AcDbEntity
  8
Capa 1
370
     0
100
AcDb2dPolyline
 66
     1
 10
0.0
 20
0.0
 30
0.0
  0
VERTEX
  5
1A5
330
1A4
100
AcDbEntity
  8
Capa 1
370
     0
100
AcDbVertex
100
AcDb2dVertex
 10
128.2749793420751
 20
-122.9792875723802
 30
0.0
  0
VERTEX
  5
1A6
330
1A4
100
AcDbEntity
  8
Capa 1
370
     0
100
AcDbVertex
100
AcDb2dVertex
 10
128.3081383861206
 20
-123.1768476495742
 30
0.0
  0
VERTEX
  5
1A7
330
1A4
100
AcDbEntity
  8
Capa 1
370
     0
100
AcDbVertex
100
AcDb2dVertex
 10
128.8690537607362
 20
-122.9454233603525
 30
0.0
  0
VERTEX
  5
1A8
330
1A4
100
AcDbEntity
  8
Capa 1
370
     0
100
AcDbVertex
100
AcDb2dVertex
 10
128.2749793420751
 20
-122.9792875723802
 30
0.0
  0
SEQEND
  5
1AA
330
1A4
100
AcDbEntity
  8
Capa 1
370
     0
  0
HATCH
  5
1A9
330
1F
100
AcDbEntity
  8
Capa 1
 62
   250
420
  2236961
100
AcDbHatch
 10
0.0
 20
0.0
 30
0.0
210
0.0
220
0.0
230
1.0
  2
SOLID
 70
     1
 71
     0
 91
        1
 92
        1
 93
        3
 72
     1
 10
128.2749793420751
 20
-122.9792875723802
 11
128.3081383861206
 21
-123.1768476495742
 72
     1
 10
128.3081383861206
 20
-123.1768476495742
 11
128.8690537607362
 21
-122.9454233603525
 72
     1
 10
128.8690537607362
 20
-122.9454233603525
 11
128.2749793420751
 21
-122.9792875723802
 97
        0
 75
     2
 76
     1
 98
        0
  0
POLYLINE
  5
1AB
330
1F
100
AcDbEntity
  8
Capa 1
370
     0
100
AcDb2dPolyline
 66
     1
 10
0.0
 20
0.0
 30
0.0
  0
VERTEX
  5
1AC
330
1AB
100
AcDbEntity
  8
Capa 1
370
     0
100
AcDbVertex
100
AcDb2dVertex
 10
100.3457732638523
 20
-128.2948707365379
 30
0.0
  0
VERTEX
  5
1AD
330
1AB
100
AcDbEntity
  8
Capa 1
370
     0
100
AcDbVertex
100
AcDb2dVertex
 10
100.9723042500577
 20
-128.2603013565281
 30
0.0
  0
VERTEX
  5
1AE
330
1AB
100
AcDbEntity
  8
Capa 1
370
     0
100
AcDbVertex
100
AcDb2dVertex
 10
100.9398503739943
 20
-128.0627466622958
 30
0.0
  0
VERTEX
  5
1AF
330
1AB
100
AcDbEntity
  8
Capa 1
370
     0
100
AcDbVertex
100
AcDb2dVertex
 10
100.3457732638523
 20
-128.2948707365379
 30
0.0
  0
SEQEND
  5
1B1
330
1AB
100
AcDbEntity
  8
Capa 1
370
     0
  0
HATCH
  5
1B0
330
1F
100
AcDbEntity
  8
Capa 1
 62
   250
420
  2236961
100
AcDbHatch
 10
0.0
 20
0.0
 30
0.0
210
0.0
220
0.0
230
1.0
  2
SOLID
 70
     1
 71
     0
 91
        1
 92
        1
 93
        3
 72
     1
 10
100.3457732638523
 20
-128.2948707365379
 11
100.9723042500577
 21
-128.2603013565281
 72
     1
 10
100.9723042500577
 20
-128.2603013565281
 11
100.9398503739943
 21
-128.0627466622958
 72
     1
 10
100.9398503739943
 20
-128.0627466622958
 11
100.3457732638523
 21
-128.2948707365379
 97
        0
 75
     2
 76
     1
 98
        0
  0
INSERT
  5
1B3
330
1F
100
AcDbEntity
  8
Capa 1
100
AcDbBlockReference
  2
block 5
 10
0.0
 20
0.0
 30
0.0
  0
INSERT
  5
325
330
1F
100
AcDbEntity
  8
Capa 1
100
AcDbBlockReference
  2
block 6
 10
0.0
 20
0.0
 30
0.0
  0
ENDSEC
  0
SECTION
  2
OBJECTS
  0
DICTIONARY
  5
C
330
0
100
AcDbDictionary
281
     1
  3
ACAD_GROUP
350
D
  3
ACAD_IMAGE_DICT
350
49
  3
ACAD_IMAGE_VARS
350
4B
  3
ACAD_LAYOUT
350
1A
  3
ACAD_MATERIAL
350
3B
  3
ACAD_MLEADERSTYLE
350
33E
  3
ACAD_MLINESTYLE
350
17
  3
ACAD_PLOTSETTINGS
350
19
  3
ACAD_PLOTSTYLENAME
350
E
  3
ACAD_TABLESTYLE
350
33D
  3
ACAD_VISUALSTYLE
350
2A
  0
SUN
  5
3F
330
29
100
AcDbSun
 90
        1
290
     0
 63
     7
421
 16777215
 40
1.0
291
     1
 91
  2455826
 92
 54000000
292
     0
 70
     2
 71
   256
280
     1
  0
IMAGEDEF_REACTOR
  5
4D
330
4C
100
AcDbRasterImageDefReactor
 90
        2
330
4C
  0
IMAGEDEF_REACTOR
  5
32E
330
32D
100
AcDbRasterImageDefReactor
 90
        2
330
32D
  0
DICTIONARY
  5
D
102
{ACAD_REACTORS
330
C
102
}
330
C
100
AcDbDictionary
281
     1
  0
DICTIONARY
  5
49
102
{ACAD_REACTORS
330
C
102
}
330
C
100
AcDbDictionary
281
     1
  3
F:\GALA\ACTUALIZACIONES WEB\NOVEDADES 2021\T\U+00C9CNICOS\GRIFER\U+00CDA\COMPLEMENTOS\48414\T48414_1.png
350
4A
  3
F:\GALA\ACTUALIZACIONES WEB\NOVEDADES 2021\T\U+00C9CNICOS\GRIFER\U+00CDA\COMPLEMENTOS\48414\T48414_2.png
350
32C
  0
RASTERVARIABLES
  5
4B
102
{ACAD_REACTORS
330
C
102
}
330
C
100
AcDbRasterVariables
 90
        0
 70
     0
 71
     1
 72
     0
  0
DICTIONARY
  5
1A
102
{ACAD_REACTORS
330
C
102
}
330
C
100
AcDbDictionary
281
     1
  3
Layout1
350
1E
  3
Layout2
350
26
  3
Model
350
22
  0
DICTIONARY
  5
3B
102
{ACAD_REACTORS
330
C
102
}
330
C
100
AcDbDictionary
281
     1
  3
ByBlock
350
3D
  3
ByLayer
350
3C
  3
Global
350
3E
  0
DICTIONARY
  5
33E
102
{ACAD_REACTORS
330
C
102
}
330
C
100
AcDbDictionary
281
     1
  0
DICTIONARY
  5
17
102
{ACAD_REACTORS
330
C
102
}
330
C
100
AcDbDictionary
281
     1
  3
Standard
350
18
  0
DICTIONARY
  5
19
102
{ACAD_REACTORS
330
C
102
}
330
C
100
AcDbDictionary
281
     1
  0
ACDBDICTIONARYWDFLT
  5
E
102
{ACAD_REACTORS
330
C
102
}
330
C
100
AcDbDictionary
281
     1
  3
Normal
350
F
100
AcDbDictionaryWithDefault
340
F
  0
DICTIONARY
  5
33D
102
{ACAD_REACTORS
330
C
102
}
330
C
100
AcDbDictionary
281
     1
  0
DICTIONARY
  5
2A
102
{ACAD_REACTORS
330
C
102
}
330
C
100
AcDbDictionary
281
     1
  3
2dWireframe
350
2F
  3
3D Hidden
350
31
  3
3dWireframe
350
30
  3
Basic
350
32
  3
Brighten
350
36
  3
ColorChange
350
3A
  3
Conceptual
350
34
  3
Dim
350
35
  3
Facepattern
350
39
  3
Flat
350
2B
  3
FlatWithEdges
350
2C
  3
Gouraud
350
2D
  3
GouraudWithEdges
350
2E
  3
Linepattern
350
38
  3
Realistic
350
33
  3
Thicken
350
37
  0
IMAGEDEF
  5
4A
102
{ACAD_REACTORS
330
49
330
4D
102
}
330
49
100
AcDbRasterImageDef
 90
        0
  1
F:\GALA\ACTUALIZACIONES WEB\NOVEDADES 2021\T\U+00C9CNICOS\GRIFER\U+00CDA\COMPLEMENTOS\48414\T48414_1.png
 10
184.0
 20
204.0
 11
0.3527777777777777
 21
0.3527777777777777
280
     1
281
     5
  0
IMAGEDEF
  5
32C
102
{ACAD_REACTORS
330
49
330
32E
102
}
330
49
100
AcDbRasterImageDef
 90
        0
  1
F:\GALA\ACTUALIZACIONES WEB\NOVEDADES 2021\T\U+00C9CNICOS\GRIFER\U+00CDA\COMPLEMENTOS\48414\T48414_2.png
 10
186.0
 20
167.0
 11
0.3527777777777777
 21
0.3527777777777777
280
     1
281
     5
  0
LAYOUT
  5
1E
102
{ACAD_REACTORS
330
1A
102
}
330
1A
100
AcDbPlotSettings
  1

  2
none_device
  4

  6

 40
0.0
 41
0.0
 42
0.0
 43
0.0
 44
0.0
 45
0.0
 46
0.0
 47
0.0
 48
0.0
 49
0.0
140
0.0
141
0.0
142
1.0
143
1.0
 70
   688
 72
     0
 73
     0
 74
     5
  7

 75
    16
 76
     0
 77
     2
 78
   300
147
1.0
148
0.0
149
0.0
100
AcDbLayout
  1
Layout1
 70
     1
 71
     1
 10
0.0
 20
0.0
 11
12.0
 21
9.0
 12
0.0
 22
0.0
 32
0.0
 14
1.000000000000000E+20
 24
1.000000000000000E+20
 34
1.000000000000000E+20
 15
-1.000000000000000E+20
 25
-1.000000000000000E+20
 35
-1.000000000000000E+20
146
0.0
 13
0.0
 23
0.0
 33
0.0
 16
1.0
 26
0.0
 36
0.0
 17
0.0
 27
1.0
 37
0.0
 76
     0
330
1B
  0
LAYOUT
  5
26
102
{ACAD_REACTORS
330
1A
102
}
330
1A
100
AcDbPlotSettings
  1

  2
none_device
  4

  6

 40
0.0
 41
0.0
 42
0.0
 43
0.0
 44
0.0
 45
0.0
 46
0.0
 47
0.0
 48
0.0
 49
0.0
140
0.0
141
0.0
142
1.0
143
1.0
 70
   688
 72
     0
 73
     0
 74
     5
  7

 75
    16
 76
     0
 77
     2
 78
   300
147
1.0
148
0.0
149
0.0
100
AcDbLayout
  1
Layout2
 70
     1
 71
     2
 10
0.0
 20
0.0
 11
0.0
 21
0.0
 12
0.0
 22
0.0
 32
0.0
 14
0.0
 24
0.0
 34
0.0
 15
0.0
 25
0.0
 35
0.0
146
0.0
 13
0.0
 23
0.0
 33
0.0
 16
1.0
 26
0.0
 36
0.0
 17
0.0
 27
1.0
 37
0.0
 76
     0
330
23
  0
LAYOUT
  5
22
102
{ACAD_REACTORS
330
1A
102
}
330
1A
100
AcDbPlotSettings
  1

  2
none_device
  4

  6

 40
0.0
 41
0.0
 42
0.0
 43
0.0
 44
0.0
 45
0.0
 46
0.0
 47
0.0
 48
0.0
 49
0.0
140
0.0
141
0.0
142
1.0
143
1.0
 70
  1712
 72
     0
 73
     0
 74
     0
  7

 75
     0
 76
     0
 77
     2
 78
   300
147
1.0
148
0.0
149
0.0
100
AcDbLayout
  1
Model
 70
     1
 71
     0
 10
0.0
 20
0.0
 11
12.0
 21
9.0
 12
0.0
 22
0.0
 32
0.0
 14
1.000000000000000E+20
 24
1.000000000000000E+20
 34
1.000000000000000E+20
 15
-1.000000000000000E+20
 25
-1.000000000000000E+20
 35
-1.000000000000000E+20
146
0.0
 13
0.0
 23
0.0
 33
0.0
 16
1.0
 26
0.0
 36
0.0
 17
0.0
 27
1.0
 37
0.0
 76
     0
330
1F
331
29
  0
MATERIAL
  5
3D
102
{ACAD_REACTORS
330
3B
102
}
330
3B
100
AcDbMaterial
  1
ByBlock
 72
     1
 94
      127
  0
MATERIAL
  5
3C
102
{ACAD_REACTORS
330
3B
102
}
330
3B
100
AcDbMaterial
  1
ByLayer
 72
     1
 94
      127
  0
MATERIAL
  5
3E
102
{ACAD_REACTORS
330
3B
102
}
330
3B
100
AcDbMaterial
  1
Global
 72
     1
 94
      127
  0
MLINESTYLE
  5
18
102
{ACAD_REACTORS
330
17
102
}
330
17
100
AcDbMlineStyle
  2
Standard
 70
     0
  3

 62
   256
 51
90.0
 52
90.0
 71
     2
 49
0.5
 62
   256
  6
BYLAYER
 49
-0.5
 62
   256
  6
BYLAYER
  0
ACDBPLACEHOLDER
  5
F
102
{ACAD_REACTORS
330
E
102
}
330
E
  0
VISUALSTYLE
  5
2F
102
{ACAD_REACTORS
330
2A
102
}
330
2A
100
AcDbVisualStyle
  2
2dWireframe
 70
     4
177
     2
291
     0
 71
     0
176
     1
 72
     2
176
     1
 73
     0
176
     1
 90
        0
176
     1
 40
-0.6
176
     1
 41
-30.0
176
     1
 62
     5
 63
     7
421
 16777215
176
     1
 74
     1
176
     1
 91
        4
176
     1
 64
     7
176
     1
 65
   257
176
     1
 75
     1
176
     1
175
     1
176
     1
 42
1.0
176
     1
 92
        0
176
     1
 66
   257
176
     1
 43
1.0
176
     1
 76
     1
176
     1
 77
     6
176
     1
 78
     2
176
     1
 67
     7
176
     1
 79
     5
176
     1
170
     0
176
     1
171
     0
176
     1
290
     0
176
     1
 93
        1
176
     1
 44
0.0
176
     1
173
     0
176
     1
  0
VISUALSTYLE
  5
31
102
{ACAD_REACTORS
330
2A
102
}
330
2A
100
AcDbVisualStyle
  2
3D Hidden
 70
     6
177
     2
291
     0
 71
     1
176
     1
 72
     2
176
     1
 73
     2
176
     1
 90
        0
176
     1
 40
-0.6
176
     1
 41
-30.0
176
     1
 62
     5
 63
     7
421
 16777215
176
     1
 74
     2
176
     1
 91
        2
176
     1
 64
     7
176
     1
 65
   257
176
     1
 75
     2
176
     1
175
     1
176
     1
 42
40.0
176
     1
 92
        0
176
     1
 66
   257
176
     1
 43
1.0
176
     1
 76
     1
176
     1
 77
     6
176
     1
 78
     2
176
     1
 67
     7
176
     1
 79
     3
176
     1
170
     0
176
     1
171
     0
176
     1
290
     0
176
     1
 93
        1
176
     1
 44
0.0
176
     1
173
     0
176
     1
  0
VISUALSTYLE
  5
30
102
{ACAD_REACTORS
330
2A
102
}
330
2A
100
AcDbVisualStyle
  2
3dWireframe
 70
     5
177
     2
291
     0
 71
     0
176
     1
 72
     2
176
     1
 73
     0
176
     1
 90
        0
176
     1
 40
-0.6
176
     1
 41
-30.0
176
     1
 62
     5
 63
     7
421
 16777215
176
     1
 74
     1
176
     1
 91
        4
176
     1
 64
     7
176
     1
 65
   257
176
     1
 75
     1
176
     1
175
     1
176
     1
 42
1.0
176
     1
 92
        0
176
     1
 66
   257
176
     1
 43
1.0
176
     1
 76
     1
176
     1
 77
     6
176
     1
 78
     2
176
     1
 67
     7
176
     1
 79
     5
176
     1
170
     0
176
     1
171
     0
176
     1
290
     0
176
     1
 93
        1
176
     1
 44
0.0
176
     1
173
     0
176
     1
  0
VISUALSTYLE
  5
32
102
{ACAD_REACTORS
330
2A
102
}
330
2A
100
AcDbVisualStyle
  2
Basic
 70
     7
177
     2
291
     1
 71
     1
176
     1
 72
     0
176
     1
 73
     1
176
     1
 90
        0
176
     1
 40
-0.6
176
     1
 41
-30.0
176
     1
 62
     5
 63
     7
421
 16777215
176
     1
 74
     0
176
     1
 91
        4
176
     1
 64
     7
176
     1
 65
   257
176
     1
 75
     1
176
     1
175
     1
176
     1
 42
1.0
176
     1
 92
        8
176
     1
 66
     7
176
     1
 43
1.0
176
     1
 76
     1
176
     1
 77
     6
176
     1
 78
     2
176
     1
 67
     7
176
     1
 79
     5
176
     1
170
     0
176
     1
171
     0
176
     1
290
     0
176
     1
 93
        1
176
     1
 44
0.0
176
     1
173
     0
176
     1
  0
VISUALSTYLE
  5
36
102
{ACAD_REACTORS
330
2A
102
}
330
2A
100
AcDbVisualStyle
  2
Brighten
 70
    12
177
     2
291
     1
 71
     2
176
     1
 72
     2
176
     1
 73
     0
176
     1
 90
        0
176
     1
 40
-0.6
176
     1
 41
-30.0
176
     1
 62
     5
 63
     7
421
 16777215
176
     1
 74
     1
176
     1
 91
        4
176
     1
 64
     7
176
     1
 65
   257
176
     1
 75
     1
176
     1
175
     1
176
     1
 42
1.0
176
     1
 92
        8
176
     1
 66
     7
176
     1
 43
1.0
176
     1
 76
     1
176
     1
 77
     6
176
     1
 78
     2
176
     1
 67
     7
176
     1
 79
     5
176
     1
170
     0
176
     1
171
     0
176
     1
290
     0
176
     1
 93
        1
176
     1
 44
50.0
176
     1
173
     0
176
     1
  0
VISUALSTYLE
  5
3A
102
{ACAD_REACTORS
330
2A
102
}
330
2A
100
AcDbVisualStyle
  2
ColorChange
 70
    16
177
     2
291
     1
 71
     2
176
     1
 72
     2
176
     1
 73
     3
176
     1
 90
        0
176
     1
 40
-0.6
176
     1
 41
-30.0
176
     1
 62
     5
 63
     8
421
  8421504
176
     1
 74
     1
176
     1
 91
        4
176
     1
 64
     7
176
     1
 65
   257
176
     1
 75
     1
176
     1
175
     1
176
     1
 42
1.0
176
     1
 92
        8
176
     1
 66
     8
424
  8421504
176
     1
 43
1.0
176
     1
 76
     1
176
     1
 77
     6
176
     1
 78
     2
176
     1
 67
     7
176
     1
 79
     5
176
     1
170
     0
176
     1
171
     0
176
     1
290
     0
176
     1
 93
        1
176
     1
 44
0.0
176
     1
173
     0
176
     1
  0
VISUALSTYLE
  5
34
102
{ACAD_REACTORS
330
2A
102
}
330
2A
100
AcDbVisualStyle
  2
Conceptual
 70
     9
177
     2
291
     0
 71
     3
176
     1
 72
     2
176
     1
 73
     0
176
     1
 90
        0
176
     1
 40
-0.6
176
     1
 41
-30.0
176
     1
 62
     5
 63
     7
421
 16777215
176
     1
 74
     2
176
     1
 91
        2
176
     1
 64
     7
176
     1
 65
   257
176
     1
 75
     1
176
     1
175
     1
176
     1
 42
40.0
176
     1
 92
        8
176
     1
 66
     7
176
     1
 43
1.0
176
     1
 76
     1
176
     1
 77
     6
176
     1
 78
     2
176
     1
 67
     7
176
     1
 79
     3
176
     1
170
     0
176
     1
171
     0
176
     1
290
     0
176
     1
 93
        1
176
     1
 44
0.0
176
     1
173
     0
176
     1
  0
VISUALSTYLE
  5
35
102
{ACAD_REACTORS
330
2A
102
}
330
2A
100
AcDbVisualStyle
  2
Dim
 70
    11
177
     2
291
     1
 71
     2
176
     1
 72
     2
176
     1
 73
     0
176
     1
 90
        0
176
     1
 40
-0.6
176
     1
 41
-30.0
176
     1
 62
     5
 63
     7
421
 16777215
176
     1
 74
     1
176
     1
 91
        4
176
     1
 64
     7
176
     1
 65
   257
176
     1
 75
     1
176
     1
175
     1
176
     1
 42
1.0
176
     1
 92
        8
176
     1
 66
     7
176
     1
 43
1.0
176
     1
 76
     1
176
     1
 77
     6
176
     1
 78
     2
176
     1
 67
     7
176
     1
 79
     5
176
     1
170
     0
176
     1
171
     0
176
     1
290
     0
176
     1
 93
        1
176
     1
 44
-50.0
176
     1
173
     0
176
     1
  0
VISUALSTYLE
  5
39
102
{ACAD_REACTORS
330
2A
102
}
330
2A
100
AcDbVisualStyle
  2
Facepattern
 70
    15
177
     2
291
     1
 71
     2
176
     1
 72
     2
176
     1
 73
     0
176
     1
 90
        0
176
     1
 40
-0.6
176
     1
 41
-30.0
176
     1
 62
     5
 63
     7
421
 16777215
176
     1
 74
     1
176
     1
 91
        4
176
     1
 64
     7
176
     1
 65
   257
176
     1
 75
     1
176
     1
175
     1
176
     1
 42
1.0
176
     1
 92
        8
176
     1
 66
     7
176
     1
 43
1.0
176
     1
 76
     1
176
     1
 77
     6
176
     1
 78
     2
176
     1
 67
     7
176
     1
 79
     5
176
     1
170
     0
176
     1
171
     0
176
     1
290
     0
176
     1
 93
        1
176
     1
 44
0.0
176
     1
173
     0
176
     1
  0
VISUALSTYLE
  5
2B
102
{ACAD_REACTORS
330
2A
102
}
330
2A
100
AcDbVisualStyle
  2
Flat
 70
     0
177
     2
291
     1
 71
     2
176
     1
 72
     1
176
     1
 73
     1
176
     1
 90
        2
176
     1
 40
-0.6
176
     1
 41
30.0
176
     1
 62
     5
 63
     7
421
 16777215
176
     1
 74
     0
176
     1
 91
        4
176
     1
 64
     7
176
     1
 65
   257
176
     1
 75
     1
176
     1
175
     1
176
     1
 42
1.0
176
     1
 92
        8
176
     1
 66
     7
176
     1
 43
1.0
176
     1
 76
     1
176
     1
 77
     6
176
     1
 78
     2
176
     1
 67
     7
176
     1
 79
     5
176
     1
170
     0
176
     1
171
     0
176
     1
290
     0
176
     1
 93
       13
176
     1
 44
0.0
176
     1
173
     0
176
     1
  0
VISUALSTYLE
  5
2C
102
{ACAD_REACTORS
330
2A
102
}
330
2A
100
AcDbVisualStyle
  2
FlatWithEdges
 70
     1
177
     2
291
     1
 71
     2
176
     1
 72
     1
176
     1
 73
     1
176
     1
 90
        2
176
     1
 40
-0.6
176
     1
 41
30.0
176
     1
 62
     5
 63
     7
421
 16777215
176
     1
 74
     1
176
     1
 91
        4
176
     1
 64
     7
176
     1
 65
   257
176
     1
 75
     1
176
     1
175
     1
176
     1
 42
1.0
176
     1
 92
        0
176
     1
 66
   257
176
     1
 43
1.0
176
     1
 76
     1
176
     1
 77
     6
176
     1
 78
     2
176
     1
 67
     7
176
     1
 79
     5
176
     1
170
     0
176
     1
171
     0
176
     1
290
     0
176
     1
 93
       13
176
     1
 44
0.0
176
     1
173
     0
176
     1
  0
VISUALSTYLE
  5
2D
102
{ACAD_REACTORS
330
2A
102
}
330
2A
100
AcDbVisualStyle
  2
Gouraud
 70
     2
177
     2
291
     1
 71
     2
176
     1
 72
     2
176
     1
 73
     1
176
     1
 90
        2
176
     1
 40
-0.6
176
     1
 41
30.0
176
     1
 62
     5
 63
     7
421
 16777215
176
     1
 74
     0
176
     1
 91
        4
176
     1
 64
     7
176
     1
 65
   257
176
     1
 75
     1
176
     1
175
     1
176
     1
 42
1.0
176
     1
 92
        0
176
     1
 66
     7
176
     1
 43
1.0
176
     1
 76
     1
176
     1
 77
     6
176
     1
 78
     2
176
     1
 67
     7
176
     1
 79
     5
176
     1
170
     0
176
     1
171
     0
176
     1
290
     0
176
     1
 93
       13
176
     1
 44
0.0
176
     1
173
     0
176
     1
  0
VISUALSTYLE
  5
2E
102
{ACAD_REACTORS
330
2A
102
}
330
2A
100
AcDbVisualStyle
  2
GouraudWithEdges
 70
     3
177
     2
291
     1
 71
     2
176
     1
 72
     2
176
     1
 73
     1
176
     1
 90
        2
176
     1
 40
-0.6
176
     1
 41
30.0
176
     1
 62
     5
 63
     7
421
 16777215
176
     1
 74
     1
176
     1
 91
        4
176
     1
 64
     7
176
     1
 65
   257
176
     1
 75
     1
176
     1
175
     1
176
     1
 42
1.0
176
     1
 92
        0
176
     1
 66
   257
176
     1
 43
1.0
176
     1
 76
     1
176
     1
 77
     6
176
     1
 78
     2
176
     1
 67
     7
176
     1
 79
     5
176
     1
170
     0
176
     1
171
     0
176
     1
290
     0
176
     1
 93
       13
176
     1
 44
0.0
176
     1
173
     0
176
     1
  0
VISUALSTYLE
  5
38
102
{ACAD_REACTORS
330
2A
102
}
330
2A
100
AcDbVisualStyle
  2
Linepattern
 70
    14
177
     2
291
     1
 71
     2
176
     1
 72
     2
176
     1
 73
     0
176
     1
 90
        0
176
     1
 40
-0.6
176
     1
 41
-30.0
176
     1
 62
     5
 63
     7
421
 16777215
176
     1
 74
     1
176
     1
 91
        4
176
     1
 64
     7
176
     1
 65
   257
176
     1
 75
     7
176
     1
175
     7
176
     1
 42
1.0
176
     1
 92
        8
176
     1
 66
     7
176
     1
 43
1.0
176
     1
 76
     1
176
     1
 77
     6
176
     1
 78
     2
176
     1
 67
     7
176
     1
 79
     5
176
     1
170
     0
176
     1
171
     0
176
     1
290
     0
176
     1
 93
        1
176
     1
 44
0.0
176
     1
173
     0
176
     1
  0
VISUALSTYLE
  5
33
102
{ACAD_REACTORS
330
2A
102
}
330
2A
100
AcDbVisualStyle
  2
Realistic
 70
     8
177
     2
291
     0
 71
     2
176
     1
 72
     2
176
     1
 73
     0
176
     1
 90
        0
176
     1
 40
-0.6
176
     1
 41
-30.0
176
     1
 62
     5
 63
     7
421
 16777215
176
     1
 74
     1
176
     1
 91
        0
176
     1
 64
     7
176
     1
 65
   257
176
     1
 75
     1
176
     1
175
     1
176
     1
 42
1.0
176
     1
 92
        8
176
     1
 66
     8
424
  7895160
176
     1
 43
1.0
176
     1
 76
     1
176
     1
 77
     6
176
     1
 78
     2
176
     1
 67
     7
176
     1
 79
     5
176
     1
170
     0
176
     1
171
     0
176
     1
290
     0
176
     1
 93
       13
176
     1
 44
0.0
176
     1
173
     0
176
     1
  0
VISUALSTYLE
  5
37
102
{ACAD_REACTORS
330
2A
102
}
330
2A
100
AcDbVisualStyle
  2
Thicken
 70
    13
177
     2
291
     1
 71
     2
176
     1
 72
     2
176
     1
 73
     0
176
     1
 90
        0
176
     1
 40
-0.6
176
     1
 41
-30.0
176
     1
 62
     5
 63
     7
421
 16777215
176
     1
 74
     1
176
     1
 91
        4
176
     1
 64
     7
176
     1
 65
   257
176
     1
 75
     1
176
     1
175
     1
176
     1
 42
1.0
176
     1
 92
       12
176
     1
 66
     7
176
     1
 43
1.0
176
     1
 76
     1
176
     1
 77
     6
176
     1
 78
     2
176
     1
 67
     7
176
     1
 79
     5
176
     1
170
     0
176
     1
171
     0
176
     1
290
     0
176
     1
 93
        1
176
     1
 44
0.0
176
     1
173
     0
176
     1
  0
ENDSEC
  0
EOF
