  0
SECTION
  2
HEADER
  9
$ACADVER
  1
AC1018
  9
$ACADMAINTVER
 70
     0
  9
$DWGCODEPAGE
  3
ASCII
  9
$INSBASE
 10
0.0
 20
0.0
 30
0.0
  9
$EXTMIN
 10
1.000000000000000E+20
 20
1.000000000000000E+20
 30
1.000000000000000E+20
  9
$EXTMAX
 10
-1.000000000000000E+20
 20
-1.000000000000000E+20
 30
-1.000000000000000E+20
  9
$LIMMIN
 10
0.0
 20
0.0
  9
$LIMMAX
 10
12.0
 20
9.0
  9
$ORTHOMODE
 70
     0
  9
$REGENMODE
 70
     1
  9
$FILLMODE
 70
     1
  9
$QTEXTMODE
 70
     0
  9
$MIRRTEXT
 70
     1
  9
$LTSCALE
 40
1.0
  9
$ATTMODE
 70
     1
  9
$TEXTSIZE
 40
0.2
  9
$TRACEWID
 40
0.05
  9
$TEXTSTYLE
  7
Standard
  9
$CLAYER
  8
0
  9
$CELTYPE
  6
ByLayer
  9
$CECOLOR
 62
   256
  9
$CELTSCALE
 40
1.0
  9
$DISPSILH
 70
     0
  9
$DIMSCALE
 40
1.0
  9
$DIMASZ
 40
0.18
  9
$DIMEXO
 40
0.0625
  9
$DIMDLI
 40
0.38
  9
$DIMRND
 40
0.0
  9
$DIMDLE
 40
0.0
  9
$DIMEXE
 40
0.18
  9
$DIMTP
 40
0.0
  9
$DIMTM
 40
0.0
  9
$DIMTXT
 40
0.18
  9
$DIMCEN
 40
0.09
  9
$DIMTSZ
 40
0.0
  9
$DIMTOL
 70
     0
  9
$DIMLIM
 70
     0
  9
$DIMTIH
 70
     1
  9
$DIMTOH
 70
     1
  9
$DIMSE1
 70
     0
  9
$DIMSE2
 70
     0
  9
$DIMTAD
 70
     0
  9
$DIMZIN
 70
     0
  9
$DIMBLK
  1

  9
$DIMASO
 70
     1
  9
$DIMSHO
 70
     1
  9
$DIMPOST
  1

  9
$DIMAPOST
  1

  9
$DIMALT
 70
     0
  9
$DIMALTD
 70
     2
  9
$DIMALTF
 40
25.4
  9
$DIMLFAC
 40
1.0
  9
$DIMTOFL
 70
     0
  9
$DIMTVP
 40
0.0
  9
$DIMTIX
 70
     0
  9
$DIMSOXD
 70
     0
  9
$DIMSAH
 70
     0
  9
$DIMBLK1
  1

  9
$DIMBLK2
  1

  9
$DIMSTYLE
  2
Standard
  9
$DIMCLRD
 70
     0
  9
$DIMCLRE
 70
     0
  9
$DIMCLRT
 70
     0
  9
$DIMTFAC
 40
1.0
  9
$DIMGAP
 40
0.09
  9
$DIMJUST
 70
     0
  9
$DIMSD1
 70
     0
  9
$DIMSD2
 70
     0
  9
$DIMTOLJ
 70
     1
  9
$DIMTZIN
 70
     0
  9
$DIMALTZ
 70
     0
  9
$DIMALTTZ
 70
     0
  9
$DIMUPT
 70
     0
  9
$DIMDEC
 70
     4
  9
$DIMTDEC
 70
     4
  9
$DIMALTU
 70
     2
  9
$DIMALTTD
 70
     2
  9
$DIMTXSTY
  7
Standard
  9
$DIMAUNIT
 70
     0
  9
$DIMADEC
 70
     0
  9
$DIMALTRND
 40
0.0
  9
$DIMAZIN
 70
     0
  9
$DIMDSEP
 70
    46
  9
$DIMATFIT
 70
     3
  9
$DIMFRAC
 70
     0
  9
$DIMLDRBLK
  1

  9
$DIMLUNIT
 70
     2
  9
$DIMLWD
 70
    -2
  9
$DIMLWE
 70
    -2
  9
$DIMTMOVE
 70
     0
  9
$LUNITS
 70
     2
  9
$LUPREC
 70
     4
  9
$SKETCHINC
 40
0.1
  9
$FILLETRAD
 40
0.5
  9
$AUNITS
 70
     0
  9
$AUPREC
 70
     0
  9
$MENU
  1
.
  9
$ELEVATION
 40
0.0
  9
$PELEVATION
 40
0.0
  9
$THICKNESS
 40
0.0
  9
$LIMCHECK
 70
     0
  9
$CHAMFERA
 40
0.5
  9
$CHAMFERB
 40
0.5
  9
$CHAMFERC
 40
1.0
  9
$CHAMFERD
 40
0.0
  9
$SKPOLY
 70
     0
  9
$TDCREATE
 40
2456451.441154143
  9
$TDUCREATE
 40
2456451.35782081
  9
$TDUPDATE
 40
2456451.441154155
  9
$TDUUPDATE
 40
2456451.357820822
  9
$TDINDWG
 40
0.0000000116
  9
$TDUSRTIMER
 40
0.0000000116
  9
$USRTIMER
 70
     1
  9
$ANGBASE
 50
0.0
  9
$ANGDIR
 70
     0
  9
$PDMODE
 70
     0
  9
$PDSIZE
 40
0.0
  9
$PLINEWID
 40
0.0
  9
$SPLFRAME
 70
     0
  9
$SPLINETYPE
 70
     6
  9
$SPLINESEGS
 70
     8
  9
$HANDSEED
  5
24A
  9
$SURFTAB1
 70
     6
  9
$SURFTAB2
 70
     6
  9
$SURFTYPE
 70
     6
  9
$SURFU
 70
     6
  9
$SURFV
 70
     6
  9
$UCSBASE
  2

  9
$UCSNAME
  2

  9
$UCSORG
 10
0.0
 20
0.0
 30
0.0
  9
$UCSXDIR
 10
1.0
 20
0.0
 30
0.0
  9
$UCSYDIR
 10
0.0
 20
1.0
 30
0.0
  9
$UCSORTHOREF
  2

  9
$UCSORTHOVIEW
 70
     0
  9
$UCSORGTOP
 10
0.0
 20
0.0
 30
0.0
  9
$UCSORGBOTTOM
 10
0.0
 20
0.0
 30
0.0
  9
$UCSORGLEFT
 10
0.0
 20
0.0
 30
0.0
  9
$UCSORGRIGHT
 10
0.0
 20
0.0
 30
0.0
  9
$UCSORGFRONT
 10
0.0
 20
0.0
 30
0.0
  9
$UCSORGBACK
 10
0.0
 20
0.0
 30
0.0
  9
$PUCSBASE
  2

  9
$PUCSNAME
  2

  9
$PUCSORG
 10
0.0
 20
0.0
 30
0.0
  9
$PUCSXDIR
 10
1.0
 20
0.0
 30
0.0
  9
$PUCSYDIR
 10
0.0
 20
1.0
 30
0.0
  9
$PUCSORTHOREF
  2

  9
$PUCSORTHOVIEW
 70
     0
  9
$PUCSORGTOP
 10
0.0
 20
0.0
 30
0.0
  9
$PUCSORGBOTTOM
 10
0.0
 20
0.0
 30
0.0
  9
$PUCSORGLEFT
 10
0.0
 20
0.0
 30
0.0
  9
$PUCSORGRIGHT
 10
0.0
 20
0.0
 30
0.0
  9
$PUCSORGFRONT
 10
0.0
 20
0.0
 30
0.0
  9
$PUCSORGBACK
 10
0.0
 20
0.0
 30
0.0
  9
$USERI1
 70
     0
  9
$USERI2
 70
     0
  9
$USERI3
 70
     0
  9
$USERI4
 70
     0
  9
$USERI5
 70
     0
  9
$USERR1
 40
0.0
  9
$USERR2
 40
0.0
  9
$USERR3
 40
0.0
  9
$USERR4
 40
0.0
  9
$USERR5
 40
0.0
  9
$WORLDVIEW
 70
     1
  9
$SHADEDGE
 70
     3
  9
$SHADEDIF
 70
    70
  9
$TILEMODE
 70
     1
  9
$MAXACTVP
 70
    64
  9
$PINSBASE
 10
0.0
 20
0.0
 30
0.0
  9
$PLIMCHECK
 70
     0
  9
$PEXTMIN
 10
1.000000000000000E+20
 20
1.000000000000000E+20
 30
1.000000000000000E+20
  9
$PEXTMAX
 10
-1.000000000000000E+20
 20
-1.000000000000000E+20
 30
-1.000000000000000E+20
  9
$PLIMMIN
 10
0.0
 20
0.0
  9
$PLIMMAX
 10
12.0
 20
9.0
  9
$UNITMODE
 70
     0
  9
$VISRETAIN
 70
     1
  9
$PLINEGEN
 70
     0
  9
$PSLTSCALE
 70
     1
  9
$TREEDEPTH
 70
  3020
  9
$CMLSTYLE
  2
Standard
  9
$CMLJUST
 70
     0
  9
$CMLSCALE
 40
1.0
  9
$PROXYGRAPHICS
 70
     1
  9
$MEASUREMENT
 70
     0
  9
$CELWEIGHT
370
    -1
  9
$ENDCAPS
280
     0
  9
$JOINSTYLE
280
     0
  9
$LWDISPLAY
290
     1
  9
$INSUNITS
 70
     1
  9
$HYPERLINKBASE
  1

  9
$STYLESHEET
  1

  9
$XEDIT
290
     1
  9
$CEPSNTYPE
380
     0
  9
$PSTYLEMODE
290
     1
  9
$FINGERPRINTGUID
  2
{0AE8B637-457B-4EFF-85F7-CB6CDF9D58EF}
  9
$VERSIONGUID
  2
{FAEB1C32-E019-11D5-929B-00C0DF256EC4}
  9
$EXTNAMES
290
     1
  9
$PSVPSCALE
 40
0.0
  9
$OLESTARTUP
290
     0
  9
$SORTENTS
280
   127
  9
$INDEXCTL
280
     0
  9
$HIDETEXT
280
     1
  9
$XCLIPFRAME
290
     0
  9
$HALOGAP
280
     0
  9
$OBSCOLOR
 70
   257
  9
$OBSLTYPE
280
     0
  9
$INTERSECTIONDISPLAY
280
     0
  9
$INTERSECTIONCOLOR
 70
   257
  9
$DIMASSOC
280
     2
  9
$PROJECTNAME
  1

  0
ENDSEC
  0
SECTION
  2
CLASSES
  0
CLASS
  1
ACDBDICTIONARYWDFLT
  2
AcDbDictionaryWithDefault
  3
ObjectDBX Classes
 90
        0
 91
        3
280
     0
281
     0
  0
CLASS
  1
VISUALSTYLE
  2
AcDbVisualStyle
  3
ObjectDBX Classes
 90
     4095
 91
        3
280
     0
281
     0
  0
ENDSEC
  0
SECTION
  2
TABLES
  0
TABLE
  2
VPORT
  5
8
330
0
100
AcDbSymbolTable
 70
     1
  0
VPORT
  5
29
330
8
100
AcDbSymbolTableRecord
100
AcDbViewportTableRecord
  2
*Active
 70
     0
 10
0.0
 20
0.0
 11
1.0
 21
1.0
 12
0.0
 22
0.0
 13
0.0
 23
0.0
 14
0.5
 24
0.5
 15
0.5
 25
0.5
 16
0.0
 26
0.0
 36
1.0
 17
297.639892578125
 27
420.945068359375
 37
0.0
 40
841.89013671875
 41
0.70707537621992
 42
50.0
 43
0.0
 44
0.0
 50
0.0
 51
0.0
 71
     0
 72
   100
 73
     1
 74
     3
 75
     0
 76
     0
 77
     0
 78
     0
281
     0
 65
     1
110
0.0
120
0.0
130
0.0
111
1.0
121
0.0
131
0.0
112
0.0
122
1.0
132
0.0
 79
     0
146
0.0
  0
ENDTAB
  0
TABLE
  2
LTYPE
  5
5
330
0
100
AcDbSymbolTable
 70
     9
  0
LTYPE
  5
14
330
5
100
AcDbSymbolTableRecord
100
AcDbLinetypeTableRecord
  2
ByBlock
 70
     0
  3

 72
    65
 73
     0
 40
0.0
  0
LTYPE
  5
15
330
5
100
AcDbSymbolTableRecord
100
AcDbLinetypeTableRecord
  2
ByLayer
 70
     0
  3

 72
    65
 73
     0
 40
0.0
  0
LTYPE
  5
16
330
5
100
AcDbSymbolTableRecord
100
AcDbLinetypeTableRecord
  2
Continuous
 70
     0
  3
Solid line
 72
    65
 73
     0
 40
0.0
  0
LTYPE
  5
E6
330
5
100
AcDbSymbolTableRecord
100
AcDbLinetypeTableRecord
  2
AI-Linetype-1
 70
     0
  3
Adobe Illustrator Linetype No. 1
 72
    65
 73
     4
 40
7.423999786376953
 49
1.855999946594238
 74
     0
 49
-1.855999946594238
 74
     0
 49
1.855999946594238
 74
     0
 49
-1.855999946594238
 74
     0
  0
LTYPE
  5
22C
330
5
100
AcDbSymbolTableRecord
100
AcDbLinetypeTableRecord
  2
AI-Linetype-2
 70
     0
  3
Adobe Illustrator Linetype No. 2
 72
    65
 73
     4
 40
7.828000068664551
 49
1.957000017166138
 74
     0
 49
-1.957000017166138
 74
     0
 49
1.957000017166138
 74
     0
 49
-1.957000017166138
 74
     0
  0
LTYPE
  5
22E
330
5
100
AcDbSymbolTableRecord
100
AcDbLinetypeTableRecord
  2
AI-Linetype-3
 70
     0
  3
Adobe Illustrator Linetype No. 3
 72
    65
 73
     4
 40
10.76399993896484
 49
2.690999984741211
 74
     0
 49
-2.690999984741211
 74
     0
 49
2.690999984741211
 74
     0
 49
-2.690999984741211
 74
     0
  0
LTYPE
  5
230
330
5
100
AcDbSymbolTableRecord
100
AcDbLinetypeTableRecord
  2
AI-Linetype-4
 70
     0
  3
Adobe Illustrator Linetype No. 4
 72
    65
 73
     4
 40
10.76399993896484
 49
2.690999984741211
 74
     0
 49
-2.690999984741211
 74
     0
 49
2.690999984741211
 74
     0
 49
-2.690999984741211
 74
     0
  0
LTYPE
  5
238
330
5
100
AcDbSymbolTableRecord
100
AcDbLinetypeTableRecord
  2
AI-Linetype-5
 70
     0
  3
Adobe Illustrator Linetype No. 5
 72
    65
 73
     4
 40
8.612000465393066
 49
2.153000116348267
 74
     0
 49
-2.153000116348267
 74
     0
 49
2.153000116348267
 74
     0
 49
-2.153000116348267
 74
     0
  0
LTYPE
  5
23D
330
5
100
AcDbSymbolTableRecord
100
AcDbLinetypeTableRecord
  2
AI-Linetype-6
 70
     0
  3
Adobe Illustrator Linetype No. 6
 72
    65
 73
     4
 40
3.140000104904175
 49
0.7850000262260437
 74
     0
 49
-0.7850000262260437
 74
     0
 49
0.7850000262260437
 74
     0
 49
-0.7850000262260437
 74
     0
  0
LTYPE
  5
23F
330
5
100
AcDbSymbolTableRecord
100
AcDbLinetypeTableRecord
  2
AI-Linetype-7
 70
     0
  3
Adobe Illustrator Linetype No. 7
 72
    65
 73
     4
 40
10.76399993896484
 49
2.690999984741211
 74
     0
 49
-2.690999984741211
 74
     0
 49
2.690999984741211
 74
     0
 49
-2.690999984741211
 74
     0
  0
LTYPE
  5
241
330
5
100
AcDbSymbolTableRecord
100
AcDbLinetypeTableRecord
  2
AI-Linetype-8
 70
     0
  3
Adobe Illustrator Linetype No. 8
 72
    65
 73
     4
 40
10.76399993896484
 49
2.690999984741211
 74
     0
 49
-2.690999984741211
 74
     0
 49
2.690999984741211
 74
     0
 49
-2.690999984741211
 74
     0
  0
ENDTAB
  0
TABLE
  2
LAYER
  5
2
330
0
100
AcDbSymbolTable
 70
     2
  0
LAYER
  5
10
330
2
100
AcDbSymbolTableRecord
100
AcDbLayerTableRecord
  2
0
 70
     0
 62
     7
  6
Continuous
370
    -3
390
F
  0
LAYER
  5
3B
330
2
100
AcDbSymbolTableRecord
100
AcDbLayerTableRecord
  2
Capa 1
 70
     0
 62
     7
  6
Continuous
370
    -3
390
F
  0
ENDTAB
  0
TABLE
  2
STYLE
  5
3
330
0
100
AcDbSymbolTable
 70
     1
  0
STYLE
  5
11
330
3
100
AcDbSymbolTableRecord
100
AcDbTextStyleTableRecord
  2
Standard
 70
     0
 40
0.0
 41
1.0
 50
0.0
 71
     0
 42
0.2
  3
txt
  4

  0
ENDTAB
  0
TABLE
  2
VIEW
  5
6
330
0
100
AcDbSymbolTable
 70
     0
  0
ENDTAB
  0
TABLE
  2
UCS
  5
7
330
0
100
AcDbSymbolTable
 70
     0
  0
ENDTAB
  0
TABLE
  2
APPID
  5
9
330
0
100
AcDbSymbolTable
 70
     1
  0
APPID
  5
12
330
9
100
AcDbSymbolTableRecord
100
AcDbRegAppTableRecord
  2
ACAD
 70
     0
  0
ENDTAB
  0
TABLE
  2
DIMSTYLE
  5
A
330
0
100
AcDbSymbolTable
 70
     1
100
AcDbDimStyleTable
  0
DIMSTYLE
105
27
330
A
100
AcDbSymbolTableRecord
100
AcDbDimStyleTableRecord
  2
Standard
 70
     0
340
11
  0
ENDTAB
  0
TABLE
  2
BLOCK_RECORD
  5
1
330
0
100
AcDbSymbolTable
 70
     4
  0
BLOCK_RECORD
  5
1F
330
1
100
AcDbSymbolTableRecord
100
AcDbBlockTableRecord
  2
*Model_Space
340
22
  0
BLOCK_RECORD
  5
1B
330
1
100
AcDbSymbolTableRecord
100
AcDbBlockTableRecord
  2
*Paper_Space
340
1E
  0
BLOCK_RECORD
  5
23
330
1
100
AcDbSymbolTableRecord
100
AcDbBlockTableRecord
  2
*Paper_Space0
340
26
  0
BLOCK_RECORD
  5
90
330
1
100
AcDbSymbolTableRecord
100
AcDbBlockTableRecord
  2
block 2
340
0
102
{BLKREFS
331
91
102
}
  0
BLOCK_RECORD
  5
E9
330
1
100
AcDbSymbolTableRecord
100
AcDbBlockTableRecord
  2
block 3
340
0
102
{BLKREFS
331
EA
102
}
  0
BLOCK_RECORD
  5
1E6
330
1
100
AcDbSymbolTableRecord
100
AcDbBlockTableRecord
  2
block 4
340
0
102
{BLKREFS
331
1E7
102
}
  0
ENDTAB
  0
ENDSEC
  0
SECTION
  2
BLOCKS
  0
BLOCK
  5
20
330
1F
100
AcDbEntity
  8
0
100
AcDbBlockBegin
  2
*Model_Space
 70
     0
 71
     0
 10
0.0
 20
0.0
 30
0.0
  3
*Model_Space
  1

  0
ENDBLK
  5
21
330
1F
100
AcDbEntity
  8
0
100
AcDbBlockEnd
  0
BLOCK
  5
1C
330
1B
100
AcDbEntity
 67
     1
  8
0
100
AcDbBlockBegin
  2
*Paper_Space
 70
     0
 71
     0
 10
0.0
 20
0.0
 30
0.0
  3
*Paper_Space
  1

  0
ENDBLK
  5
1D
330
1B
100
AcDbEntity
 67
     1
  8
0
100
AcDbBlockEnd
  0
BLOCK
  5
24
330
23
100
AcDbEntity
  8
0
100
AcDbBlockBegin
  2
*Paper_Space0
 70
     0
 71
     0
 10
0.0
 20
0.0
 30
0.0
  3
*Paper_Space0
  1

  0
ENDBLK
  5
25
330
23
100
AcDbEntity
  8
0
100
AcDbBlockEnd
  0
BLOCK
  5
92
330
90
100
AcDbEntity
  8
0
100
AcDbBlockBegin
  2
block 2
 70
     0
 71
     0
 10
0.0
 20
0.0
 30
0.0
  3
block 2
  1

  0
POLYLINE
  5
94
330
90
100
AcDbEntity
  8
Capa 1
370
     0
100
AcDb2dPolyline
 66
     1
 10
0.0
 20
0.0
 30
0.0
  0
VERTEX
  5
95
330
94
100
AcDbEntity
  8
Capa 1
370
     0
100
AcDbVertex
100
AcDb2dVertex
 10
168.94775390625
 20
248.1708984375
 30
0.0
  0
VERTEX
  5
96
330
94
100
AcDbEntity
  8
Capa 1
370
     0
100
AcDbVertex
100
AcDb2dVertex
 10
405.08056640625
 20
248.1708984375
 30
0.0
  0
VERTEX
  5
97
330
94
100
AcDbEntity
  8
Capa 1
370
     0
100
AcDbVertex
100
AcDb2dVertex
 10
405.08056640625
 20
353.4248046875
 30
0.0
  0
VERTEX
  5
98
330
94
100
AcDbEntity
  8
Capa 1
370
     0
100
AcDbVertex
100
AcDb2dVertex
 10
168.94775390625
 20
353.4248046875
 30
0.0
  0
VERTEX
  5
99
330
94
100
AcDbEntity
  8
Capa 1
370
     0
100
AcDbVertex
100
AcDb2dVertex
 10
168.94775390625
 20
248.1708984375
 30
0.0
  0
SEQEND
  5
9A
330
94
100
AcDbEntity
  8
Capa 1
370
     0
  0
SPLINE
  5
9B
330
90
100
AcDbEntity
  8
Capa 1
 62
   250
420
  2301728
370
     9
100
AcDbSpline
210
0.0
220
0.0
230
1.0
 70
     8
 71
     3
 72
     8
 73
     4
 74
     0
 42
0.0000000001
 43
0.0000000001
 40
0.0
 40
0.0
 40
0.0
 40
0.0
 40
1.0
 40
1.0
 40
1.0
 40
1.0
 10
345.57177734375
 20
307.0869140625
 30
0.0
 10
344.72412109375
 20
307.0673828125
 30
0.0
 10
343.99267578125
 20
306.3701171875
 30
0.0
 10
343.93505859375
 20
305.5263671875
 30
0.0
  0
POLYLINE
  5
9C
330
90
100
AcDbEntity
  8
Capa 1
 62
   250
420
  2301728
370
     9
100
AcDb2dPolyline
 66
     1
 10
0.0
 20
0.0
 30
0.0
  0
VERTEX
  5
9D
330
9C
100
AcDbEntity
  8
Capa 1
 62
   250
420
  2301728
370
     9
100
AcDbVertex
100
AcDb2dVertex
 10
343.06396484375
 20
295.5546875
 30
0.0
  0
VERTEX
  5
9E
330
9C
100
AcDbEntity
  8
Capa 1
 62
   250
420
  2301728
370
     9
100
AcDbVertex
100
AcDb2dVertex
 10
343.93505859375
 20
305.5263671875
 30
0.0
  0
SEQEND
  5
9F
330
9C
100
AcDbEntity
  8
Capa 1
370
     9
  0
SPLINE
  5
A0
330
90
100
AcDbEntity
  8
Capa 1
 62
   250
420
  2301728
370
     9
100
AcDbSpline
210
0.0
220
0.0
230
1.0
 70
     8
 71
     3
 72
     8
 73
     4
 74
     0
 42
0.0000000001
 43
0.0000000001
 40
0.0
 40
0.0
 40
0.0
 40
0.0
 40
1.0
 40
1.0
 40
1.0
 40
1.0
 10
399.52490234375
 20
343.7001953125
 30
0.0
 10
398.25244140625
 20
343.7685546875
 30
0.0
 10
396.70166015625
 20
342.927734375
 30
0.0
 10
396.07373046875
 20
341.8212890625
 30
0.0
  0
SPLINE
  5
A1
330
90
100
AcDbEntity
  8
Capa 1
 62
   250
420
  2301728
370
     9
100
AcDbSpline
210
0.0
220
0.0
230
1.0
 70
     8
 71
     3
 72
     8
 73
     4
 74
     0
 42
0.0000000001
 43
0.0000000001
 40
0.0
 40
0.0
 40
0.0
 40
0.0
 40
1.0
 40
1.0
 40
1.0
 40
1.0
 10
373.54345703125
 20
317.2841796875
 30
0.0
 10
380.84912109375
 20
322.4443359375
 30
0.0
 10
391.55322265625
 20
334.1064453125
 30
0.0
 10
396.07373046875
 20
341.8212890625
 30
0.0
  0
SPLINE
  5
A2
330
90
100
AcDbEntity
  8
Capa 1
 62
   250
420
  2301728
370
     9
100
AcDbSpline
210
0.0
220
0.0
230
1.0
 70
     8
 71
     3
 72
     8
 73
     4
 74
     0
 42
0.0000000001
 43
0.0000000001
 40
0.0
 40
0.0
 40
0.0
 40
0.0
 40
1.0
 40
1.0
 40
1.0
 40
1.0
 10
345.57177734375
 20
307.0869140625
 30
0.0
 10
354.17822265625
 20
306.9365234375
 30
0.0
 10
367.05322265625
 20
311.6259765625
 30
0.0
 10
373.54345703125
 20
317.2841796875
 30
0.0
  0
POLYLINE
  5
A3
330
90
100
AcDbEntity
  8
Capa 1
 62
   250
420
  2301728
370
     9
100
AcDb2dPolyline
 66
     1
 10
0.0
 20
0.0
 30
0.0
  0
VERTEX
  5
A4
330
A3
100
AcDbEntity
  8
Capa 1
 62
   250
420
  2301728
370
     9
100
AcDbVertex
100
AcDb2dVertex
 10
404.55615234375
 20
345.2451171875
 30
0.0
  0
VERTEX
  5
A5
330
A3
100
AcDbEntity
  8
Capa 1
 62
   250
420
  2301728
370
     9
100
AcDbVertex
100
AcDb2dVertex
 10
404.55615234375
 20
348.1572265625
 30
0.0
  0
SEQEND
  5
A6
330
A3
100
AcDbEntity
  8
Capa 1
370
     9
  0
POLYLINE
  5
A7
330
90
100
AcDbEntity
  8
Capa 1
 62
   250
420
  2301728
370
     9
100
AcDb2dPolyline
 66
     1
 10
0.0
 20
0.0
 30
0.0
  0
VERTEX
  5
A8
330
A7
100
AcDbEntity
  8
Capa 1
 62
   250
420
  2301728
370
     9
100
AcDbVertex
100
AcDb2dVertex
 10
262.28076171875
 20
343.7001953125
 30
0.0
  0
VERTEX
  5
A9
330
A7
100
AcDbEntity
  8
Capa 1
 62
   250
420
  2301728
370
     9
100
AcDbVertex
100
AcDb2dVertex
 10
403.01904296875
 20
343.7001953125
 30
0.0
  0
SEQEND
  5
AA
330
A7
100
AcDbEntity
  8
Capa 1
370
     9
  0
SPLINE
  5
AB
330
90
100
AcDbEntity
  8
Capa 1
 62
   250
420
  2301728
370
     9
100
AcDbSpline
210
0.0
220
0.0
230
1.0
 70
     8
 71
     3
 72
     8
 73
     4
 74
     0
 42
0.0000000001
 43
0.0000000001
 40
0.0
 40
0.0
 40
0.0
 40
0.0
 40
1.0
 40
1.0
 40
1.0
 40
1.0
 10
401.82177734375
 20
343.7001953125
 30
0.0
 10
400.95166015625
 20
343.7138671875
 30
0.0
 10
400.19482421875
 20
343.0302734375
 30
0.0
 10
400.11279296875
 20
342.1689453125
 30
0.0
  0
SPLINE
  5
AC
330
90
100
AcDbEntity
  8
Capa 1
 62
   250
420
  2301728
370
     9
100
AcDbSpline
210
0.0
220
0.0
230
1.0
 70
     8
 71
     3
 72
     8
 73
     4
 74
     0
 42
0.0000000001
 43
0.0000000001
 40
0.0
 40
0.0
 40
0.0
 40
0.0
 40
1.0
 40
1.0
 40
1.0
 40
1.0
 10
378.15576171875
 20
311.3193359375
 30
0.0
 10
383.80615234375
 20
315.3251953125
 30
0.0
 10
392.21728515625
 20
324.34375
 30
0.0
 10
395.81982421875
 20
330.2548828125
 30
0.0
  0
SPLINE
  5
AD
330
90
100
AcDbEntity
  8
Capa 1
 62
   250
420
  2301728
370
     9
100
AcDbSpline
210
0.0
220
0.0
230
1.0
 70
     8
 71
     3
 72
     8
 73
     4
 74
     0
 42
0.0000000001
 43
0.0000000001
 40
0.0
 40
0.0
 40
0.0
 40
0.0
 40
1.0
 40
1.0
 40
1.0
 40
1.0
 10
361.32568359375
 20
302.3662109375
 30
0.0
 10
366.24658203125
 20
303.7607421875
 30
0.0
 10
374.24462890625
 20
308.0205078125
 30
0.0
 10
378.15576171875
 20
311.3193359375
 30
0.0
  0
SPLINE
  5
AE
330
90
100
AcDbEntity
  8
Capa 1
 62
   250
420
  2301728
370
     9
100
AcDbSpline
210
0.0
220
0.0
230
1.0
 70
     8
 71
     3
 72
     8
 73
     4
 74
     0
 42
0.0000000001
 43
0.0000000001
 40
0.0
 40
0.0
 40
0.0
 40
0.0
 40
1.0
 40
1.0
 40
1.0
 40
1.0
 10
317.86669921875
 20
305.5263671875
 30
0.0
 10
317.80810546875
 20
306.3701171875
 30
0.0
 10
317.07666015625
 20
307.0673828125
 30
0.0
 10
316.23193359375
 20
307.0869140625
 30
0.0
  0
POLYLINE
  5
AF
330
90
100
AcDbEntity
  8
Capa 1
 62
   250
420
  2301728
370
     9
100
AcDb2dPolyline
 66
     1
 10
0.0
 20
0.0
 30
0.0
  0
VERTEX
  5
B0
330
AF
100
AcDbEntity
  8
Capa 1
 62
   250
420
  2301728
370
     9
100
AcDbVertex
100
AcDb2dVertex
 10
343.06396484375
 20
295.5546875
 30
0.0
  0
VERTEX
  5
B1
330
AF
100
AcDbEntity
  8
Capa 1
 62
   250
420
  2301728
370
     9
100
AcDbVertex
100
AcDb2dVertex
 10
343.07373046875
 20
295.677734375
 30
0.0
  0
SEQEND
  5
B2
330
AF
100
AcDbEntity
  8
Capa 1
370
     9
  0
SPLINE
  5
B3
330
90
100
AcDbEntity
  8
Capa 1
 62
   250
420
  2301728
370
     9
100
AcDbSpline
210
0.0
220
0.0
230
1.0
 70
     8
 71
     3
 72
     8
 73
     4
 74
     0
 42
0.0000000001
 43
0.0000000001
 40
0.0
 40
0.0
 40
0.0
 40
0.0
 40
1.0
 40
1.0
 40
1.0
 40
1.0
 10
342.89013671875
 20
295.3974609375
 30
0.0
 10
342.97802734375
 20
295.3974609375
 30
0.0
 10
343.05615234375
 20
295.46875
 30
0.0
 10
343.06396484375
 20
295.5546875
 30
0.0
  0
POLYLINE
  5
B4
330
90
100
AcDbEntity
  8
Capa 1
 62
   250
420
  2301728
370
     9
100
AcDb2dPolyline
 66
     1
 10
0.0
 20
0.0
 30
0.0
  0
VERTEX
  5
B5
330
B4
100
AcDbEntity
  8
Capa 1
 62
   250
420
  2301728
370
     9
100
AcDbVertex
100
AcDb2dVertex
 10
338.78076171875
 20
295.3974609375
 30
0.0
  0
VERTEX
  5
B6
330
B4
100
AcDbEntity
  8
Capa 1
 62
   250
420
  2301728
370
     9
100
AcDbVertex
100
AcDb2dVertex
 10
342.89013671875
 20
295.3974609375
 30
0.0
  0
SEQEND
  5
B7
330
B4
100
AcDbEntity
  8
Capa 1
370
     9
  0
SPLINE
  5
B8
330
90
100
AcDbEntity
  8
Capa 1
 62
   250
420
  2301728
370
     9
100
AcDbSpline
210
0.0
220
0.0
230
1.0
 70
     8
 71
     3
 72
     8
 73
     4
 74
     0
 42
0.0000000001
 43
0.0000000001
 40
0.0
 40
0.0
 40
0.0
 40
0.0
 40
1.0
 40
1.0
 40
1.0
 40
1.0
 10
343.77099609375
 20
296.5634765625
 30
0.0
 10
343.40185546875
 20
296.4541015625
 30
0.0
 10
343.09033203125
 20
296.0654296875
 30
0.0
 10
343.07373046875
 20
295.677734375
 30
0.0
  0
POLYLINE
  5
B9
330
90
100
AcDbEntity
  8
Capa 1
 62
   250
420
  2301728
370
     9
100
AcDb2dPolyline
 66
     1
 10
0.0
 20
0.0
 30
0.0
  0
VERTEX
  5
BA
330
B9
100
AcDbEntity
  8
Capa 1
 62
   250
420
  2301728
370
     9
100
AcDbVertex
100
AcDb2dVertex
 10
323.02294921875
 20
295.3974609375
 30
0.0
  0
VERTEX
  5
BB
330
B9
100
AcDbEntity
  8
Capa 1
 62
   250
420
  2301728
370
     9
100
AcDbVertex
100
AcDb2dVertex
 10
330.89794921875
 20
295.3974609375
 30
0.0
  0
SEQEND
  5
BC
330
B9
100
AcDbEntity
  8
Capa 1
370
     9
  0
SPLINE
  5
BD
330
90
100
AcDbEntity
  8
Capa 1
 62
   250
420
  2301728
370
     9
100
AcDbSpline
210
0.0
220
0.0
230
1.0
 70
     8
 71
     3
 72
     8
 73
     4
 74
     0
 42
0.0000000001
 43
0.0000000001
 40
0.0
 40
0.0
 40
0.0
 40
0.0
 40
1.0
 40
1.0
 40
1.0
 40
1.0
 10
318.74169921875
 20
295.5546875
 30
0.0
 10
318.74462890625
 20
295.46875
 30
0.0
 10
318.81982421875
 20
295.3974609375
 30
0.0
 10
318.91064453125
 20
295.3974609375
 30
0.0
  0
POLYLINE
  5
BE
330
90
100
AcDbEntity
  8
Capa 1
 62
   250
420
  2301728
370
     9
100
AcDb2dPolyline
 66
     1
 10
0.0
 20
0.0
 30
0.0
  0
VERTEX
  5
BF
330
BE
100
AcDbEntity
  8
Capa 1
 62
   250
420
  2301728
370
     9
100
AcDbVertex
100
AcDb2dVertex
 10
318.91064453125
 20
295.3974609375
 30
0.0
  0
VERTEX
  5
C0
330
BE
100
AcDbEntity
  8
Capa 1
 62
   250
420
  2301728
370
     9
100
AcDbVertex
100
AcDb2dVertex
 10
323.02294921875
 20
295.3974609375
 30
0.0
  0
SEQEND
  5
C1
330
BE
100
AcDbEntity
  8
Capa 1
370
     9
  0
POLYLINE
  5
C2
330
90
100
AcDbEntity
  8
Capa 1
 62
   250
420
  2301728
370
     9
100
AcDb2dPolyline
 66
     1
 10
0.0
 20
0.0
 30
0.0
  0
VERTEX
  5
C3
330
C2
100
AcDbEntity
  8
Capa 1
 62
   250
420
  2301728
370
     9
100
AcDbVertex
100
AcDb2dVertex
 10
330.89794921875
 20
295.3974609375
 30
0.0
  0
VERTEX
  5
C4
330
C2
100
AcDbEntity
  8
Capa 1
 62
   250
420
  2301728
370
     9
100
AcDbVertex
100
AcDb2dVertex
 10
338.78076171875
 20
295.3974609375
 30
0.0
  0
SEQEND
  5
C5
330
C2
100
AcDbEntity
  8
Capa 1
370
     9
  0
POLYLINE
  5
C6
330
90
100
AcDbEntity
  8
Capa 1
 62
   250
420
  2301728
370
     9
100
AcDb2dPolyline
 66
     1
 10
0.0
 20
0.0
 30
0.0
  0
VERTEX
  5
C7
330
C6
100
AcDbEntity
  8
Capa 1
 62
   250
420
  2301728
370
     9
100
AcDbVertex
100
AcDb2dVertex
 10
318.74169921875
 20
295.5546875
 30
0.0
  0
VERTEX
  5
C8
330
C6
100
AcDbEntity
  8
Capa 1
 62
   250
420
  2301728
370
     9
100
AcDbVertex
100
AcDb2dVertex
 10
317.86669921875
 20
305.5263671875
 30
0.0
  0
SEQEND
  5
C9
330
C6
100
AcDbEntity
  8
Capa 1
370
     9
  0
POLYLINE
  5
CA
330
90
100
AcDbEntity
  8
Capa 1
 62
   250
420
  2301728
370
     9
100
AcDb2dPolyline
 66
     1
 10
0.0
 20
0.0
 30
0.0
  0
VERTEX
  5
CB
330
CA
100
AcDbEntity
  8
Capa 1
 62
   250
420
  2301728
370
     9
100
AcDbVertex
100
AcDb2dVertex
 10
343.77099609375
 20
296.5634765625
 30
0.0
  0
VERTEX
  5
CC
330
CA
100
AcDbEntity
  8
Capa 1
 62
   250
420
  2301728
370
     9
100
AcDbVertex
100
AcDb2dVertex
 10
361.32568359375
 20
302.3662109375
 30
0.0
  0
SEQEND
  5
CD
330
CA
100
AcDbEntity
  8
Capa 1
370
     9
  0
SPLINE
  5
CE
330
90
100
AcDbEntity
  8
Capa 1
 62
   250
420
  2301728
370
     9
100
AcDbSpline
210
0.0
220
0.0
230
1.0
 70
     8
 71
     3
 72
     8
 73
     4
 74
     0
 42
0.0000000001
 43
0.0000000001
 40
0.0
 40
0.0
 40
0.0
 40
0.0
 40
1.0
 40
1.0
 40
1.0
 40
1.0
 10
395.81982421875
 20
330.2548828125
 30
0.0
 10
397.93310546875
 20
333.0849609375
 30
0.0
 10
399.93896484375
 20
338.6455078125
 30
0.0
 10
400.11279296875
 20
342.1689453125
 30
0.0
  0
POLYLINE
  5
CF
330
90
100
AcDbEntity
  8
Capa 1
 62
   250
420
  2301728
370
     9
100
AcDb2dPolyline
 66
     1
 10
0.0
 20
0.0
 30
0.0
  0
VERTEX
  5
D0
330
CF
100
AcDbEntity
  8
Capa 1
 62
   250
420
  2301728
370
     9
100
AcDbVertex
100
AcDb2dVertex
 10
257.24267578125
 20
345.2451171875
 30
0.0
  0
VERTEX
  5
D1
330
CF
100
AcDbEntity
  8
Capa 1
 62
   250
420
  2301728
370
     9
100
AcDbVertex
100
AcDb2dVertex
 10
257.24267578125
 20
348.1572265625
 30
0.0
  0
SEQEND
  5
D2
330
CF
100
AcDbEntity
  8
Capa 1
370
     9
  0
POLYLINE
  5
D3
330
90
100
AcDbEntity
  8
Capa 1
 62
   250
420
  2301728
370
     9
100
AcDb2dPolyline
 66
     1
 10
0.0
 20
0.0
 30
0.0
  0
VERTEX
  5
D4
330
D3
100
AcDbEntity
  8
Capa 1
 62
   250
420
  2301728
370
     9
100
AcDbVertex
100
AcDb2dVertex
 10
262.28076171875
 20
343.7001953125
 30
0.0
  0
VERTEX
  5
D5
330
D3
100
AcDbEntity
  8
Capa 1
 62
   250
420
  2301728
370
     9
100
AcDbVertex
100
AcDb2dVertex
 10
258.78564453125
 20
343.7001953125
 30
0.0
  0
SEQEND
  5
D6
330
D3
100
AcDbEntity
  8
Capa 1
370
     9
  0
SPLINE
  5
D7
330
90
100
AcDbEntity
  8
Capa 1
 62
   250
420
  2301728
370
     9
100
AcDbSpline
210
0.0
220
0.0
230
1.0
 70
     8
 71
     3
 72
     8
 73
     4
 74
     0
 42
0.0000000001
 43
0.0000000001
 40
0.0
 40
0.0
 40
0.0
 40
0.0
 40
1.0
 40
1.0
 40
1.0
 40
1.0
 10
257.24267578125
 20
345.2451171875
 30
0.0
 10
257.24267578125
 20
344.3935546875
 30
0.0
 10
257.9345703125
 20
343.7001953125
 30
0.0
 10
258.78564453125
 20
343.7001953125
 30
0.0
  0
SPLINE
  5
D8
330
90
100
AcDbEntity
  8
Capa 1
 62
   250
420
  2301728
370
     9
100
AcDbSpline
210
0.0
220
0.0
230
1.0
 70
     8
 71
     3
 72
     8
 73
     4
 74
     0
 42
0.0000000001
 43
0.0000000001
 40
0.0
 40
0.0
 40
0.0
 40
0.0
 40
1.0
 40
1.0
 40
1.0
 40
1.0
 10
258.2724609375
 20
349.1865234375
 30
0.0
 10
257.70361328125
 20
349.1865234375
 30
0.0
 10
257.24267578125
 20
348.7255859375
 30
0.0
 10
257.24267578125
 20
348.1572265625
 30
0.0
  0
SPLINE
  5
D9
330
90
100
AcDbEntity
  8
Capa 1
 62
   250
420
  2301728
370
     9
100
AcDbSpline
210
0.0
220
0.0
230
1.0
 70
     8
 71
     3
 72
     8
 73
     4
 74
     0
 42
0.0000000001
 43
0.0000000001
 40
0.0
 40
0.0
 40
0.0
 40
0.0
 40
1.0
 40
1.0
 40
1.0
 40
1.0
 10
265.73388671875
 20
341.8212890625
 30
0.0
 10
265.0966796875
 20
342.927734375
 30
0.0
 10
263.5517578125
 20
343.7685546875
 30
0.0
 10
262.28076171875
 20
343.7001953125
 30
0.0
  0
SPLINE
  5
DA
330
90
100
AcDbEntity
  8
Capa 1
 62
   250
420
  2301728
370
     9
100
AcDbSpline
210
0.0
220
0.0
230
1.0
 70
     8
 71
     3
 72
     8
 73
     4
 74
     0
 42
0.0000000001
 43
0.0000000001
 40
0.0
 40
0.0
 40
0.0
 40
0.0
 40
1.0
 40
1.0
 40
1.0
 40
1.0
 10
265.73388671875
 20
341.8212890625
 30
0.0
 10
270.24853515625
 20
334.1064453125
 30
0.0
 10
280.95556640625
 20
322.4443359375
 30
0.0
 10
288.2568359375
 20
317.2841796875
 30
0.0
  0
POLYLINE
  5
DB
330
90
100
AcDbEntity
  8
Capa 1
 62
   250
420
  2301728
370
     9
100
AcDb2dPolyline
 66
     1
 10
0.0
 20
0.0
 30
0.0
  0
VERTEX
  5
DC
330
DB
100
AcDbEntity
  8
Capa 1
 62
   250
420
  2301728
370
     9
100
AcDbVertex
100
AcDb2dVertex
 10
258.2724609375
 20
349.1865234375
 30
0.0
  0
VERTEX
  5
DD
330
DB
100
AcDbEntity
  8
Capa 1
 62
   250
420
  2301728
370
     9
100
AcDbVertex
100
AcDb2dVertex
 10
403.53076171875
 20
349.1865234375
 30
0.0
  0
SEQEND
  5
DE
330
DB
100
AcDbEntity
  8
Capa 1
370
     9
  0
SPLINE
  5
DF
330
90
100
AcDbEntity
  8
Capa 1
 62
   250
420
  2301728
370
     9
100
AcDbSpline
210
0.0
220
0.0
230
1.0
 70
     8
 71
     3
 72
     8
 73
     4
 74
     0
 42
0.0000000001
 43
0.0000000001
 40
0.0
 40
0.0
 40
0.0
 40
0.0
 40
1.0
 40
1.0
 40
1.0
 40
1.0
 10
288.2568359375
 20
317.2841796875
 30
0.0
 10
294.74853515625
 20
311.6259765625
 30
0.0
 10
307.62158203125
 20
306.9365234375
 30
0.0
 10
316.23193359375
 20
307.0869140625
 30
0.0
  0
SPLINE
  5
E0
330
90
100
AcDbEntity
  8
Capa 1
 62
   250
420
  2301728
370
     9
100
AcDbSpline
210
0.0
220
0.0
230
1.0
 70
     8
 71
     3
 72
     8
 73
     4
 74
     0
 42
0.0000000001
 43
0.0000000001
 40
0.0
 40
0.0
 40
0.0
 40
0.0
 40
1.0
 40
1.0
 40
1.0
 40
1.0
 10
403.01904296875
 20
343.7001953125
 30
0.0
 10
403.86767578125
 20
343.7001953125
 30
0.0
 10
404.55615234375
 20
344.3935546875
 30
0.0
 10
404.55615234375
 20
345.2451171875
 30
0.0
  0
SPLINE
  5
E1
330
90
100
AcDbEntity
  8
Capa 1
 62
   250
420
  2301728
370
     9
100
AcDbSpline
210
0.0
220
0.0
230
1.0
 70
     8
 71
     3
 72
     8
 73
     4
 74
     0
 42
0.0000000001
 43
0.0000000001
 40
0.0
 40
0.0
 40
0.0
 40
0.0
 40
1.0
 40
1.0
 40
1.0
 40
1.0
 10
404.55615234375
 20
348.1572265625
 30
0.0
 10
404.55615234375
 20
348.7255859375
 30
0.0
 10
404.09716796875
 20
349.1865234375
 30
0.0
 10
403.53076171875
 20
349.1865234375
 30
0.0
  0
ENDBLK
  5
93
330
90
100
AcDbEntity
  8
0
100
AcDbBlockEnd
  0
BLOCK
  5
EB
330
E9
100
AcDbEntity
  8
0
100
AcDbBlockBegin
  2
block 3
 70
     0
 71
     0
 10
0.0
 20
0.0
 30
0.0
  3
block 3
  1

  0
POLYLINE
  5
ED
330
E9
100
AcDbEntity
  8
Capa 1
370
     0
100
AcDb2dPolyline
 66
     1
 10
0.0
 20
0.0
 30
0.0
  0
VERTEX
  5
EE
330
ED
100
AcDbEntity
  8
Capa 1
370
     0
100
AcDbVertex
100
AcDb2dVertex
 10
114.28076171875
 20
436.02001953125
 30
0.0
  0
VERTEX
  5
EF
330
ED
100
AcDbEntity
  8
Capa 1
370
     0
100
AcDbVertex
100
AcDb2dVertex
 10
425.66357421875
 20
436.02001953125
 30
0.0
  0
VERTEX
  5
F0
330
ED
100
AcDbEntity
  8
Capa 1
370
     0
100
AcDbVertex
100
AcDb2dVertex
 10
425.66357421875
 20
686.4580078125
 30
0.0
  0
VERTEX
  5
F1
330
ED
100
AcDbEntity
  8
Capa 1
370
     0
100
AcDbVertex
100
AcDb2dVertex
 10
114.28076171875
 20
686.4580078125
 30
0.0
  0
VERTEX
  5
F2
330
ED
100
AcDbEntity
  8
Capa 1
370
     0
100
AcDbVertex
100
AcDb2dVertex
 10
114.28076171875
 20
436.02001953125
 30
0.0
  0
SEQEND
  5
F3
330
ED
100
AcDbEntity
  8
Capa 1
370
     0
  0
SPLINE
  5
F4
330
E9
100
AcDbEntity
  8
Capa 1
 62
   250
420
  2301728
370
     9
100
AcDbSpline
210
0.0
220
0.0
230
1.0
 70
     8
 71
     3
 72
     8
 73
     4
 74
     0
 42
0.0000000001
 43
0.0000000001
 40
0.0
 40
0.0
 40
0.0
 40
0.0
 40
1.0
 40
1.0
 40
1.0
 40
1.0
 10
238.142578125
 20
453.3095703125
 30
0.0
 10
238.142578125
 20
450.0927734375
 30
0.0
 10
240.74951171875
 20
447.48779296875
 30
0.0
 10
243.96630859375
 20
447.48779296875
 30
0.0
  0
SPLINE
  5
F5
330
E9
100
AcDbEntity
  8
Capa 1
 62
   250
420
  2301728
370
     9
100
AcDbSpline
210
0.0
220
0.0
230
1.0
 70
     8
 71
     3
 72
     8
 73
     4
 74
     0
 42
0.0000000001
 43
0.0000000001
 40
0.0
 40
0.0
 40
0.0
 40
0.0
 40
1.0
 40
1.0
 40
1.0
 40
1.0
 10
243.96630859375
 20
585.5498046875
 30
0.0
 10
239.04443359375
 20
585.5498046875
 30
0.0
 10
235.05859375
 20
581.5576171875
 30
0.0
 10
235.05859375
 20
576.6416015625
 30
0.0
  0
SPLINE
  5
F6
330
E9
100
AcDbEntity
  8
Capa 1
 62
   250
420
  2301728
370
     9
100
AcDbSpline
210
0.0
220
0.0
230
1.0
 70
     8
 71
     3
 72
     8
 73
     4
 74
     0
 42
0.0000000001
 43
0.0000000001
 40
0.0
 40
0.0
 40
0.0
 40
0.0
 40
1.0
 40
1.0
 40
1.0
 40
1.0
 10
243.96630859375
 20
582.4638671875
 30
0.0
 10
240.74951171875
 20
582.4638671875
 30
0.0
 10
238.142578125
 20
579.85888671875
 30
0.0
 10
238.142578125
 20
576.6416015625
 30
0.0
  0
POLYLINE
  5
F7
330
E9
100
AcDbEntity
  8
Capa 1
 62
   250
420
  2301728
370
     9
100
AcDb2dPolyline
 66
     1
 10
0.0
 20
0.0
 30
0.0
  0
VERTEX
  5
F8
330
F7
100
AcDbEntity
  8
Capa 1
 62
   250
420
  2301728
370
     9
100
AcDbVertex
100
AcDb2dVertex
 10
325.33056640625
 20
585.5498046875
 30
0.0
  0
VERTEX
  5
F9
330
F7
100
AcDbEntity
  8
Capa 1
 62
   250
420
  2301728
370
     9
100
AcDbVertex
100
AcDb2dVertex
 10
243.96630859375
 20
585.5498046875
 30
0.0
  0
SEQEND
  5
FA
330
F7
100
AcDbEntity
  8
Capa 1
370
     9
  0
POLYLINE
  5
FB
330
E9
100
AcDbEntity
  8
Capa 1
 62
   250
420
  2301728
370
     9
100
AcDb2dPolyline
 66
     1
 10
0.0
 20
0.0
 30
0.0
  0
VERTEX
  5
FC
330
FB
100
AcDbEntity
  8
Capa 1
 62
   250
420
  2301728
370
     9
100
AcDbVertex
100
AcDb2dVertex
 10
325.33056640625
 20
582.4638671875
 30
0.0
  0
VERTEX
  5
FD
330
FB
100
AcDbEntity
  8
Capa 1
 62
   250
420
  2301728
370
     9
100
AcDbVertex
100
AcDb2dVertex
 10
243.96630859375
 20
582.4638671875
 30
0.0
  0
SEQEND
  5
FE
330
FB
100
AcDbEntity
  8
Capa 1
370
     9
  0
SPLINE
  5
FF
330
E9
100
AcDbEntity
  8
Capa 1
 62
   250
420
  2301728
370
     9
100
AcDbSpline
210
0.0
220
0.0
230
1.0
 70
     8
 71
     3
 72
     8
 73
     4
 74
     0
 42
0.0000000001
 43
0.0000000001
 40
0.0
 40
0.0
 40
0.0
 40
0.0
 40
1.0
 40
1.0
 40
1.0
 40
1.0
 10
235.05859375
 20
453.3095703125
 30
0.0
 10
235.05859375
 20
448.3896484375
 30
0.0
 10
239.04443359375
 20
444.40478515625
 30
0.0
 10
243.96630859375
 20
444.40478515625
 30
0.0
  0
POLYLINE
  5
100
330
E9
100
AcDbEntity
  8
Capa 1
 62
   250
420
  2301728
370
     9
100
AcDb2dPolyline
 66
     1
 10
0.0
 20
0.0
 30
0.0
  0
VERTEX
  5
101
330
100
100
AcDbEntity
  8
Capa 1
 62
   250
420
  2301728
370
     9
100
AcDbVertex
100
AcDb2dVertex
 10
325.33056640625
 20
447.48779296875
 30
0.0
  0
VERTEX
  5
102
330
100
100
AcDbEntity
  8
Capa 1
 62
   250
420
  2301728
370
     9
100
AcDbVertex
100
AcDb2dVertex
 10
243.96630859375
 20
447.48779296875
 30
0.0
  0
SEQEND
  5
103
330
100
100
AcDbEntity
  8
Capa 1
370
     9
  0
POLYLINE
  5
104
330
E9
100
AcDbEntity
  8
Capa 1
 62
   250
420
  2301728
370
     9
100
AcDb2dPolyline
 66
     1
 10
0.0
 20
0.0
 30
0.0
  0
VERTEX
  5
105
330
104
100
AcDbEntity
  8
Capa 1
 62
   250
420
  2301728
370
     9
100
AcDbVertex
100
AcDb2dVertex
 10
325.33056640625
 20
444.40478515625
 30
0.0
  0
VERTEX
  5
106
330
104
100
AcDbEntity
  8
Capa 1
 62
   250
420
  2301728
370
     9
100
AcDbVertex
100
AcDb2dVertex
 10
243.96630859375
 20
444.40478515625
 30
0.0
  0
SEQEND
  5
107
330
104
100
AcDbEntity
  8
Capa 1
370
     9
  0
POLYLINE
  5
108
330
E9
100
AcDbEntity
  8
Capa 1
 62
   250
420
  2301728
370
     9
100
AcDb2dPolyline
 66
     1
 10
0.0
 20
0.0
 30
0.0
  0
VERTEX
  5
109
330
108
100
AcDbEntity
  8
Capa 1
 62
   250
420
  2301728
370
     9
100
AcDbVertex
100
AcDb2dVertex
 10
238.142578125
 20
453.3095703125
 30
0.0
  0
VERTEX
  5
10A
330
108
100
AcDbEntity
  8
Capa 1
 62
   250
420
  2301728
370
     9
100
AcDbVertex
100
AcDb2dVertex
 10
238.142578125
 20
576.6416015625
 30
0.0
  0
SEQEND
  5
10B
330
108
100
AcDbEntity
  8
Capa 1
370
     9
  0
POLYLINE
  5
10C
330
E9
100
AcDbEntity
  8
Capa 1
 62
   250
420
  2301728
370
     9
100
AcDb2dPolyline
 66
     1
 10
0.0
 20
0.0
 30
0.0
  0
VERTEX
  5
10D
330
10C
100
AcDbEntity
  8
Capa 1
 62
   250
420
  2301728
370
     9
100
AcDbVertex
100
AcDb2dVertex
 10
235.05859375
 20
453.3095703125
 30
0.0
  0
VERTEX
  5
10E
330
10C
100
AcDbEntity
  8
Capa 1
 62
   250
420
  2301728
370
     9
100
AcDbVertex
100
AcDb2dVertex
 10
235.05859375
 20
576.6416015625
 30
0.0
  0
SEQEND
  5
10F
330
10C
100
AcDbEntity
  8
Capa 1
370
     9
  0
POLYLINE
  5
110
330
E9
100
AcDbEntity
  8
Capa 1
 62
   250
420
  2301728
370
     9
100
AcDb2dPolyline
 66
     1
 10
0.0
 20
0.0
 30
0.0
  0
VERTEX
  5
111
330
110
100
AcDbEntity
  8
Capa 1
 62
   250
420
  2301728
370
     9
100
AcDbVertex
100
AcDb2dVertex
 10
246.396484375
 20
455.19287109375
 30
0.0
  0
VERTEX
  5
112
330
110
100
AcDbEntity
  8
Capa 1
 62
   250
420
  2301728
370
     9
100
AcDbVertex
100
AcDb2dVertex
 10
303.14892578125
 20
499.1748046875
 30
0.0
  0
SEQEND
  5
113
330
110
100
AcDbEntity
  8
Capa 1
370
     9
  0
POLYLINE
  5
114
330
E9
100
AcDbEntity
  8
Capa 1
 62
   250
420
  2301728
370
     9
100
AcDb2dPolyline
 66
     1
 10
0.0
 20
0.0
 30
0.0
  0
VERTEX
  5
115
330
114
100
AcDbEntity
  8
Capa 1
 62
   250
420
  2301728
370
     9
100
AcDbVertex
100
AcDb2dVertex
 10
246.396484375
 20
574.7587890625
 30
0.0
  0
VERTEX
  5
116
330
114
100
AcDbEntity
  8
Capa 1
 62
   250
420
  2301728
370
     9
100
AcDbVertex
100
AcDb2dVertex
 10
303.14892578125
 20
530.77685546875
 30
0.0
  0
SEQEND
  5
117
330
114
100
AcDbEntity
  8
Capa 1
370
     9
  0
SPLINE
  5
118
330
E9
100
AcDbEntity
  8
Capa 1
 62
   250
420
  2301728
370
     9
100
AcDbSpline
210
0.0
220
0.0
230
1.0
 70
     8
 71
     3
 72
    11
 73
     7
 74
     0
 42
0.0000000001
 43
0.0000000001
 40
0.0
 40
0.0
 40
0.0
 40
0.0
 40
1.0
 40
1.0
 40
1.0
 40
2.0
 40
2.0
 40
2.0
 40
2.0
 10
325.33056640625
 20
527.64990234375
 30
0.0
 10
318.33056640625
 20
527.64990234375
 30
0.0
 10
312.66064453125
 20
521.9755859375
 30
0.0
 10
312.66064453125
 20
514.9755859375
 30
0.0
 10
312.66064453125
 20
507.9755859375
 30
0.0
 10
318.33056640625
 20
502.3017578125
 30
0.0
 10
325.33056640625
 20
502.3017578125
 30
0.0
  0
SPLINE
  5
119
330
E9
100
AcDbEntity
  8
Capa 1
 62
   250
420
  2301728
370
     9
100
AcDbSpline
210
0.0
220
0.0
230
1.0
 70
     8
 71
     3
 72
    11
 73
     7
 74
     0
 42
0.0000000001
 43
0.0000000001
 40
0.0
 40
0.0
 40
0.0
 40
0.0
 40
1.0
 40
1.0
 40
1.0
 40
2.0
 40
2.0
 40
2.0
 40
2.0
 10
325.33056640625
 20
502.3017578125
 30
0.0
 10
332.33056640625
 20
502.3017578125
 30
0.0
 10
338.00341796875
 20
507.9755859375
 30
0.0
 10
338.00341796875
 20
514.9755859375
 30
0.0
 10
338.00341796875
 20
521.9755859375
 30
0.0
 10
332.33056640625
 20
527.64990234375
 30
0.0
 10
325.33056640625
 20
527.64990234375
 30
0.0
  0
SPLINE
  5
11A
330
E9
100
AcDbEntity
  8
Capa 1
 62
   250
420
  2301728
370
     9
100
AcDbSpline
210
0.0
220
0.0
230
1.0
 70
     8
 71
     3
 72
     8
 73
     4
 74
     0
 42
0.0000000001
 43
0.0000000001
 40
0.0
 40
0.0
 40
0.0
 40
0.0
 40
1.0
 40
1.0
 40
1.0
 40
1.0
 10
406.69580078125
 20
447.48779296875
 30
0.0
 10
409.91259765625
 20
447.48779296875
 30
0.0
 10
412.51904296875
 20
450.0927734375
 30
0.0
 10
412.51904296875
 20
453.3095703125
 30
0.0
  0
SPLINE
  5
11B
330
E9
100
AcDbEntity
  8
Capa 1
 62
   250
420
  2301728
370
     9
100
AcDbSpline
210
0.0
220
0.0
230
1.0
 70
     8
 71
     3
 72
     8
 73
     4
 74
     0
 42
0.0000000001
 43
0.0000000001
 40
0.0
 40
0.0
 40
0.0
 40
0.0
 40
1.0
 40
1.0
 40
1.0
 40
1.0
 10
406.69580078125
 20
444.40478515625
 30
0.0
 10
411.61767578125
 20
444.40478515625
 30
0.0
 10
415.60107421875
 20
448.3896484375
 30
0.0
 10
415.60107421875
 20
453.3095703125
 30
0.0
  0
SPLINE
  5
11C
330
E9
100
AcDbEntity
  8
Capa 1
 62
   250
420
  2301728
370
     9
100
AcDbSpline
210
0.0
220
0.0
230
1.0
 70
     8
 71
     3
 72
     8
 73
     4
 74
     0
 42
0.0000000001
 43
0.0000000001
 40
0.0
 40
0.0
 40
0.0
 40
0.0
 40
1.0
 40
1.0
 40
1.0
 40
1.0
 10
415.60107421875
 20
576.6416015625
 30
0.0
 10
415.60107421875
 20
581.5576171875
 30
0.0
 10
411.61767578125
 20
585.5498046875
 30
0.0
 10
406.69580078125
 20
585.5498046875
 30
0.0
  0
SPLINE
  5
11D
330
E9
100
AcDbEntity
  8
Capa 1
 62
   250
420
  2301728
370
     9
100
AcDbSpline
210
0.0
220
0.0
230
1.0
 70
     8
 71
     3
 72
     8
 73
     4
 74
     0
 42
0.0000000001
 43
0.0000000001
 40
0.0
 40
0.0
 40
0.0
 40
0.0
 40
1.0
 40
1.0
 40
1.0
 40
1.0
 10
412.51904296875
 20
576.6416015625
 30
0.0
 10
412.51904296875
 20
579.85888671875
 30
0.0
 10
409.91259765625
 20
582.4638671875
 30
0.0
 10
406.69580078125
 20
582.4638671875
 30
0.0
  0
POLYLINE
  5
11E
330
E9
100
AcDbEntity
  8
Capa 1
 62
   250
420
  2301728
370
     9
100
AcDb2dPolyline
 66
     1
 10
0.0
 20
0.0
 30
0.0
  0
VERTEX
  5
11F
330
11E
100
AcDbEntity
  8
Capa 1
 62
   250
420
  2301728
370
     9
100
AcDbVertex
100
AcDb2dVertex
 10
415.60107421875
 20
453.3095703125
 30
0.0
  0
VERTEX
  5
120
330
11E
100
AcDbEntity
  8
Capa 1
 62
   250
420
  2301728
370
     9
100
AcDbVertex
100
AcDb2dVertex
 10
415.60107421875
 20
576.6416015625
 30
0.0
  0
SEQEND
  5
121
330
11E
100
AcDbEntity
  8
Capa 1
370
     9
  0
POLYLINE
  5
122
330
E9
100
AcDbEntity
  8
Capa 1
 62
   250
420
  2301728
370
     9
100
AcDb2dPolyline
 66
     1
 10
0.0
 20
0.0
 30
0.0
  0
VERTEX
  5
123
330
122
100
AcDbEntity
  8
Capa 1
 62
   250
420
  2301728
370
     9
100
AcDbVertex
100
AcDb2dVertex
 10
412.51904296875
 20
453.3095703125
 30
0.0
  0
VERTEX
  5
124
330
122
100
AcDbEntity
  8
Capa 1
 62
   250
420
  2301728
370
     9
100
AcDbVertex
100
AcDb2dVertex
 10
412.51904296875
 20
576.6416015625
 30
0.0
  0
SEQEND
  5
125
330
122
100
AcDbEntity
  8
Capa 1
370
     9
  0
POLYLINE
  5
126
330
E9
100
AcDbEntity
  8
Capa 1
 62
   250
420
  2301728
370
     9
100
AcDb2dPolyline
 66
     1
 10
0.0
 20
0.0
 30
0.0
  0
VERTEX
  5
127
330
126
100
AcDbEntity
  8
Capa 1
 62
   250
420
  2301728
370
     9
100
AcDbVertex
100
AcDb2dVertex
 10
325.33056640625
 20
582.4638671875
 30
0.0
  0
VERTEX
  5
128
330
126
100
AcDbEntity
  8
Capa 1
 62
   250
420
  2301728
370
     9
100
AcDbVertex
100
AcDb2dVertex
 10
406.69580078125
 20
582.4638671875
 30
0.0
  0
SEQEND
  5
129
330
126
100
AcDbEntity
  8
Capa 1
370
     9
  0
POLYLINE
  5
12A
330
E9
100
AcDbEntity
  8
Capa 1
 62
   250
420
  2301728
370
     9
100
AcDb2dPolyline
 66
     1
 10
0.0
 20
0.0
 30
0.0
  0
VERTEX
  5
12B
330
12A
100
AcDbEntity
  8
Capa 1
 62
   250
420
  2301728
370
     9
100
AcDbVertex
100
AcDb2dVertex
 10
325.33056640625
 20
585.5498046875
 30
0.0
  0
VERTEX
  5
12C
330
12A
100
AcDbEntity
  8
Capa 1
 62
   250
420
  2301728
370
     9
100
AcDbVertex
100
AcDb2dVertex
 10
406.69580078125
 20
585.5498046875
 30
0.0
  0
SEQEND
  5
12D
330
12A
100
AcDbEntity
  8
Capa 1
370
     9
  0
POLYLINE
  5
12E
330
E9
100
AcDbEntity
  8
Capa 1
 62
   250
420
  2301728
370
     9
100
AcDb2dPolyline
 66
     1
 10
0.0
 20
0.0
 30
0.0
  0
VERTEX
  5
12F
330
12E
100
AcDbEntity
  8
Capa 1
 62
   250
420
  2301728
370
     9
100
AcDbVertex
100
AcDb2dVertex
 10
325.33056640625
 20
444.40478515625
 30
0.0
  0
VERTEX
  5
130
330
12E
100
AcDbEntity
  8
Capa 1
 62
   250
420
  2301728
370
     9
100
AcDbVertex
100
AcDb2dVertex
 10
406.69580078125
 20
444.40478515625
 30
0.0
  0
SEQEND
  5
131
330
12E
100
AcDbEntity
  8
Capa 1
370
     9
  0
POLYLINE
  5
132
330
E9
100
AcDbEntity
  8
Capa 1
 62
   250
420
  2301728
370
     9
100
AcDb2dPolyline
 66
     1
 10
0.0
 20
0.0
 30
0.0
  0
VERTEX
  5
133
330
132
100
AcDbEntity
  8
Capa 1
 62
   250
420
  2301728
370
     9
100
AcDbVertex
100
AcDb2dVertex
 10
325.33056640625
 20
447.48779296875
 30
0.0
  0
VERTEX
  5
134
330
132
100
AcDbEntity
  8
Capa 1
 62
   250
420
  2301728
370
     9
100
AcDbVertex
100
AcDb2dVertex
 10
406.69580078125
 20
447.48779296875
 30
0.0
  0
SEQEND
  5
135
330
132
100
AcDbEntity
  8
Capa 1
370
     9
  0
POLYLINE
  5
136
330
E9
100
AcDbEntity
  8
Capa 1
 62
   250
420
  2301728
370
     9
100
AcDb2dPolyline
 66
     1
 10
0.0
 20
0.0
 30
0.0
  0
VERTEX
  5
137
330
136
100
AcDbEntity
  8
Capa 1
 62
   250
420
  2301728
370
     9
100
AcDbVertex
100
AcDb2dVertex
 10
404.26904296875
 20
455.19287109375
 30
0.0
  0
VERTEX
  5
138
330
136
100
AcDbEntity
  8
Capa 1
 62
   250
420
  2301728
370
     9
100
AcDbVertex
100
AcDb2dVertex
 10
347.51513671875
 20
499.1748046875
 30
0.0
  0
SEQEND
  5
139
330
136
100
AcDbEntity
  8
Capa 1
370
     9
  0
POLYLINE
  5
13A
330
E9
100
AcDbEntity
  8
Capa 1
 62
   250
420
  2301728
370
     9
100
AcDb2dPolyline
 66
     1
 10
0.0
 20
0.0
 30
0.0
  0
VERTEX
  5
13B
330
13A
100
AcDbEntity
  8
Capa 1
 62
   250
420
  2301728
370
     9
100
AcDbVertex
100
AcDb2dVertex
 10
404.26904296875
 20
574.7587890625
 30
0.0
  0
VERTEX
  5
13C
330
13A
100
AcDbEntity
  8
Capa 1
 62
   250
420
  2301728
370
     9
100
AcDbVertex
100
AcDb2dVertex
 10
347.51513671875
 20
530.77685546875
 30
0.0
  0
SEQEND
  5
13D
330
13A
100
AcDbEntity
  8
Capa 1
370
     9
  0
ENDBLK
  5
EC
330
E9
100
AcDbEntity
  8
0
100
AcDbBlockEnd
  0
BLOCK
  5
1E8
330
1E6
100
AcDbEntity
  8
0
100
AcDbBlockBegin
  2
block 4
 70
     0
 71
     0
 10
0.0
 20
0.0
 30
0.0
  3
block 4
  1

  0
POLYLINE
  5
1EA
330
1E6
100
AcDbEntity
  8
Capa 1
370
     0
100
AcDb2dPolyline
 66
     1
 10
0.0
 20
0.0
 30
0.0
  0
VERTEX
  5
1EB
330
1EA
100
AcDbEntity
  8
Capa 1
370
     0
100
AcDbVertex
100
AcDb2dVertex
 10
114.28076171875
 20
436.02001953125
 30
0.0
  0
VERTEX
  5
1EC
330
1EA
100
AcDbEntity
  8
Capa 1
370
     0
100
AcDbVertex
100
AcDb2dVertex
 10
425.66357421875
 20
436.02001953125
 30
0.0
  0
VERTEX
  5
1ED
330
1EA
100
AcDbEntity
  8
Capa 1
370
     0
100
AcDbVertex
100
AcDb2dVertex
 10
425.66357421875
 20
686.4580078125
 30
0.0
  0
VERTEX
  5
1EE
330
1EA
100
AcDbEntity
  8
Capa 1
370
     0
100
AcDbVertex
100
AcDb2dVertex
 10
114.28076171875
 20
686.4580078125
 30
0.0
  0
VERTEX
  5
1EF
330
1EA
100
AcDbEntity
  8
Capa 1
370
     0
100
AcDbVertex
100
AcDb2dVertex
 10
114.28076171875
 20
436.02001953125
 30
0.0
  0
SEQEND
  5
1F0
330
1EA
100
AcDbEntity
  8
Capa 1
370
     0
  0
SPLINE
  5
1F1
330
1E6
100
AcDbEntity
  8
Capa 1
 62
   250
420
  2301728
370
     9
100
AcDbSpline
210
0.0
220
0.0
230
1.0
 70
     8
 71
     3
 72
     8
 73
     4
 74
     0
 42
0.0000000001
 43
0.0000000001
 40
0.0
 40
0.0
 40
0.0
 40
0.0
 40
1.0
 40
1.0
 40
1.0
 40
1.0
 10
241.22705078125
 20
453.31005859375
 30
0.0
 10
241.22705078125
 20
451.7939453125
 30
0.0
 10
242.451171875
 20
450.57080078125
 30
0.0
 10
243.966796875
 20
450.57080078125
 30
0.0
  0
SPLINE
  5
1F2
330
1E6
100
AcDbEntity
  8
Capa 1
 62
   250
420
  2301728
370
     9
100
AcDbSpline
210
0.0
220
0.0
230
1.0
 70
     8
 71
     3
 72
     8
 73
     4
 74
     0
 42
0.0000000001
 43
0.0000000001
 40
0.0
 40
0.0
 40
0.0
 40
0.0
 40
1.0
 40
1.0
 40
1.0
 40
1.0
 10
243.966796875
 20
579.3798828125
 30
0.0
 10
242.451171875
 20
579.3798828125
 30
0.0
 10
241.22705078125
 20
578.15673828125
 30
0.0
 10
241.22705078125
 20
576.6396484375
 30
0.0
  0
POLYLINE
  5
1F3
330
1E6
100
AcDbEntity
  8
Capa 1
 62
   250
420
  2301728
370
     9
100
AcDb2dPolyline
 66
     1
 10
0.0
 20
0.0
 30
0.0
  0
VERTEX
  5
1F4
330
1F3
100
AcDbEntity
  8
Capa 1
 62
   250
420
  2301728
370
     9
100
AcDbVertex
100
AcDb2dVertex
 10
325.33447265625
 20
579.3798828125
 30
0.0
  0
VERTEX
  5
1F5
330
1F3
100
AcDbEntity
  8
Capa 1
 62
   250
420
  2301728
370
     9
100
AcDbVertex
100
AcDb2dVertex
 10
243.966796875
 20
579.3798828125
 30
0.0
  0
SEQEND
  5
1F6
330
1F3
100
AcDbEntity
  8
Capa 1
370
     9
  0
SPLINE
  5
1F7
330
1E6
100
AcDbEntity
  8
Capa 1
 62
   250
420
  2301728
370
     9
100
AcDbSpline
210
0.0
220
0.0
230
1.0
 70
     8
 71
     3
 72
    14
 73
    10
 74
     0
 42
0.0000000001
 43
0.0000000001
 40
0.0
 40
0.0
 40
0.0
 40
0.0
 40
1.0
 40
1.0
 40
1.0
 40
2.0
 40
2.0
 40
2.0
 40
3.0
 40
3.0
 40
3.0
 40
3.0
 10
325.33447265625
 20
566.23486328125
 30
0.0
 10
325.33447265625
 20
566.23486328125
 30
0.0
 10
325.33447265625
 20
566.23486328125
 30
0.0
 10
325.33447265625
 20
566.23486328125
 30
0.0
 10
323.44091796875
 20
566.23486328125
 30
0.0
 10
321.90576171875
 20
567.0107421875
 30
0.0
 10
321.90576171875
 20
567.9716796875
 30
0.0
 10
321.90576171875
 20
568.9287109375
 30
0.0
 10
323.44091796875
 20
569.7080078125
 30
0.0
 10
325.33447265625
 20
569.7080078125
 30
0.0
  0
POLYLINE
  5
1F8
330
1E6
100
AcDbEntity
  8
Capa 1
 62
   250
420
  2301728
370
     9
100
AcDb2dPolyline
 66
     1
 10
0.0
 20
0.0
 30
0.0
  0
VERTEX
  5
1F9
330
1F8
100
AcDbEntity
  8
Capa 1
 62
   250
420
  2301728
370
     9
100
AcDbVertex
100
AcDb2dVertex
 10
325.33447265625
 20
450.57080078125
 30
0.0
  0
VERTEX
  5
1FA
330
1F8
100
AcDbEntity
  8
Capa 1
 62
   250
420
  2301728
370
     9
100
AcDbVertex
100
AcDb2dVertex
 10
243.966796875
 20
450.57080078125
 30
0.0
  0
SEQEND
  5
1FB
330
1F8
100
AcDbEntity
  8
Capa 1
370
     9
  0
POLYLINE
  5
1FC
330
1E6
100
AcDbEntity
  8
Capa 1
 62
   250
420
  2301728
370
     9
100
AcDb2dPolyline
 66
     1
 10
0.0
 20
0.0
 30
0.0
  0
VERTEX
  5
1FD
330
1FC
100
AcDbEntity
  8
Capa 1
 62
   250
420
  2301728
370
     9
100
AcDbVertex
100
AcDb2dVertex
 10
241.22705078125
 20
453.31005859375
 30
0.0
  0
VERTEX
  5
1FE
330
1FC
100
AcDbEntity
  8
Capa 1
 62
   250
420
  2301728
370
     9
100
AcDbVertex
100
AcDb2dVertex
 10
241.22705078125
 20
576.6396484375
 30
0.0
  0
SEQEND
  5
1FF
330
1FC
100
AcDbEntity
  8
Capa 1
370
     9
  0
SPLINE
  5
200
330
1E6
100
AcDbEntity
  8
Capa 1
 62
   250
420
  2301728
370
     9
100
AcDbSpline
210
0.0
220
0.0
230
1.0
 70
     8
 71
     3
 72
     8
 73
     4
 74
     0
 42
0.0000000001
 43
0.0000000001
 40
0.0
 40
0.0
 40
0.0
 40
0.0
 40
1.0
 40
1.0
 40
1.0
 40
1.0
 10
231.97705078125
 20
453.31005859375
 30
0.0
 10
231.97705078125
 20
446.68896484375
 30
0.0
 10
237.34619140625
 20
441.31689453125
 30
0.0
 10
243.966796875
 20
441.31689453125
 30
0.0
  0
SPLINE
  5
201
330
1E6
100
AcDbEntity
  8
Capa 1
 62
   250
420
  2301728
370
     9
100
AcDbSpline
210
0.0
220
0.0
230
1.0
 70
     8
 71
     3
 72
     8
 73
     4
 74
     0
 42
0.0000000001
 43
0.0000000001
 40
0.0
 40
0.0
 40
0.0
 40
0.0
 40
1.0
 40
1.0
 40
1.0
 40
1.0
 10
243.966796875
 20
588.6298828125
 30
0.0
 10
237.34619140625
 20
588.6298828125
 30
0.0
 10
231.97705078125
 20
583.2626953125
 30
0.0
 10
231.97705078125
 20
576.6396484375
 30
0.0
  0
POLYLINE
  5
202
330
1E6
100
AcDbEntity
  8
Capa 1
 62
   250
420
  2301728
370
     9
100
AcDb2dPolyline
 66
     1
 10
0.0
 20
0.0
 30
0.0
  0
VERTEX
  5
203
330
202
100
AcDbEntity
  8
Capa 1
 62
   250
420
  2301728
370
     9
100
AcDbVertex
100
AcDb2dVertex
 10
231.97705078125
 20
514.9716796875
 30
0.0
  0
VERTEX
  5
204
330
202
100
AcDbEntity
  8
Capa 1
 62
   250
420
  2301728
370
     9
100
AcDbVertex
100
AcDb2dVertex
 10
231.97705078125
 20
576.6396484375
 30
0.0
  0
SEQEND
  5
205
330
202
100
AcDbEntity
  8
Capa 1
370
     9
  0
SPLINE
  5
206
330
1E6
100
AcDbEntity
  8
Capa 1
 62
   250
420
  2301728
370
     9
100
AcDbSpline
210
0.0
220
0.0
230
1.0
 70
    11
 71
     3
 72
    17
 73
    13
 74
     0
 42
0.0000000001
 43
0.0000000001
 40
0.0
 40
0.0
 40
0.0
 40
0.0
 40
1.0
 40
1.0
 40
1.0
 40
2.0
 40
2.0
 40
2.0
 40
3.0
 40
3.0
 40
3.0
 40
4.0
 40
4.0
 40
4.0
 40
4.0
 10
325.33447265625
 20
522.85498046875
 30
0.0
 10
320.97998046875
 20
522.85498046875
 30
0.0
 10
317.45263671875
 20
519.32666015625
 30
0.0
 10
317.45263671875
 20
514.9716796875
 30
0.0
 10
317.45263671875
 20
510.6220703125
 30
0.0
 10
320.97998046875
 20
507.0947265625
 30
0.0
 10
325.33447265625
 20
507.0947265625
 30
0.0
 10
329.68212890625
 20
507.0947265625
 30
0.0
 10
333.20947265625
 20
510.6220703125
 30
0.0
 10
333.20947265625
 20
514.9716796875
 30
0.0
 10
333.20947265625
 20
519.32666015625
 30
0.0
 10
329.68212890625
 20
522.85498046875
 30
0.0
 10
325.33447265625
 20
522.85498046875
 30
0.0
  0
SPLINE
  5
207
330
1E6
100
AcDbEntity
  8
Capa 1
 62
   250
420
  2301728
370
     9
100
AcDbSpline
210
0.0
220
0.0
230
1.0
 70
     8
 71
     3
 72
    11
 73
     7
 74
     0
 42
0.0000000001
 43
0.0000000001
 40
0.0
 40
0.0
 40
0.0
 40
0.0
 40
1.0
 40
1.0
 40
1.0
 40
2.0
 40
2.0
 40
2.0
 40
2.0
 10
325.33447265625
 20
566.23486328125
 30
0.0
 10
327.22705078125
 20
566.23486328125
 30
0.0
 10
328.75830078125
 20
567.0107421875
 30
0.0
 10
328.75830078125
 20
567.9716796875
 30
0.0
 10
328.75830078125
 20
568.9287109375
 30
0.0
 10
327.22705078125
 20
569.7080078125
 30
0.0
 10
325.33447265625
 20
569.7080078125
 30
0.0
  0
POLYLINE
  5
208
330
1E6
100
AcDbEntity
  8
Capa 1
 62
   250
420
  2301728
370
     9
100
AcDb2dPolyline
 66
     1
 10
0.0
 20
0.0
 30
0.0
  0
VERTEX
  5
209
330
208
100
AcDbEntity
  8
Capa 1
 62
   250
420
  2301728
370
     9
100
AcDbVertex
100
AcDb2dVertex
 10
231.97705078125
 20
453.31005859375
 30
0.0
  0
VERTEX
  5
20A
330
208
100
AcDbEntity
  8
Capa 1
 62
   250
420
  2301728
370
     9
100
AcDbVertex
100
AcDb2dVertex
 10
231.97705078125
 20
514.9716796875
 30
0.0
  0
SEQEND
  5
20B
330
208
100
AcDbEntity
  8
Capa 1
370
     9
  0
SPLINE
  5
20C
330
1E6
100
AcDbEntity
  8
Capa 1
 62
   250
420
  2301728
370
     9
100
AcDbSpline
210
0.0
220
0.0
230
1.0
 70
     8
 71
     3
 72
     8
 73
     4
 74
     0
 42
0.0000000001
 43
0.0000000001
 40
0.0
 40
0.0
 40
0.0
 40
0.0
 40
1.0
 40
1.0
 40
1.0
 40
1.0
 10
406.69482421875
 20
450.57080078125
 30
0.0
 10
408.21337890625
 20
450.57080078125
 30
0.0
 10
409.43798828125
 20
451.7939453125
 30
0.0
 10
409.43798828125
 20
453.31005859375
 30
0.0
  0
SPLINE
  5
20D
330
1E6
100
AcDbEntity
  8
Capa 1
 62
   250
420
  2301728
370
     9
100
AcDbSpline
210
0.0
220
0.0
230
1.0
 70
     8
 71
     3
 72
     8
 73
     4
 74
     0
 42
0.0000000001
 43
0.0000000001
 40
0.0
 40
0.0
 40
0.0
 40
0.0
 40
1.0
 40
1.0
 40
1.0
 40
1.0
 10
406.69482421875
 20
441.31689453125
 30
0.0
 10
413.31982421875
 20
441.31689453125
 30
0.0
 10
418.68603515625
 20
446.68896484375
 30
0.0
 10
418.68603515625
 20
453.31005859375
 30
0.0
  0
SPLINE
  5
20E
330
1E6
100
AcDbEntity
  8
Capa 1
 62
   250
420
  2301728
370
     9
100
AcDbSpline
210
0.0
220
0.0
230
1.0
 70
     8
 71
     3
 72
     8
 73
     4
 74
     0
 42
0.0000000001
 43
0.0000000001
 40
0.0
 40
0.0
 40
0.0
 40
0.0
 40
1.0
 40
1.0
 40
1.0
 40
1.0
 10
409.43798828125
 20
576.6396484375
 30
0.0
 10
409.43798828125
 20
578.15673828125
 30
0.0
 10
408.21337890625
 20
579.3798828125
 30
0.0
 10
406.69482421875
 20
579.3798828125
 30
0.0
  0
SPLINE
  5
20F
330
1E6
100
AcDbEntity
  8
Capa 1
 62
   250
420
  2301728
370
     9
100
AcDbSpline
210
0.0
220
0.0
230
1.0
 70
     8
 71
     3
 72
     8
 73
     4
 74
     0
 42
0.0000000001
 43
0.0000000001
 40
0.0
 40
0.0
 40
0.0
 40
0.0
 40
1.0
 40
1.0
 40
1.0
 40
1.0
 10
418.68603515625
 20
576.6396484375
 30
0.0
 10
418.68603515625
 20
583.2626953125
 30
0.0
 10
413.31982421875
 20
588.6298828125
 30
0.0
 10
406.69482421875
 20
588.6298828125
 30
0.0
  0
POLYLINE
  5
210
330
1E6
100
AcDbEntity
  8
Capa 1
 62
   250
420
  2301728
370
     9
100
AcDb2dPolyline
 66
     1
 10
0.0
 20
0.0
 30
0.0
  0
VERTEX
  5
211
330
210
100
AcDbEntity
  8
Capa 1
 62
   250
420
  2301728
370
     9
100
AcDbVertex
100
AcDb2dVertex
 10
418.68603515625
 20
453.31005859375
 30
0.0
  0
VERTEX
  5
212
330
210
100
AcDbEntity
  8
Capa 1
 62
   250
420
  2301728
370
     9
100
AcDbVertex
100
AcDb2dVertex
 10
418.68603515625
 20
576.6396484375
 30
0.0
  0
SEQEND
  5
213
330
210
100
AcDbEntity
  8
Capa 1
370
     9
  0
POLYLINE
  5
214
330
1E6
100
AcDbEntity
  8
Capa 1
 62
   250
420
  2301728
370
     9
100
AcDb2dPolyline
 66
     1
 10
0.0
 20
0.0
 30
0.0
  0
VERTEX
  5
215
330
214
100
AcDbEntity
  8
Capa 1
 62
   250
420
  2301728
370
     9
100
AcDbVertex
100
AcDb2dVertex
 10
409.43798828125
 20
453.31005859375
 30
0.0
  0
VERTEX
  5
216
330
214
100
AcDbEntity
  8
Capa 1
 62
   250
420
  2301728
370
     9
100
AcDbVertex
100
AcDb2dVertex
 10
409.43798828125
 20
576.6396484375
 30
0.0
  0
SEQEND
  5
217
330
214
100
AcDbEntity
  8
Capa 1
370
     9
  0
POLYLINE
  5
218
330
1E6
100
AcDbEntity
  8
Capa 1
 62
   250
420
  2301728
370
     9
100
AcDb2dPolyline
 66
     1
 10
0.0
 20
0.0
 30
0.0
  0
VERTEX
  5
219
330
218
100
AcDbEntity
  8
Capa 1
 62
   250
420
  2301728
370
     9
100
AcDbVertex
100
AcDb2dVertex
 10
243.966796875
 20
441.31689453125
 30
0.0
  0
VERTEX
  5
21A
330
218
100
AcDbEntity
  8
Capa 1
 62
   250
420
  2301728
370
     9
100
AcDbVertex
100
AcDb2dVertex
 10
406.69482421875
 20
441.31689453125
 30
0.0
  0
SEQEND
  5
21B
330
218
100
AcDbEntity
  8
Capa 1
370
     9
  0
POLYLINE
  5
21C
330
1E6
100
AcDbEntity
  8
Capa 1
 62
   250
420
  2301728
370
     9
100
AcDb2dPolyline
 66
     1
 10
0.0
 20
0.0
 30
0.0
  0
VERTEX
  5
21D
330
21C
100
AcDbEntity
  8
Capa 1
 62
   250
420
  2301728
370
     9
100
AcDbVertex
100
AcDb2dVertex
 10
243.966796875
 20
588.6298828125
 30
0.0
  0
VERTEX
  5
21E
330
21C
100
AcDbEntity
  8
Capa 1
 62
   250
420
  2301728
370
     9
100
AcDbVertex
100
AcDb2dVertex
 10
406.69482421875
 20
588.6298828125
 30
0.0
  0
SEQEND
  5
21F
330
21C
100
AcDbEntity
  8
Capa 1
370
     9
  0
POLYLINE
  5
220
330
1E6
100
AcDbEntity
  8
Capa 1
 62
   250
420
  2301728
370
     9
100
AcDb2dPolyline
 66
     1
 10
0.0
 20
0.0
 30
0.0
  0
VERTEX
  5
221
330
220
100
AcDbEntity
  8
Capa 1
 62
   250
420
  2301728
370
     9
100
AcDbVertex
100
AcDb2dVertex
 10
325.33447265625
 20
450.57080078125
 30
0.0
  0
VERTEX
  5
222
330
220
100
AcDbEntity
  8
Capa 1
 62
   250
420
  2301728
370
     9
100
AcDbVertex
100
AcDb2dVertex
 10
406.69482421875
 20
450.57080078125
 30
0.0
  0
SEQEND
  5
223
330
220
100
AcDbEntity
  8
Capa 1
370
     9
  0
POLYLINE
  5
224
330
1E6
100
AcDbEntity
  8
Capa 1
 62
   250
420
  2301728
370
     9
100
AcDb2dPolyline
 66
     1
 10
0.0
 20
0.0
 30
0.0
  0
VERTEX
  5
225
330
224
100
AcDbEntity
  8
Capa 1
 62
   250
420
  2301728
370
     9
100
AcDbVertex
100
AcDb2dVertex
 10
325.33447265625
 20
579.3798828125
 30
0.0
  0
VERTEX
  5
226
330
224
100
AcDbEntity
  8
Capa 1
 62
   250
420
  2301728
370
     9
100
AcDbVertex
100
AcDb2dVertex
 10
406.69482421875
 20
579.3798828125
 30
0.0
  0
SEQEND
  5
227
330
224
100
AcDbEntity
  8
Capa 1
370
     9
  0
POLYLINE
  5
228
330
1E6
100
AcDbEntity
  8
Capa 1
  6
AI-Linetype-2
 62
   250
420
  2301728
370
     9
100
AcDb2dPolyline
 66
     1
 10
0.0
 20
0.0
 30
0.0
  0
VERTEX
  5
229
330
228
100
AcDbEntity
  8
Capa 1
  6
AI-Linetype-2
 62
   250
420
  2301728
370
     9
100
AcDbVertex
100
AcDb2dVertex
 10
226.498046875
 20
514.9755859375
 30
0.0
  0
VERTEX
  5
22A
330
228
100
AcDbEntity
  8
Capa 1
  6
AI-Linetype-2
 62
   250
420
  2301728
370
     9
100
AcDbVertex
100
AcDb2dVertex
 10
425.13916015625
 20
514.9755859375
 30
0.0
  0
SEQEND
  5
22B
330
228
100
AcDbEntity
  8
Capa 1
  6
AI-Linetype-2
370
     9
  0
SPLINE
  5
22D
330
1E6
100
AcDbEntity
  8
Capa 1
  6
AI-Linetype-3
 62
   250
420
  2301728
370
     9
100
AcDbSpline
210
0.0
220
0.0
230
1.0
 70
     8
 71
     3
 72
     8
 73
     4
 74
     0
 42
0.0000000001
 43
0.0000000001
 40
0.0
 40
0.0
 40
0.0
 40
0.0
 40
1.0
 40
1.0
 40
1.0
 40
1.0
 10
338.65673828125
 20
495.0322265625
 30
0.0
 10
342.56591796875
 20
497.6494140625
 30
0.0
 10
345.66455078125
 20
501.39111328125
 30
0.0
 10
347.49267578125
 20
505.7939453125
 30
0.0
  0
SPLINE
  5
22F
330
1E6
100
AcDbEntity
  8
Capa 1
  6
AI-Linetype-4
 62
   250
420
  2301728
370
     9
100
AcDbSpline
210
0.0
220
0.0
230
1.0
 70
     8
 71
     3
 72
     8
 73
     4
 74
     0
 42
0.0000000001
 43
0.0000000001
 40
0.0
 40
0.0
 40
0.0
 40
0.0
 40
1.0
 40
1.0
 40
1.0
 40
1.0
 10
345.27294921875
 20
528.2978515625
 30
0.0
 10
342.65673828125
 20
532.2119140625
 30
0.0
 10
338.91455078125
 20
535.31005859375
 30
0.0
 10
334.51123046875
 20
537.1376953125
 30
0.0
  0
SPLINE
  5
231
330
1E6
100
AcDbEntity
  8
Capa 1
 62
   250
420
  2301728
370
     9
100
AcDbSpline
210
0.0
220
0.0
230
1.0
 70
     8
 71
     3
 72
     8
 73
     4
 74
     0
 42
0.0000000001
 43
0.0000000001
 40
0.0
 40
0.0
 40
0.0
 40
0.0
 40
1.0
 40
1.0
 40
1.0
 40
1.0
 10
330.01025390625
 20
538.4970703125
 30
0.0
 10
328.49951171875
 20
538.79833984375
 30
0.0
 10
326.93408203125
 20
538.9560546875
 30
0.0
 10
325.33447265625
 20
538.9560546875
 30
0.0
  0
SPLINE
  5
232
330
1E6
100
AcDbEntity
  8
Capa 1
 62
   250
420
  2301728
370
     9
100
AcDbSpline
210
0.0
220
0.0
230
1.0
 70
     8
 71
     3
 72
    11
 73
     7
 74
     0
 42
0.0000000001
 43
0.0000000001
 40
0.0
 40
0.0
 40
0.0
 40
0.0
 40
1.0
 40
1.0
 40
1.0
 40
2.0
 40
2.0
 40
2.0
 40
2.0
 10
348.85498046875
 20
510.29638671875
 30
0.0
 10
349.15576171875
 20
511.80712890625
 30
0.0
 10
349.31396484375
 20
513.3720703125
 30
0.0
 10
349.31396484375
 20
514.97509765625
 30
0.0
 10
349.31396484375
 20
516.5751953125
 30
0.0
 10
349.15576171875
 20
518.14306640625
 30
0.0
 10
348.85498046875
 20
519.6552734375
 30
0.0
  0
SPLINE
  5
233
330
1E6
100
AcDbEntity
  8
Capa 1
 62
   250
420
  2301728
370
     9
100
AcDbSpline
210
0.0
220
0.0
230
1.0
 70
     8
 71
     3
 72
     8
 73
     4
 74
     0
 42
0.0000000001
 43
0.0000000001
 40
0.0
 40
0.0
 40
0.0
 40
0.0
 40
1.0
 40
1.0
 40
1.0
 40
1.0
 10
325.33447265625
 20
490.9912109375
 30
0.0
 10
326.93408203125
 20
490.9912109375
 30
0.0
 10
328.49951171875
 20
491.1533203125
 30
0.0
 10
330.01025390625
 20
491.4501953125
 30
0.0
  0
POLYLINE
  5
234
330
1E6
100
AcDbEntity
  8
Capa 1
  6
AI-Linetype-5
 62
   250
420
  2301728
370
     9
100
AcDb2dPolyline
 66
     1
 10
0.0
 20
0.0
 30
0.0
  0
VERTEX
  5
235
330
234
100
AcDbEntity
  8
Capa 1
  6
AI-Linetype-5
 62
   250
420
  2301728
370
     9
100
AcDbVertex
100
AcDb2dVertex
 10
325.33447265625
 20
436.5478515625
 30
0.0
  0
VERTEX
  5
236
330
234
100
AcDbEntity
  8
Capa 1
  6
AI-Linetype-5
 62
   250
420
  2301728
370
     9
100
AcDbVertex
100
AcDb2dVertex
 10
325.33447265625
 20
594.77783203125
 30
0.0
  0
SEQEND
  5
237
330
234
100
AcDbEntity
  8
Capa 1
  6
AI-Linetype-5
370
     9
  0
POLYLINE
  5
239
330
1E6
100
AcDbEntity
  8
Capa 1
  6
AI-Linetype-6
 62
   250
420
  2301728
370
     9
100
AcDb2dPolyline
 66
     1
 10
0.0
 20
0.0
 30
0.0
  0
VERTEX
  5
23A
330
239
100
AcDbEntity
  8
Capa 1
  6
AI-Linetype-6
 62
   250
420
  2301728
370
     9
100
AcDbVertex
100
AcDb2dVertex
 10
318.46044921875
 20
567.7724609375
 30
0.0
  0
VERTEX
  5
23B
330
239
100
AcDbEntity
  8
Capa 1
  6
AI-Linetype-6
 62
   250
420
  2301728
370
     9
100
AcDbVertex
100
AcDb2dVertex
 10
332.19091796875
 20
567.7724609375
 30
0.0
  0
SEQEND
  5
23C
330
239
100
AcDbEntity
  8
Capa 1
  6
AI-Linetype-6
370
     9
  0
SPLINE
  5
23E
330
1E6
100
AcDbEntity
  8
Capa 1
  6
AI-Linetype-7
 62
   250
420
  2301728
370
     9
100
AcDbSpline
210
0.0
220
0.0
230
1.0
 70
     8
 71
     3
 72
     8
 73
     4
 74
     0
 42
0.0000000001
 43
0.0000000001
 40
0.0
 40
0.0
 40
0.0
 40
0.0
 40
1.0
 40
1.0
 40
1.0
 40
1.0
 10
312.00732421875
 20
534.9150390625
 30
0.0
 10
308.09423828125
 20
532.2978515625
 30
0.0
 10
304.99560546875
 20
528.56005859375
 30
0.0
 10
303.17138671875
 20
524.15283203125
 30
0.0
  0
SPLINE
  5
240
330
1E6
100
AcDbEntity
  8
Capa 1
  6
AI-Linetype-8
 62
   250
420
  2301728
370
     9
100
AcDbSpline
210
0.0
220
0.0
230
1.0
 70
     8
 71
     3
 72
     8
 73
     4
 74
     0
 42
0.0000000001
 43
0.0000000001
 40
0.0
 40
0.0
 40
0.0
 40
0.0
 40
1.0
 40
1.0
 40
1.0
 40
1.0
 10
305.39013671875
 20
501.6494140625
 30
0.0
 10
308.00732421875
 20
497.7392578125
 30
0.0
 10
311.74951171875
 20
494.63720703125
 30
0.0
 10
316.15283203125
 20
492.8134765625
 30
0.0
  0
SPLINE
  5
242
330
1E6
100
AcDbEntity
  8
Capa 1
 62
   250
420
  2301728
370
     9
100
AcDbSpline
210
0.0
220
0.0
230
1.0
 70
     8
 71
     3
 72
     8
 73
     4
 74
     0
 42
0.0000000001
 43
0.0000000001
 40
0.0
 40
0.0
 40
0.0
 40
0.0
 40
1.0
 40
1.0
 40
1.0
 40
1.0
 10
320.65185546875
 20
491.4501953125
 30
0.0
 10
322.16162109375
 20
491.14892578125
 30
0.0
 10
323.72705078125
 20
490.9912109375
 30
0.0
 10
325.33447265625
 20
490.9912109375
 30
0.0
  0
SPLINE
  5
243
330
1E6
100
AcDbEntity
  8
Capa 1
 62
   250
420
  2301728
370
     9
100
AcDbSpline
210
0.0
220
0.0
230
1.0
 70
     8
 71
     3
 72
    11
 73
     7
 74
     0
 42
0.0000000001
 43
0.0000000001
 40
0.0
 40
0.0
 40
0.0
 40
0.0
 40
1.0
 40
1.0
 40
1.0
 40
2.0
 40
2.0
 40
2.0
 40
2.0
 10
301.80908203125
 20
519.6552734375
 30
0.0
 10
301.50830078125
 20
518.14208984375
 30
0.0
 10
301.35009765625
 20
516.5791015625
 30
0.0
 10
301.35009765625
 20
514.97607421875
 30
0.0
 10
301.35009765625
 20
513.3759765625
 30
0.0
 10
301.50830078125
 20
511.81005859375
 30
0.0
 10
301.80908203125
 20
510.2958984375
 30
0.0
  0
SPLINE
  5
244
330
1E6
100
AcDbEntity
  8
Capa 1
 62
   250
420
  2301728
370
     9
100
AcDbSpline
210
0.0
220
0.0
230
1.0
 70
     8
 71
     3
 72
     8
 73
     4
 74
     0
 42
0.0000000001
 43
0.0000000001
 40
0.0
 40
0.0
 40
0.0
 40
0.0
 40
1.0
 40
1.0
 40
1.0
 40
1.0
 10
325.33447265625
 20
538.9560546875
 30
0.0
 10
323.72705078125
 20
538.9560546875
 30
0.0
 10
322.16162109375
 20
538.7978515625
 30
0.0
 10
320.65185546875
 20
538.5009765625
 30
0.0
  0
ENDBLK
  5
1E9
330
1E6
100
AcDbEntity
  8
0
100
AcDbBlockEnd
  0
ENDSEC
  0
SECTION
  2
ENTITIES
  0
POLYLINE
  5
3C
330
1F
100
AcDbEntity
  8
Capa 1
 62
   250
420
  2301728
370
     9
100
AcDb2dPolyline
 66
     1
 10
0.0
 20
0.0
 30
0.0
  0
VERTEX
  5
3D
330
3C
100
AcDbEntity
  8
Capa 1
 62
   250
420
  2301728
370
     9
100
AcDbVertex
100
AcDb2dVertex
 10
326.79052734375
 20
277.6748046875
 30
0.0
  0
VERTEX
  5
3E
330
3C
100
AcDbEntity
  8
Capa 1
 62
   250
420
  2301728
370
     9
100
AcDbVertex
100
AcDb2dVertex
 10
302.22900390625
 20
277.6748046875
 30
0.0
  0
SEQEND
  5
3F
330
3C
100
AcDbEntity
  8
Capa 1
370
     9
  0
POLYLINE
  5
40
330
1F
100
AcDbEntity
  8
Capa 1
 62
   250
420
  2301728
370
     9
100
AcDb2dPolyline
 66
     1
 10
0.0
 20
0.0
 30
0.0
  0
VERTEX
  5
41
330
40
100
AcDbEntity
  8
Capa 1
 62
   250
420
  2301728
370
     9
100
AcDbVertex
100
AcDb2dVertex
 10
261.35595703125
 20
277.6748046875
 30
0.0
  0
VERTEX
  5
42
330
40
100
AcDbEntity
  8
Capa 1
 62
   250
420
  2301728
370
     9
100
AcDbVertex
100
AcDb2dVertex
 10
285.9169921875
 20
277.6748046875
 30
0.0
  0
SEQEND
  5
43
330
40
100
AcDbEntity
  8
Capa 1
370
     9
  0
POLYLINE
  5
44
330
1F
100
AcDbEntity
  8
Capa 1
 62
   250
420
  2301728
370
     9
100
AcDb2dPolyline
 66
     1
 10
0.0
 20
0.0
 30
0.0
  0
VERTEX
  5
45
330
44
100
AcDbEntity
  8
Capa 1
 62
   250
420
  2301728
370
     9
100
AcDbVertex
100
AcDb2dVertex
 10
330.89697265625
 20
293.1142578125
 30
0.0
  0
VERTEX
  5
46
330
44
100
AcDbEntity
  8
Capa 1
 62
   250
420
  2301728
370
     9
100
AcDbVertex
100
AcDb2dVertex
 10
330.89697265625
 20
275.3896484375
 30
0.0
  0
SEQEND
  5
47
330
44
100
AcDbEntity
  8
Capa 1
370
     9
  0
POLYLINE
  5
48
330
1F
100
AcDbEntity
  8
Capa 1
 62
   250
420
  2301728
370
     9
100
AcDb2dPolyline
 66
     1
 10
0.0
 20
0.0
 30
0.0
  0
VERTEX
  5
49
330
48
100
AcDbEntity
  8
Capa 1
 62
   250
420
  2301728
370
     9
100
AcDbVertex
100
AcDb2dVertex
 10
257.2431640625
 20
342.9599609375
 30
0.0
  0
VERTEX
  5
4A
330
48
100
AcDbEntity
  8
Capa 1
 62
   250
420
  2301728
370
     9
100
AcDbVertex
100
AcDb2dVertex
 10
257.2431640625
 20
275.3896484375
 30
0.0
  0
SEQEND
  5
4B
330
48
100
AcDbEntity
  8
Capa 1
370
     9
  0
POLYLINE
  5
4C
330
1F
100
AcDbEntity
  8
Capa 1
370
     0
100
AcDb2dPolyline
 66
     1
 10
0.0
 20
0.0
 30
0.0
  0
VERTEX
  5
4D
330
4C
100
AcDbEntity
  8
Capa 1
370
     0
100
AcDbVertex
100
AcDb2dVertex
 10
257.2431640625
 20
277.6748046875
 30
0.0
  0
VERTEX
  5
4E
330
4C
100
AcDbEntity
  8
Capa 1
370
     0
100
AcDbVertex
100
AcDb2dVertex
 10
261.35400390625
 20
276.9912109375
 30
0.0
  0
VERTEX
  5
4F
330
4C
100
AcDbEntity
  8
Capa 1
370
     0
100
AcDbVertex
100
AcDb2dVertex
 10
261.35400390625
 20
278.3583984375
 30
0.0
  0
VERTEX
  5
50
330
4C
100
AcDbEntity
  8
Capa 1
370
     0
100
AcDbVertex
100
AcDb2dVertex
 10
257.2431640625
 20
277.6748046875
 30
0.0
  0
SEQEND
  5
51
330
4C
100
AcDbEntity
  8
Capa 1
370
     0
  0
HATCH
  5
52
330
1F
100
AcDbEntity
  8
Capa 1
 62
   250
420
  2301728
100
AcDbHatch
 10
0.0
 20
0.0
 30
0.0
210
0.0
220
0.0
230
1.0
  2
SOLID
 70
     1
 71
     0
 91
        1
 92
        1
 93
        3
 72
     1
 10
257.2431640625
 20
277.6748046875
 11
261.35400390625
 21
276.9912109375
 72
     1
 10
261.35400390625
 20
276.9912109375
 11
261.35400390625
 21
278.3583984375
 72
     1
 10
261.35400390625
 20
278.3583984375
 11
257.2431640625
 21
277.6748046875
 97
        0
 75
     2
 76
     1
 98
        0
  0
POLYLINE
  5
53
330
1F
100
AcDbEntity
  8
Capa 1
 62
   250
420
  2301728
370
     9
100
AcDb2dPolyline
 66
     1
 10
0.0
 20
0.0
 30
0.0
  0
VERTEX
  5
54
330
53
100
AcDbEntity
  8
Capa 1
 62
   250
420
  2301728
370
     9
100
AcDbVertex
100
AcDb2dVertex
 10
261.3544921875
 20
278.3583984375
 30
0.0
  0
VERTEX
  5
55
330
53
100
AcDbEntity
  8
Capa 1
 62
   250
420
  2301728
370
     9
100
AcDbVertex
100
AcDb2dVertex
 10
261.3544921875
 20
276.9892578125
 30
0.0
  0
VERTEX
  5
56
330
53
100
AcDbEntity
  8
Capa 1
 62
   250
420
  2301728
370
     9
100
AcDbVertex
100
AcDb2dVertex
 10
257.24365234375
 20
277.6748046875
 30
0.0
  0
VERTEX
  5
57
330
53
100
AcDbEntity
  8
Capa 1
 62
   250
420
  2301728
370
     9
100
AcDbVertex
100
AcDb2dVertex
 10
261.3544921875
 20
278.3583984375
 30
0.0
  0
SEQEND
  5
58
330
53
100
AcDbEntity
  8
Capa 1
370
     9
  0
POLYLINE
  5
59
330
1F
100
AcDbEntity
  8
Capa 1
370
     0
100
AcDb2dPolyline
 66
     1
 10
0.0
 20
0.0
 30
0.0
  0
VERTEX
  5
5A
330
59
100
AcDbEntity
  8
Capa 1
370
     0
100
AcDbVertex
100
AcDb2dVertex
 10
326.78955078125
 20
276.9912109375
 30
0.0
  0
VERTEX
  5
5B
330
59
100
AcDbEntity
  8
Capa 1
370
     0
100
AcDbVertex
100
AcDb2dVertex
 10
330.89697265625
 20
277.6728515625
 30
0.0
  0
VERTEX
  5
5C
330
59
100
AcDbEntity
  8
Capa 1
370
     0
100
AcDbVertex
100
AcDb2dVertex
 10
326.78955078125
 20
278.3583984375
 30
0.0
  0
VERTEX
  5
5D
330
59
100
AcDbEntity
  8
Capa 1
370
     0
100
AcDbVertex
100
AcDb2dVertex
 10
326.78955078125
 20
276.9912109375
 30
0.0
  0
SEQEND
  5
5E
330
59
100
AcDbEntity
  8
Capa 1
370
     0
  0
HATCH
  5
5F
330
1F
100
AcDbEntity
  8
Capa 1
 62
   250
420
  2301728
100
AcDbHatch
 10
0.0
 20
0.0
 30
0.0
210
0.0
220
0.0
230
1.0
  2
SOLID
 70
     1
 71
     0
 91
        1
 92
        1
 93
        3
 72
     1
 10
326.78955078125
 20
276.9912109375
 11
330.89697265625
 21
277.6728515625
 72
     1
 10
330.89697265625
 20
277.6728515625
 11
326.78955078125
 21
278.3583984375
 72
     1
 10
326.78955078125
 20
278.3583984375
 11
326.78955078125
 21
276.9912109375
 97
        0
 75
     2
 76
     1
 98
        0
  0
POLYLINE
  5
60
330
1F
100
AcDbEntity
  8
Capa 1
 62
   250
420
  2301728
370
     9
100
AcDb2dPolyline
 66
     1
 10
0.0
 20
0.0
 30
0.0
  0
VERTEX
  5
61
330
60
100
AcDbEntity
  8
Capa 1
 62
   250
420
  2301728
370
     9
100
AcDbVertex
100
AcDb2dVertex
 10
326.78955078125
 20
278.3583984375
 30
0.0
  0
VERTEX
  5
62
330
60
100
AcDbEntity
  8
Capa 1
 62
   250
420
  2301728
370
     9
100
AcDbVertex
100
AcDb2dVertex
 10
326.78955078125
 20
276.9892578125
 30
0.0
  0
VERTEX
  5
63
330
60
100
AcDbEntity
  8
Capa 1
 62
   250
420
  2301728
370
     9
100
AcDbVertex
100
AcDb2dVertex
 10
330.90087890625
 20
277.6748046875
 30
0.0
  0
VERTEX
  5
64
330
60
100
AcDbEntity
  8
Capa 1
 62
   250
420
  2301728
370
     9
100
AcDbVertex
100
AcDb2dVertex
 10
326.78955078125
 20
278.3583984375
 30
0.0
  0
SEQEND
  5
65
330
60
100
AcDbEntity
  8
Capa 1
370
     9
  0
POLYLINE
  5
66
330
1F
100
AcDbEntity
  8
Capa 1
 62
   250
420
  2301728
370
     9
100
AcDb2dPolyline
 66
     1
 10
0.0
 20
0.0
 30
0.0
  0
VERTEX
  5
67
330
66
100
AcDbEntity
  8
Capa 1
 62
   250
420
  2301728
370
     9
100
AcDbVertex
100
AcDb2dVertex
 10
242.4619140625
 20
345.0751953125
 30
0.0
  0
VERTEX
  5
68
330
66
100
AcDbEntity
  8
Capa 1
 62
   250
420
  2301728
370
     9
100
AcDbVertex
100
AcDb2dVertex
 10
242.4619140625
 20
326.8603515625
 30
0.0
  0
SEQEND
  5
69
330
66
100
AcDbEntity
  8
Capa 1
370
     9
  0
POLYLINE
  5
6A
330
1F
100
AcDbEntity
  8
Capa 1
 62
   250
420
  2301728
370
     9
100
AcDb2dPolyline
 66
     1
 10
0.0
 20
0.0
 30
0.0
  0
VERTEX
  5
6B
330
6A
100
AcDbEntity
  8
Capa 1
 62
   250
420
  2301728
370
     9
100
AcDbVertex
100
AcDb2dVertex
 10
242.4619140625
 20
299.5068359375
 30
0.0
  0
VERTEX
  5
6C
330
6A
100
AcDbEntity
  8
Capa 1
 62
   250
420
  2301728
370
     9
100
AcDbVertex
100
AcDb2dVertex
 10
242.4619140625
 20
317.7216796875
 30
0.0
  0
SEQEND
  5
6D
330
6A
100
AcDbEntity
  8
Capa 1
370
     9
  0
POLYLINE
  5
6E
330
1F
100
AcDbEntity
  8
Capa 1
 62
   250
420
  2301728
370
     9
100
AcDb2dPolyline
 66
     1
 10
0.0
 20
0.0
 30
0.0
  0
VERTEX
  5
6F
330
6E
100
AcDbEntity
  8
Capa 1
 62
   250
420
  2301728
370
     9
100
AcDbVertex
100
AcDb2dVertex
 10
255.98486328125
 20
349.1826171875
 30
0.0
  0
VERTEX
  5
70
330
6E
100
AcDbEntity
  8
Capa 1
 62
   250
420
  2301728
370
     9
100
AcDbVertex
100
AcDb2dVertex
 10
240.18115234375
 20
349.1826171875
 30
0.0
  0
SEQEND
  5
71
330
6E
100
AcDbEntity
  8
Capa 1
370
     9
  0
POLYLINE
  5
72
330
1F
100
AcDbEntity
  8
Capa 1
 62
   250
420
  2301728
370
     9
100
AcDb2dPolyline
 66
     1
 10
0.0
 20
0.0
 30
0.0
  0
VERTEX
  5
73
330
72
100
AcDbEntity
  8
Capa 1
 62
   250
420
  2301728
370
     9
100
AcDbVertex
100
AcDb2dVertex
 10
316.62353515625
 20
295.3974609375
 30
0.0
  0
VERTEX
  5
74
330
72
100
AcDbEntity
  8
Capa 1
 62
   250
420
  2301728
370
     9
100
AcDbVertex
100
AcDb2dVertex
 10
240.18115234375
 20
295.3974609375
 30
0.0
  0
SEQEND
  5
75
330
72
100
AcDbEntity
  8
Capa 1
370
     9
  0
POLYLINE
  5
76
330
1F
100
AcDbEntity
  8
Capa 1
370
     0
100
AcDb2dPolyline
 66
     1
 10
0.0
 20
0.0
 30
0.0
  0
VERTEX
  5
77
330
76
100
AcDbEntity
  8
Capa 1
370
     0
100
AcDbVertex
100
AcDb2dVertex
 10
241.7763671875
 20
299.5107421875
 30
0.0
  0
VERTEX
  5
78
330
76
100
AcDbEntity
  8
Capa 1
370
     0
100
AcDbVertex
100
AcDb2dVertex
 10
242.46240234375
 20
295.4013671875
 30
0.0
  0
VERTEX
  5
79
330
76
100
AcDbEntity
  8
Capa 1
370
     0
100
AcDbVertex
100
AcDb2dVertex
 10
243.1455078125
 20
299.5107421875
 30
0.0
  0
VERTEX
  5
7A
330
76
100
AcDbEntity
  8
Capa 1
370
     0
100
AcDbVertex
100
AcDb2dVertex
 10
241.7763671875
 20
299.5107421875
 30
0.0
  0
SEQEND
  5
7B
330
76
100
AcDbEntity
  8
Capa 1
370
     0
  0
HATCH
  5
7C
330
1F
100
AcDbEntity
  8
Capa 1
 62
   250
420
  2301728
100
AcDbHatch
 10
0.0
 20
0.0
 30
0.0
210
0.0
220
0.0
230
1.0
  2
SOLID
 70
     1
 71
     0
 91
        1
 92
        1
 93
        3
 72
     1
 10
241.7763671875
 20
299.5107421875
 11
242.46240234375
 21
295.4013671875
 72
     1
 10
242.46240234375
 20
295.4013671875
 11
243.1455078125
 21
299.5107421875
 72
     1
 10
243.1455078125
 20
299.5107421875
 11
241.7763671875
 21
299.5107421875
 97
        0
 75
     2
 76
     1
 98
        0
  0
POLYLINE
  5
7D
330
1F
100
AcDbEntity
  8
Capa 1
 62
   250
420
  2301728
370
     9
100
AcDb2dPolyline
 66
     1
 10
0.0
 20
0.0
 30
0.0
  0
VERTEX
  5
7E
330
7D
100
AcDbEntity
  8
Capa 1
 62
   250
420
  2301728
370
     9
100
AcDbVertex
100
AcDb2dVertex
 10
241.7763671875
 20
299.5107421875
 30
0.0
  0
VERTEX
  5
7F
330
7D
100
AcDbEntity
  8
Capa 1
 62
   250
420
  2301728
370
     9
100
AcDbVertex
100
AcDb2dVertex
 10
243.1455078125
 20
299.5107421875
 30
0.0
  0
VERTEX
  5
80
330
7D
100
AcDbEntity
  8
Capa 1
 62
   250
420
  2301728
370
     9
100
AcDbVertex
100
AcDb2dVertex
 10
242.46435546875
 20
295.4013671875
 30
0.0
  0
VERTEX
  5
81
330
7D
100
AcDbEntity
  8
Capa 1
 62
   250
420
  2301728
370
     9
100
AcDbVertex
100
AcDb2dVertex
 10
241.7763671875
 20
299.5107421875
 30
0.0
  0
SEQEND
  5
82
330
7D
100
AcDbEntity
  8
Capa 1
370
     9
  0
POLYLINE
  5
83
330
1F
100
AcDbEntity
  8
Capa 1
370
     0
100
AcDb2dPolyline
 66
     1
 10
0.0
 20
0.0
 30
0.0
  0
VERTEX
  5
84
330
83
100
AcDbEntity
  8
Capa 1
370
     0
100
AcDbVertex
100
AcDb2dVertex
 10
241.7763671875
 20
345.0712890625
 30
0.0
  0
VERTEX
  5
85
330
83
100
AcDbEntity
  8
Capa 1
370
     0
100
AcDbVertex
100
AcDb2dVertex
 10
243.1455078125
 20
345.0712890625
 30
0.0
  0
VERTEX
  5
86
330
83
100
AcDbEntity
  8
Capa 1
370
     0
100
AcDbVertex
100
AcDb2dVertex
 10
242.46240234375
 20
349.1826171875
 30
0.0
  0
VERTEX
  5
87
330
83
100
AcDbEntity
  8
Capa 1
370
     0
100
AcDbVertex
100
AcDb2dVertex
 10
241.7763671875
 20
345.0712890625
 30
0.0
  0
SEQEND
  5
88
330
83
100
AcDbEntity
  8
Capa 1
370
     0
  0
HATCH
  5
89
330
1F
100
AcDbEntity
  8
Capa 1
 62
   250
420
  2301728
100
AcDbHatch
 10
0.0
 20
0.0
 30
0.0
210
0.0
220
0.0
230
1.0
  2
SOLID
 70
     1
 71
     0
 91
        1
 92
        1
 93
        3
 72
     1
 10
241.7763671875
 20
345.0712890625
 11
243.1455078125
 21
345.0712890625
 72
     1
 10
243.1455078125
 20
345.0712890625
 11
242.46240234375
 21
349.1826171875
 72
     1
 10
242.46240234375
 20
349.1826171875
 11
241.7763671875
 21
345.0712890625
 97
        0
 75
     2
 76
     1
 98
        0
  0
POLYLINE
  5
8A
330
1F
100
AcDbEntity
  8
Capa 1
 62
   250
420
  2301728
370
     9
100
AcDb2dPolyline
 66
     1
 10
0.0
 20
0.0
 30
0.0
  0
VERTEX
  5
8B
330
8A
100
AcDbEntity
  8
Capa 1
 62
   250
420
  2301728
370
     9
100
AcDbVertex
100
AcDb2dVertex
 10
241.7763671875
 20
345.0751953125
 30
0.0
  0
VERTEX
  5
8C
330
8A
100
AcDbEntity
  8
Capa 1
 62
   250
420
  2301728
370
     9
100
AcDbVertex
100
AcDb2dVertex
 10
243.1455078125
 20
345.0751953125
 30
0.0
  0
VERTEX
  5
8D
330
8A
100
AcDbEntity
  8
Capa 1
 62
   250
420
  2301728
370
     9
100
AcDbVertex
100
AcDb2dVertex
 10
242.46435546875
 20
349.1865234375
 30
0.0
  0
VERTEX
  5
8E
330
8A
100
AcDbEntity
  8
Capa 1
 62
   250
420
  2301728
370
     9
100
AcDbVertex
100
AcDb2dVertex
 10
241.7763671875
 20
345.0751953125
 30
0.0
  0
SEQEND
  5
8F
330
8A
100
AcDbEntity
  8
Capa 1
370
     9
  0
INSERT
  5
91
330
1F
100
AcDbEntity
  8
Capa 1
100
AcDbBlockReference
  2
block 2
 10
0.0
 20
0.0
 30
0.0
  0
POLYLINE
  5
E2
330
1F
100
AcDbEntity
  8
Capa 1
  6
AI-Linetype-1
 62
   250
420
  2301728
370
     9
100
AcDb2dPolyline
 66
     1
 10
0.0
 20
0.0
 30
0.0
  0
VERTEX
  5
E3
330
E2
100
AcDbEntity
  8
Capa 1
  6
AI-Linetype-1
 62
   250
420
  2301728
370
     9
100
AcDbVertex
100
AcDb2dVertex
 10
330.89794921875
 20
294.4345703125
 30
0.0
  0
VERTEX
  5
E4
330
E2
100
AcDbEntity
  8
Capa 1
  6
AI-Linetype-1
 62
   250
420
  2301728
370
     9
100
AcDbVertex
100
AcDb2dVertex
 10
330.89794921875
 20
352.9013671875
 30
0.0
  0
SEQEND
  5
E5
330
E2
100
AcDbEntity
  8
Capa 1
  6
AI-Linetype-1
370
     9
  0
MTEXT
  5
E7
330
1F
100
AcDbEntity
  8
Capa 1
 62
   250
420
  2301728
100
AcDbMText
 10
287.0146484375
 20
263.7802734375
 30
0.0
 40
8.16
 41
0.0
 71
     7
 72
     1
  1
\fArial|b1|i0|c0|p34;\W1;215
 73
     1
 44
1.0
  0
MTEXT
  5
E8
330
1F
100
AcDbEntity
  8
Capa 1
 62
   250
420
  2301728
100
AcDbMText
 10
218.0986328125
 20
315.716796875
 30
0.0
 40
8.16
 41
0.0
 71
     7
 72
     1
  1
\fArial|b1|i0|c0|p34;\W1;157
 73
     1
 44
1.0
  0
INSERT
  5
EA
330
1F
100
AcDbEntity
  8
Capa 1
100
AcDbBlockReference
  2
block 3
 10
0.0
 20
0.0
 30
0.0
  0
POLYLINE
  5
13E
330
1F
100
AcDbEntity
  8
Capa 1
 62
   250
420
  2301728
370
     9
100
AcDb2dPolyline
 66
     1
 10
0.0
 20
0.0
 30
0.0
  0
VERTEX
  5
13F
330
13E
100
AcDbEntity
  8
Capa 1
 62
   250
420
  2301728
370
     9
100
AcDbVertex
100
AcDb2dVertex
 10
236.08935546875
 20
647.10693359375
 30
0.0
  0
VERTEX
  5
140
330
13E
100
AcDbEntity
  8
Capa 1
 62
   250
420
  2301728
370
     9
100
AcDbVertex
100
AcDb2dVertex
 10
321.38232421875
 20
647.10693359375
 30
0.0
  0
SEQEND
  5
141
330
13E
100
AcDbEntity
  8
Capa 1
370
     9
  0
POLYLINE
  5
142
330
1F
100
AcDbEntity
  8
Capa 1
 62
   250
420
  2301728
370
     9
100
AcDb2dPolyline
 66
     1
 10
0.0
 20
0.0
 30
0.0
  0
VERTEX
  5
143
330
142
100
AcDbEntity
  8
Capa 1
 62
   250
420
  2301728
370
     9
100
AcDbVertex
100
AcDb2dVertex
 10
414.57861328125
 20
647.10693359375
 30
0.0
  0
VERTEX
  5
144
330
142
100
AcDbEntity
  8
Capa 1
 62
   250
420
  2301728
370
     9
100
AcDbVertex
100
AcDb2dVertex
 10
330.51904296875
 20
647.10693359375
 30
0.0
  0
SEQEND
  5
145
330
142
100
AcDbEntity
  8
Capa 1
370
     9
  0
POLYLINE
  5
146
330
1F
100
AcDbEntity
  8
Capa 1
 62
   250
420
  2301728
370
     9
100
AcDb2dPolyline
 66
     1
 10
0.0
 20
0.0
 30
0.0
  0
VERTEX
  5
147
330
146
100
AcDbEntity
  8
Capa 1
 62
   250
420
  2301728
370
     9
100
AcDbVertex
100
AcDb2dVertex
 10
231.9765625
 20
578.9228515625
 30
0.0
  0
VERTEX
  5
148
330
146
100
AcDbEntity
  8
Capa 1
 62
   250
420
  2301728
370
     9
100
AcDbVertex
100
AcDb2dVertex
 10
231.9765625
 20
649.39404296875
 30
0.0
  0
SEQEND
  5
149
330
146
100
AcDbEntity
  8
Capa 1
370
     9
  0
POLYLINE
  5
14A
330
1F
100
AcDbEntity
  8
Capa 1
 62
   250
420
  2301728
370
     9
100
AcDb2dPolyline
 66
     1
 10
0.0
 20
0.0
 30
0.0
  0
VERTEX
  5
14B
330
14A
100
AcDbEntity
  8
Capa 1
 62
   250
420
  2301728
370
     9
100
AcDbVertex
100
AcDb2dVertex
 10
418.68505859375
 20
578.9228515625
 30
0.0
  0
VERTEX
  5
14C
330
14A
100
AcDbEntity
  8
Capa 1
 62
   250
420
  2301728
370
     9
100
AcDbVertex
100
AcDb2dVertex
 10
418.68505859375
 20
649.39404296875
 30
0.0
  0
SEQEND
  5
14D
330
14A
100
AcDbEntity
  8
Capa 1
370
     9
  0
POLYLINE
  5
14E
330
1F
100
AcDbEntity
  8
Capa 1
370
     0
100
AcDb2dPolyline
 66
     1
 10
0.0
 20
0.0
 30
0.0
  0
VERTEX
  5
14F
330
14E
100
AcDbEntity
  8
Capa 1
370
     0
100
AcDbVertex
100
AcDb2dVertex
 10
414.57373046875
 20
646.4208984375
 30
0.0
  0
VERTEX
  5
150
330
14E
100
AcDbEntity
  8
Capa 1
370
     0
100
AcDbVertex
100
AcDb2dVertex
 10
418.68505859375
 20
647.10693359375
 30
0.0
  0
VERTEX
  5
151
330
14E
100
AcDbEntity
  8
Capa 1
370
     0
100
AcDbVertex
100
AcDb2dVertex
 10
414.57373046875
 20
647.7900390625
 30
0.0
  0
VERTEX
  5
152
330
14E
100
AcDbEntity
  8
Capa 1
370
     0
100
AcDbVertex
100
AcDb2dVertex
 10
414.57373046875
 20
646.4208984375
 30
0.0
  0
SEQEND
  5
153
330
14E
100
AcDbEntity
  8
Capa 1
370
     0
  0
HATCH
  5
154
330
1F
100
AcDbEntity
  8
Capa 1
 62
   250
420
  2301728
100
AcDbHatch
 10
0.0
 20
0.0
 30
0.0
210
0.0
220
0.0
230
1.0
  2
SOLID
 70
     1
 71
     0
 91
        1
 92
        1
 93
        3
 72
     1
 10
414.57373046875
 20
646.4208984375
 11
418.68505859375
 21
647.10693359375
 72
     1
 10
418.68505859375
 20
647.10693359375
 11
414.57373046875
 21
647.7900390625
 72
     1
 10
414.57373046875
 20
647.7900390625
 11
414.57373046875
 21
646.4208984375
 97
        0
 75
     2
 76
     1
 98
        0
  0
POLYLINE
  5
155
330
1F
100
AcDbEntity
  8
Capa 1
 62
   252
420
  9672087
370
     9
100
AcDb2dPolyline
 66
     1
 10
0.0
 20
0.0
 30
0.0
  0
VERTEX
  5
156
330
155
100
AcDbEntity
  8
Capa 1
 62
   252
420
  9672087
370
     9
100
AcDbVertex
100
AcDb2dVertex
 10
414.57763671875
 20
646.4228515625
 30
0.0
  0
VERTEX
  5
157
330
155
100
AcDbEntity
  8
Capa 1
 62
   252
420
  9672087
370
     9
100
AcDbVertex
100
AcDb2dVertex
 10
414.57763671875
 20
647.7939453125
 30
0.0
  0
VERTEX
  5
158
330
155
100
AcDbEntity
  8
Capa 1
 62
   252
420
  9672087
370
     9
100
AcDbVertex
100
AcDb2dVertex
 10
418.68505859375
 20
647.10693359375
 30
0.0
  0
VERTEX
  5
159
330
155
100
AcDbEntity
  8
Capa 1
 62
   252
420
  9672087
370
     9
100
AcDbVertex
100
AcDb2dVertex
 10
414.57763671875
 20
646.4228515625
 30
0.0
  0
SEQEND
  5
15A
330
155
100
AcDbEntity
  8
Capa 1
370
     9
  0
POLYLINE
  5
15B
330
1F
100
AcDbEntity
  8
Capa 1
370
     0
100
AcDb2dPolyline
 66
     1
 10
0.0
 20
0.0
 30
0.0
  0
VERTEX
  5
15C
330
15B
100
AcDbEntity
  8
Capa 1
370
     0
100
AcDbVertex
100
AcDb2dVertex
 10
231.9765625
 20
647.1064453125
 30
0.0
  0
VERTEX
  5
15D
330
15B
100
AcDbEntity
  8
Capa 1
370
     0
100
AcDbVertex
100
AcDb2dVertex
 10
236.08740234375
 20
646.42236328125
 30
0.0
  0
VERTEX
  5
15E
330
15B
100
AcDbEntity
  8
Capa 1
370
     0
100
AcDbVertex
100
AcDb2dVertex
 10
236.08740234375
 20
647.79052734375
 30
0.0
  0
VERTEX
  5
15F
330
15B
100
AcDbEntity
  8
Capa 1
370
     0
100
AcDbVertex
100
AcDb2dVertex
 10
231.9765625
 20
647.1064453125
 30
0.0
  0
SEQEND
  5
160
330
15B
100
AcDbEntity
  8
Capa 1
370
     0
  0
HATCH
  5
161
330
1F
100
AcDbEntity
  8
Capa 1
 62
   250
420
  2301728
100
AcDbHatch
 10
0.0
 20
0.0
 30
0.0
210
0.0
220
0.0
230
1.0
  2
SOLID
 70
     1
 71
     0
 91
        1
 92
        1
 93
        3
 72
     1
 10
231.9765625
 20
647.1064453125
 11
236.08740234375
 21
646.42236328125
 72
     1
 10
236.08740234375
 20
646.42236328125
 11
236.08740234375
 21
647.79052734375
 72
     1
 10
236.08740234375
 20
647.79052734375
 11
231.9765625
 21
647.1064453125
 97
        0
 75
     2
 76
     1
 98
        0
  0
POLYLINE
  5
162
330
1F
100
AcDbEntity
  8
Capa 1
 62
   252
420
  9672087
370
     9
100
AcDb2dPolyline
 66
     1
 10
0.0
 20
0.0
 30
0.0
  0
VERTEX
  5
163
330
162
100
AcDbEntity
  8
Capa 1
 62
   252
420
  9672087
370
     9
100
AcDbVertex
100
AcDb2dVertex
 10
236.087890625
 20
646.4228515625
 30
0.0
  0
VERTEX
  5
164
330
162
100
AcDbEntity
  8
Capa 1
 62
   252
420
  9672087
370
     9
100
AcDbVertex
100
AcDb2dVertex
 10
236.087890625
 20
647.7939453125
 30
0.0
  0
VERTEX
  5
165
330
162
100
AcDbEntity
  8
Capa 1
 62
   252
420
  9672087
370
     9
100
AcDbVertex
100
AcDb2dVertex
 10
231.97705078125
 20
647.10693359375
 30
0.0
  0
VERTEX
  5
166
330
162
100
AcDbEntity
  8
Capa 1
 62
   252
420
  9672087
370
     9
100
AcDbVertex
100
AcDb2dVertex
 10
236.087890625
 20
646.4228515625
 30
0.0
  0
SEQEND
  5
167
330
162
100
AcDbEntity
  8
Capa 1
370
     9
  0
POLYLINE
  5
168
330
1F
100
AcDbEntity
  8
Capa 1
 62
   250
420
  2301728
370
     9
100
AcDb2dPolyline
 66
     1
 10
0.0
 20
0.0
 30
0.0
  0
VERTEX
  5
169
330
168
100
AcDbEntity
  8
Capa 1
 62
   250
420
  2301728
370
     9
100
AcDbVertex
100
AcDb2dVertex
 10
186.904296875
 20
584.5205078125
 30
0.0
  0
VERTEX
  5
16A
330
168
100
AcDbEntity
  8
Capa 1
 62
   250
420
  2301728
370
     9
100
AcDbVertex
100
AcDb2dVertex
 10
186.904296875
 20
523.13037109375
 30
0.0
  0
SEQEND
  5
16B
330
168
100
AcDbEntity
  8
Capa 1
370
     9
  0
POLYLINE
  5
16C
330
1F
100
AcDbEntity
  8
Capa 1
 62
   250
420
  2301728
370
     9
100
AcDb2dPolyline
 66
     1
 10
0.0
 20
0.0
 30
0.0
  0
VERTEX
  5
16D
330
16C
100
AcDbEntity
  8
Capa 1
 62
   250
420
  2301728
370
     9
100
AcDbVertex
100
AcDb2dVertex
 10
186.904296875
 20
445.43017578125
 30
0.0
  0
VERTEX
  5
16E
330
16C
100
AcDbEntity
  8
Capa 1
 62
   250
420
  2301728
370
     9
100
AcDbVertex
100
AcDb2dVertex
 10
186.904296875
 20
506.8173828125
 30
0.0
  0
SEQEND
  5
16F
330
16C
100
AcDbEntity
  8
Capa 1
370
     9
  0
POLYLINE
  5
170
330
1F
100
AcDbEntity
  8
Capa 1
 62
   250
420
  2301728
370
     9
100
AcDb2dPolyline
 66
     1
 10
0.0
 20
0.0
 30
0.0
  0
VERTEX
  5
171
330
170
100
AcDbEntity
  8
Capa 1
 62
   250
420
  2301728
370
     9
100
AcDbVertex
100
AcDb2dVertex
 10
241.68310546875
 20
588.63330078125
 30
0.0
  0
VERTEX
  5
172
330
170
100
AcDbEntity
  8
Capa 1
 62
   250
420
  2301728
370
     9
100
AcDbVertex
100
AcDb2dVertex
 10
184.62109375
 20
588.63330078125
 30
0.0
  0
SEQEND
  5
173
330
170
100
AcDbEntity
  8
Capa 1
370
     9
  0
POLYLINE
  5
174
330
1F
100
AcDbEntity
  8
Capa 1
 62
   250
420
  2301728
370
     9
100
AcDb2dPolyline
 66
     1
 10
0.0
 20
0.0
 30
0.0
  0
VERTEX
  5
175
330
174
100
AcDbEntity
  8
Capa 1
 62
   250
420
  2301728
370
     9
100
AcDbVertex
100
AcDb2dVertex
 10
231.40625
 20
441.3173828125
 30
0.0
  0
VERTEX
  5
176
330
174
100
AcDbEntity
  8
Capa 1
 62
   250
420
  2301728
370
     9
100
AcDbVertex
100
AcDb2dVertex
 10
184.62109375
 20
441.3173828125
 30
0.0
  0
SEQEND
  5
177
330
174
100
AcDbEntity
  8
Capa 1
370
     9
  0
POLYLINE
  5
178
330
1F
100
AcDbEntity
  8
Capa 1
370
     0
100
AcDb2dPolyline
 66
     1
 10
0.0
 20
0.0
 30
0.0
  0
VERTEX
  5
179
330
178
100
AcDbEntity
  8
Capa 1
370
     0
100
AcDbVertex
100
AcDb2dVertex
 10
186.220703125
 20
445.4306640625
 30
0.0
  0
VERTEX
  5
17A
330
178
100
AcDbEntity
  8
Capa 1
370
     0
100
AcDbVertex
100
AcDb2dVertex
 10
186.90283203125
 20
441.32177734375
 30
0.0
  0
VERTEX
  5
17B
330
178
100
AcDbEntity
  8
Capa 1
370
     0
100
AcDbVertex
100
AcDb2dVertex
 10
187.58984375
 20
445.4306640625
 30
0.0
  0
VERTEX
  5
17C
330
178
100
AcDbEntity
  8
Capa 1
370
     0
100
AcDbVertex
100
AcDb2dVertex
 10
186.220703125
 20
445.4306640625
 30
0.0
  0
SEQEND
  5
17D
330
178
100
AcDbEntity
  8
Capa 1
370
     0
  0
HATCH
  5
17E
330
1F
100
AcDbEntity
  8
Capa 1
 62
   250
420
  2301728
100
AcDbHatch
 10
0.0
 20
0.0
 30
0.0
210
0.0
220
0.0
230
1.0
  2
SOLID
 70
     1
 71
     0
 91
        1
 92
        1
 93
        3
 72
     1
 10
186.220703125
 20
445.4306640625
 11
186.90283203125
 21
441.32177734375
 72
     1
 10
186.90283203125
 20
441.32177734375
 11
187.58984375
 21
445.4306640625
 72
     1
 10
187.58984375
 20
445.4306640625
 11
186.220703125
 21
445.4306640625
 97
        0
 75
     2
 76
     1
 98
        0
  0
POLYLINE
  5
17F
330
1F
100
AcDbEntity
  8
Capa 1
 62
   252
420
  9672087
370
     9
100
AcDb2dPolyline
 66
     1
 10
0.0
 20
0.0
 30
0.0
  0
VERTEX
  5
180
330
17F
100
AcDbEntity
  8
Capa 1
 62
   252
420
  9672087
370
     9
100
AcDbVertex
100
AcDb2dVertex
 10
186.21875
 20
445.4306640625
 30
0.0
  0
VERTEX
  5
181
330
17F
100
AcDbEntity
  8
Capa 1
 62
   252
420
  9672087
370
     9
100
AcDbVertex
100
AcDb2dVertex
 10
187.591796875
 20
445.4306640625
 30
0.0
  0
VERTEX
  5
182
330
17F
100
AcDbEntity
  8
Capa 1
 62
   252
420
  9672087
370
     9
100
AcDbVertex
100
AcDb2dVertex
 10
186.90673828125
 20
441.31787109375
 30
0.0
  0
VERTEX
  5
183
330
17F
100
AcDbEntity
  8
Capa 1
 62
   252
420
  9672087
370
     9
100
AcDbVertex
100
AcDb2dVertex
 10
186.21875
 20
445.4306640625
 30
0.0
  0
SEQEND
  5
184
330
17F
100
AcDbEntity
  8
Capa 1
370
     9
  0
POLYLINE
  5
185
330
1F
100
AcDbEntity
  8
Capa 1
370
     0
100
AcDb2dPolyline
 66
     1
 10
0.0
 20
0.0
 30
0.0
  0
VERTEX
  5
186
330
185
100
AcDbEntity
  8
Capa 1
370
     0
100
AcDbVertex
100
AcDb2dVertex
 10
186.220703125
 20
584.5205078125
 30
0.0
  0
VERTEX
  5
187
330
185
100
AcDbEntity
  8
Capa 1
370
     0
100
AcDbVertex
100
AcDb2dVertex
 10
187.58984375
 20
584.5205078125
 30
0.0
  0
VERTEX
  5
188
330
185
100
AcDbEntity
  8
Capa 1
370
     0
100
AcDbVertex
100
AcDb2dVertex
 10
186.90283203125
 20
588.62939453125
 30
0.0
  0
VERTEX
  5
189
330
185
100
AcDbEntity
  8
Capa 1
370
     0
100
AcDbVertex
100
AcDb2dVertex
 10
186.220703125
 20
584.5205078125
 30
0.0
  0
SEQEND
  5
18A
330
185
100
AcDbEntity
  8
Capa 1
370
     0
  0
HATCH
  5
18B
330
1F
100
AcDbEntity
  8
Capa 1
 62
   250
420
  2301728
100
AcDbHatch
 10
0.0
 20
0.0
 30
0.0
210
0.0
220
0.0
230
1.0
  2
SOLID
 70
     1
 71
     0
 91
        1
 92
        1
 93
        3
 72
     1
 10
186.220703125
 20
584.5205078125
 11
187.58984375
 21
584.5205078125
 72
     1
 10
187.58984375
 20
584.5205078125
 11
186.90283203125
 21
588.62939453125
 72
     1
 10
186.90283203125
 20
588.62939453125
 11
186.220703125
 21
584.5205078125
 97
        0
 75
     2
 76
     1
 98
        0
  0
POLYLINE
  5
18C
330
1F
100
AcDbEntity
  8
Capa 1
 62
   252
420
  9672087
370
     9
100
AcDb2dPolyline
 66
     1
 10
0.0
 20
0.0
 30
0.0
  0
VERTEX
  5
18D
330
18C
100
AcDbEntity
  8
Capa 1
 62
   252
420
  9672087
370
     9
100
AcDbVertex
100
AcDb2dVertex
 10
186.21875
 20
584.5205078125
 30
0.0
  0
VERTEX
  5
18E
330
18C
100
AcDbEntity
  8
Capa 1
 62
   252
420
  9672087
370
     9
100
AcDbVertex
100
AcDb2dVertex
 10
187.591796875
 20
584.5205078125
 30
0.0
  0
VERTEX
  5
18F
330
18C
100
AcDbEntity
  8
Capa 1
 62
   252
420
  9672087
370
     9
100
AcDbVertex
100
AcDb2dVertex
 10
186.90673828125
 20
588.63330078125
 30
0.0
  0
VERTEX
  5
190
330
18C
100
AcDbEntity
  8
Capa 1
 62
   252
420
  9672087
370
     9
100
AcDbVertex
100
AcDb2dVertex
 10
186.21875
 20
584.5205078125
 30
0.0
  0
SEQEND
  5
191
330
18C
100
AcDbEntity
  8
Capa 1
370
     9
  0
POLYLINE
  5
192
330
1F
100
AcDbEntity
  8
Capa 1
 62
   250
420
  2301728
370
     9
100
AcDb2dPolyline
 66
     1
 10
0.0
 20
0.0
 30
0.0
  0
VERTEX
  5
193
330
192
100
AcDbEntity
  8
Capa 1
 62
   250
420
  2301728
370
     9
100
AcDbVertex
100
AcDb2dVertex
 10
405.32470703125
 20
619.7197265625
 30
0.0
  0
VERTEX
  5
194
330
192
100
AcDbEntity
  8
Capa 1
 62
   250
420
  2301728
370
     9
100
AcDbVertex
100
AcDb2dVertex
 10
329.90087890625
 20
619.7197265625
 30
0.0
  0
SEQEND
  5
195
330
192
100
AcDbEntity
  8
Capa 1
370
     9
  0
POLYLINE
  5
196
330
1F
100
AcDbEntity
  8
Capa 1
 62
   250
420
  2301728
370
     9
100
AcDb2dPolyline
 66
     1
 10
0.0
 20
0.0
 30
0.0
  0
VERTEX
  5
197
330
196
100
AcDbEntity
  8
Capa 1
 62
   250
420
  2301728
370
     9
100
AcDbVertex
100
AcDb2dVertex
 10
245.33935546875
 20
619.7197265625
 30
0.0
  0
VERTEX
  5
198
330
196
100
AcDbEntity
  8
Capa 1
 62
   250
420
  2301728
370
     9
100
AcDbVertex
100
AcDb2dVertex
 10
320.76318359375
 20
619.7197265625
 30
0.0
  0
SEQEND
  5
199
330
196
100
AcDbEntity
  8
Capa 1
370
     9
  0
POLYLINE
  5
19A
330
1F
100
AcDbEntity
  8
Capa 1
 62
   250
420
  2301728
370
     9
100
AcDb2dPolyline
 66
     1
 10
0.0
 20
0.0
 30
0.0
  0
VERTEX
  5
19B
330
19A
100
AcDbEntity
  8
Capa 1
 62
   250
420
  2301728
370
     9
100
AcDbVertex
100
AcDb2dVertex
 10
409.43798828125
 20
578.9228515625
 30
0.0
  0
VERTEX
  5
19C
330
19A
100
AcDbEntity
  8
Capa 1
 62
   250
420
  2301728
370
     9
100
AcDbVertex
100
AcDb2dVertex
 10
409.43798828125
 20
622.0029296875
 30
0.0
  0
SEQEND
  5
19D
330
19A
100
AcDbEntity
  8
Capa 1
370
     9
  0
POLYLINE
  5
19E
330
1F
100
AcDbEntity
  8
Capa 1
 62
   250
420
  2301728
370
     9
100
AcDb2dPolyline
 66
     1
 10
0.0
 20
0.0
 30
0.0
  0
VERTEX
  5
19F
330
19E
100
AcDbEntity
  8
Capa 1
 62
   250
420
  2301728
370
     9
100
AcDbVertex
100
AcDb2dVertex
 10
241.2265625
 20
578.9228515625
 30
0.0
  0
VERTEX
  5
1A0
330
19E
100
AcDbEntity
  8
Capa 1
 62
   250
420
  2301728
370
     9
100
AcDbVertex
100
AcDb2dVertex
 10
241.2265625
 20
622.0029296875
 30
0.0
  0
SEQEND
  5
1A1
330
19E
100
AcDbEntity
  8
Capa 1
370
     9
  0
POLYLINE
  5
1A2
330
1F
100
AcDbEntity
  8
Capa 1
370
     0
100
AcDb2dPolyline
 66
     1
 10
0.0
 20
0.0
 30
0.0
  0
VERTEX
  5
1A3
330
1A2
100
AcDbEntity
  8
Capa 1
370
     0
100
AcDbVertex
100
AcDb2dVertex
 10
241.2265625
 20
619.7197265625
 30
0.0
  0
VERTEX
  5
1A4
330
1A2
100
AcDbEntity
  8
Capa 1
370
     0
100
AcDbVertex
100
AcDb2dVertex
 10
245.33349609375
 20
619.03173828125
 30
0.0
  0
VERTEX
  5
1A5
330
1A2
100
AcDbEntity
  8
Capa 1
370
     0
100
AcDbVertex
100
AcDb2dVertex
 10
245.33349609375
 20
620.40380859375
 30
0.0
  0
VERTEX
  5
1A6
330
1A2
100
AcDbEntity
  8
Capa 1
370
     0
100
AcDbVertex
100
AcDb2dVertex
 10
241.2265625
 20
619.7197265625
 30
0.0
  0
SEQEND
  5
1A7
330
1A2
100
AcDbEntity
  8
Capa 1
370
     0
  0
HATCH
  5
1A8
330
1F
100
AcDbEntity
  8
Capa 1
 62
   250
420
  2301728
100
AcDbHatch
 10
0.0
 20
0.0
 30
0.0
210
0.0
220
0.0
230
1.0
  2
SOLID
 70
     1
 71
     0
 91
        1
 92
        1
 93
        3
 72
     1
 10
241.2265625
 20
619.7197265625
 11
245.33349609375
 21
619.03173828125
 72
     1
 10
245.33349609375
 20
619.03173828125
 11
245.33349609375
 21
620.40380859375
 72
     1
 10
245.33349609375
 20
620.40380859375
 11
241.2265625
 21
619.7197265625
 97
        0
 75
     2
 76
     1
 98
        0
  0
POLYLINE
  5
1A9
330
1F
100
AcDbEntity
  8
Capa 1
 62
   252
420
  9672087
370
     9
100
AcDb2dPolyline
 66
     1
 10
0.0
 20
0.0
 30
0.0
  0
VERTEX
  5
1AA
330
1A9
100
AcDbEntity
  8
Capa 1
 62
   252
420
  9672087
370
     9
100
AcDbVertex
100
AcDb2dVertex
 10
245.337890625
 20
619.0322265625
 30
0.0
  0
VERTEX
  5
1AB
330
1A9
100
AcDbEntity
  8
Capa 1
 62
   252
420
  9672087
370
     9
100
AcDbVertex
100
AcDb2dVertex
 10
245.337890625
 20
620.4072265625
 30
0.0
  0
VERTEX
  5
1AC
330
1A9
100
AcDbEntity
  8
Capa 1
 62
   252
420
  9672087
370
     9
100
AcDbVertex
100
AcDb2dVertex
 10
241.22509765625
 20
619.72021484375
 30
0.0
  0
VERTEX
  5
1AD
330
1A9
100
AcDbEntity
  8
Capa 1
 62
   252
420
  9672087
370
     9
100
AcDbVertex
100
AcDb2dVertex
 10
245.337890625
 20
619.0322265625
 30
0.0
  0
SEQEND
  5
1AE
330
1A9
100
AcDbEntity
  8
Capa 1
370
     9
  0
POLYLINE
  5
1AF
330
1F
100
AcDbEntity
  8
Capa 1
370
     0
100
AcDb2dPolyline
 66
     1
 10
0.0
 20
0.0
 30
0.0
  0
VERTEX
  5
1B0
330
1AF
100
AcDbEntity
  8
Capa 1
370
     0
100
AcDbVertex
100
AcDb2dVertex
 10
405.32373046875
 20
619.0322265625
 30
0.0
  0
VERTEX
  5
1B1
330
1AF
100
AcDbEntity
  8
Capa 1
370
     0
100
AcDbVertex
100
AcDb2dVertex
 10
409.43701171875
 20
619.72021484375
 30
0.0
  0
VERTEX
  5
1B2
330
1AF
100
AcDbEntity
  8
Capa 1
370
     0
100
AcDbVertex
100
AcDb2dVertex
 10
405.32373046875
 20
620.3994140625
 30
0.0
  0
VERTEX
  5
1B3
330
1AF
100
AcDbEntity
  8
Capa 1
370
     0
100
AcDbVertex
100
AcDb2dVertex
 10
405.32373046875
 20
619.0322265625
 30
0.0
  0
SEQEND
  5
1B4
330
1AF
100
AcDbEntity
  8
Capa 1
370
     0
  0
HATCH
  5
1B5
330
1F
100
AcDbEntity
  8
Capa 1
 62
   250
420
  2301728
100
AcDbHatch
 10
0.0
 20
0.0
 30
0.0
210
0.0
220
0.0
230
1.0
  2
SOLID
 70
     1
 71
     0
 91
        1
 92
        1
 93
        3
 72
     1
 10
405.32373046875
 20
619.0322265625
 11
409.43701171875
 21
619.72021484375
 72
     1
 10
409.43701171875
 20
619.72021484375
 11
405.32373046875
 21
620.3994140625
 72
     1
 10
405.32373046875
 20
620.3994140625
 11
405.32373046875
 21
619.0322265625
 97
        0
 75
     2
 76
     1
 98
        0
  0
POLYLINE
  5
1B6
330
1F
100
AcDbEntity
  8
Capa 1
 62
   252
420
  9672087
370
     9
100
AcDb2dPolyline
 66
     1
 10
0.0
 20
0.0
 30
0.0
  0
VERTEX
  5
1B7
330
1B6
100
AcDbEntity
  8
Capa 1
 62
   252
420
  9672087
370
     9
100
AcDbVertex
100
AcDb2dVertex
 10
405.32763671875
 20
619.0322265625
 30
0.0
  0
VERTEX
  5
1B8
330
1B6
100
AcDbEntity
  8
Capa 1
 62
   252
420
  9672087
370
     9
100
AcDbVertex
100
AcDb2dVertex
 10
405.32763671875
 20
620.4072265625
 30
0.0
  0
VERTEX
  5
1B9
330
1B6
100
AcDbEntity
  8
Capa 1
 62
   252
420
  9672087
370
     9
100
AcDbVertex
100
AcDb2dVertex
 10
409.43701171875
 20
619.72021484375
 30
0.0
  0
VERTEX
  5
1BA
330
1B6
100
AcDbEntity
  8
Capa 1
 62
   252
420
  9672087
370
     9
100
AcDbVertex
100
AcDb2dVertex
 10
405.32763671875
 20
619.0322265625
 30
0.0
  0
SEQEND
  5
1BB
330
1B6
100
AcDbEntity
  8
Capa 1
370
     9
  0
POLYLINE
  5
1BC
330
1F
100
AcDbEntity
  8
Capa 1
 62
   250
420
  2301728
370
     9
100
AcDb2dPolyline
 66
     1
 10
0.0
 20
0.0
 30
0.0
  0
VERTEX
  5
1BD
330
1BC
100
AcDbEntity
  8
Capa 1
 62
   250
420
  2301728
370
     9
100
AcDbVertex
100
AcDb2dVertex
 10
207.84375
 20
454.6787109375
 30
0.0
  0
VERTEX
  5
1BE
330
1BC
100
AcDbEntity
  8
Capa 1
 62
   250
420
  2301728
370
     9
100
AcDbVertex
100
AcDb2dVertex
 10
207.84375
 20
506.81689453125
 30
0.0
  0
SEQEND
  5
1BF
330
1BC
100
AcDbEntity
  8
Capa 1
370
     9
  0
POLYLINE
  5
1C0
330
1F
100
AcDbEntity
  8
Capa 1
 62
   250
420
  2301728
370
     9
100
AcDb2dPolyline
 66
     1
 10
0.0
 20
0.0
 30
0.0
  0
VERTEX
  5
1C1
330
1C0
100
AcDbEntity
  8
Capa 1
 62
   250
420
  2301728
370
     9
100
AcDbVertex
100
AcDb2dVertex
 10
207.84375
 20
575.27294921875
 30
0.0
  0
VERTEX
  5
1C2
330
1C0
100
AcDbEntity
  8
Capa 1
 62
   250
420
  2301728
370
     9
100
AcDbVertex
100
AcDb2dVertex
 10
207.84375
 20
523.1298828125
 30
0.0
  0
SEQEND
  5
1C3
330
1C0
100
AcDbEntity
  8
Capa 1
370
     9
  0
POLYLINE
  5
1C4
330
1F
100
AcDbEntity
  8
Capa 1
 62
   250
420
  2301728
370
     9
100
AcDb2dPolyline
 66
     1
 10
0.0
 20
0.0
 30
0.0
  0
VERTEX
  5
1C5
330
1C4
100
AcDbEntity
  8
Capa 1
 62
   250
420
  2301728
370
     9
100
AcDbVertex
100
AcDb2dVertex
 10
241.68359375
 20
450.57080078125
 30
0.0
  0
VERTEX
  5
1C6
330
1C4
100
AcDbEntity
  8
Capa 1
 62
   250
420
  2301728
370
     9
100
AcDbVertex
100
AcDb2dVertex
 10
205.560546875
 20
450.57080078125
 30
0.0
  0
SEQEND
  5
1C7
330
1C4
100
AcDbEntity
  8
Capa 1
370
     9
  0
POLYLINE
  5
1C8
330
1F
100
AcDbEntity
  8
Capa 1
 62
   250
420
  2301728
370
     9
100
AcDb2dPolyline
 66
     1
 10
0.0
 20
0.0
 30
0.0
  0
VERTEX
  5
1C9
330
1C8
100
AcDbEntity
  8
Capa 1
 62
   250
420
  2301728
370
     9
100
AcDbVertex
100
AcDb2dVertex
 10
241.68359375
 20
579.3798828125
 30
0.0
  0
VERTEX
  5
1CA
330
1C8
100
AcDbEntity
  8
Capa 1
 62
   250
420
  2301728
370
     9
100
AcDbVertex
100
AcDb2dVertex
 10
205.560546875
 20
579.3798828125
 30
0.0
  0
SEQEND
  5
1CB
330
1C8
100
AcDbEntity
  8
Capa 1
370
     9
  0
POLYLINE
  5
1CC
330
1F
100
AcDbEntity
  8
Capa 1
370
     0
100
AcDb2dPolyline
 66
     1
 10
0.0
 20
0.0
 30
0.0
  0
VERTEX
  5
1CD
330
1CC
100
AcDbEntity
  8
Capa 1
370
     0
100
AcDbVertex
100
AcDb2dVertex
 10
207.162109375
 20
575.2685546875
 30
0.0
  0
VERTEX
  5
1CE
330
1CC
100
AcDbEntity
  8
Capa 1
370
     0
100
AcDbVertex
100
AcDb2dVertex
 10
208.529296875
 20
575.2685546875
 30
0.0
  0
VERTEX
  5
1CF
330
1CC
100
AcDbEntity
  8
Capa 1
370
     0
100
AcDbVertex
100
AcDb2dVertex
 10
207.84423828125
 20
579.37548828125
 30
0.0
  0
VERTEX
  5
1D0
330
1CC
100
AcDbEntity
  8
Capa 1
370
     0
100
AcDbVertex
100
AcDb2dVertex
 10
207.162109375
 20
575.2685546875
 30
0.0
  0
SEQEND
  5
1D1
330
1CC
100
AcDbEntity
  8
Capa 1
370
     0
  0
HATCH
  5
1D2
330
1F
100
AcDbEntity
  8
Capa 1
 62
   250
420
  2301728
100
AcDbHatch
 10
0.0
 20
0.0
 30
0.0
210
0.0
220
0.0
230
1.0
  2
SOLID
 70
     1
 71
     0
 91
        1
 92
        1
 93
        3
 72
     1
 10
207.162109375
 20
575.2685546875
 11
208.529296875
 21
575.2685546875
 72
     1
 10
208.529296875
 20
575.2685546875
 11
207.84423828125
 21
579.37548828125
 72
     1
 10
207.84423828125
 20
579.37548828125
 11
207.162109375
 21
575.2685546875
 97
        0
 75
     2
 76
     1
 98
        0
  0
POLYLINE
  5
1D3
330
1F
100
AcDbEntity
  8
Capa 1
 62
   252
420
  9672087
370
     9
100
AcDb2dPolyline
 66
     1
 10
0.0
 20
0.0
 30
0.0
  0
VERTEX
  5
1D4
330
1D3
100
AcDbEntity
  8
Capa 1
 62
   252
420
  9672087
370
     9
100
AcDbVertex
100
AcDb2dVertex
 10
207.16015625
 20
575.2685546875
 30
0.0
  0
VERTEX
  5
1D5
330
1D3
100
AcDbEntity
  8
Capa 1
 62
   252
420
  9672087
370
     9
100
AcDbVertex
100
AcDb2dVertex
 10
208.533203125
 20
575.2685546875
 30
0.0
  0
VERTEX
  5
1D6
330
1D3
100
AcDbEntity
  8
Capa 1
 62
   252
420
  9672087
370
     9
100
AcDbVertex
100
AcDb2dVertex
 10
207.84814453125
 20
579.37939453125
 30
0.0
  0
VERTEX
  5
1D7
330
1D3
100
AcDbEntity
  8
Capa 1
 62
   252
420
  9672087
370
     9
100
AcDbVertex
100
AcDb2dVertex
 10
207.16015625
 20
575.2685546875
 30
0.0
  0
SEQEND
  5
1D8
330
1D3
100
AcDbEntity
  8
Capa 1
370
     9
  0
POLYLINE
  5
1D9
330
1F
100
AcDbEntity
  8
Capa 1
370
     0
100
AcDb2dPolyline
 66
     1
 10
0.0
 20
0.0
 30
0.0
  0
VERTEX
  5
1DA
330
1D9
100
AcDbEntity
  8
Capa 1
370
     0
100
AcDbVertex
100
AcDb2dVertex
 10
207.162109375
 20
454.6826171875
 30
0.0
  0
VERTEX
  5
1DB
330
1D9
100
AcDbEntity
  8
Capa 1
370
     0
100
AcDbVertex
100
AcDb2dVertex
 10
207.84423828125
 20
450.57177734375
 30
0.0
  0
VERTEX
  5
1DC
330
1D9
100
AcDbEntity
  8
Capa 1
370
     0
100
AcDbVertex
100
AcDb2dVertex
 10
208.529296875
 20
454.6826171875
 30
0.0
  0
VERTEX
  5
1DD
330
1D9
100
AcDbEntity
  8
Capa 1
370
     0
100
AcDbVertex
100
AcDb2dVertex
 10
207.162109375
 20
454.6826171875
 30
0.0
  0
SEQEND
  5
1DE
330
1D9
100
AcDbEntity
  8
Capa 1
370
     0
  0
HATCH
  5
1DF
330
1F
100
AcDbEntity
  8
Capa 1
 62
   250
420
  2301728
100
AcDbHatch
 10
0.0
 20
0.0
 30
0.0
210
0.0
220
0.0
230
1.0
  2
SOLID
 70
     1
 71
     0
 91
        1
 92
        1
 93
        3
 72
     1
 10
207.162109375
 20
454.6826171875
 11
207.84423828125
 21
450.57177734375
 72
     1
 10
207.84423828125
 20
450.57177734375
 11
208.529296875
 21
454.6826171875
 72
     1
 10
208.529296875
 20
454.6826171875
 11
207.162109375
 21
454.6826171875
 97
        0
 75
     2
 76
     1
 98
        0
  0
POLYLINE
  5
1E0
330
1F
100
AcDbEntity
  8
Capa 1
 62
   252
420
  9672087
370
     9
100
AcDb2dPolyline
 66
     1
 10
0.0
 20
0.0
 30
0.0
  0
VERTEX
  5
1E1
330
1E0
100
AcDbEntity
  8
Capa 1
 62
   252
420
  9672087
370
     9
100
AcDbVertex
100
AcDb2dVertex
 10
207.16015625
 20
454.6787109375
 30
0.0
  0
VERTEX
  5
1E2
330
1E0
100
AcDbEntity
  8
Capa 1
 62
   252
420
  9672087
370
     9
100
AcDbVertex
100
AcDb2dVertex
 10
208.533203125
 20
454.6787109375
 30
0.0
  0
VERTEX
  5
1E3
330
1E0
100
AcDbEntity
  8
Capa 1
 62
   252
420
  9672087
370
     9
100
AcDbVertex
100
AcDb2dVertex
 10
207.84814453125
 20
450.56787109375
 30
0.0
  0
VERTEX
  5
1E4
330
1E0
100
AcDbEntity
  8
Capa 1
 62
   252
420
  9672087
370
     9
100
AcDbVertex
100
AcDb2dVertex
 10
207.16015625
 20
454.6787109375
 30
0.0
  0
SEQEND
  5
1E5
330
1E0
100
AcDbEntity
  8
Capa 1
370
     9
  0
INSERT
  5
1E7
330
1F
100
AcDbEntity
  8
Capa 1
100
AcDbBlockReference
  2
block 4
 10
0.0
 20
0.0
 30
0.0
  0
MTEXT
  5
245
330
1F
100
AcDbEntity
  8
Capa 1
 62
   250
420
  2301728
100
AcDbMText
 10
313.86279296875
 20
623.0029296875
 30
0.0
 40
8.16
 41
0.0
 71
     7
 72
     1
  1
\fArial|b1|i0|c0|p34;\W1;480
 73
     1
 44
1.0
  0
MTEXT
  5
246
330
1F
100
AcDbEntity
  8
Capa 1
 62
   250
420
  2301728
100
AcDbMText
 10
195.25439453125
 20
511.53515625
 30
0.0
 40
8.16
 41
0.0
 71
     7
 72
     1
  1
\fArial|b1|i0|c0|p34;\W1;365
 73
     1
 44
1.0
  0
MTEXT
  5
247
330
1F
100
AcDbEntity
  8
Capa 1
 62
   250
420
  2301728
100
AcDbMText
 10
316.62255859375
 20
652.4990234375
 30
0.0
 40
8.16
 41
0.0
 71
     7
 72
     1
  1
\fArial|b1|i0|c0|p34;\W1;545
 73
     1
 44
1.0
  0
MTEXT
  5
248
330
1F
100
AcDbEntity
  8
Capa 1
 62
   250
420
  2301728
100
AcDbMText
 10
165.96240234375
 20
511.53515625
 30
0.0
 40
8.16
 41
0.0
 71
     7
 72
     1
  1
\fArial|b1|i0|c0|p34;\W1;430
 73
     1
 44
1.0
  0
ENDSEC
  0
SECTION
  2
OBJECTS
  0
DICTIONARY
  5
C
330
0
100
AcDbDictionary
281
     1
  3
ACAD_GROUP
350
D
  3
ACAD_LAYOUT
350
1A
  3
ACAD_MLINESTYLE
350
17
  3
ACAD_PLOTSETTINGS
350
19
  3
ACAD_PLOTSTYLENAME
350
E
  3
ACAD_TABLESTYLE
350
249
  3
ACAD_VISUALSTYLE
350
2A
  0
DICTIONARY
  5
D
102
{ACAD_REACTORS
330
C
102
}
330
C
100
AcDbDictionary
281
     1
  0
DICTIONARY
  5
1A
102
{ACAD_REACTORS
330
C
102
}
330
C
100
AcDbDictionary
281
     1
  3
Layout1
350
1E
  3
Layout2
350
26
  3
Model
350
22
  0
DICTIONARY
  5
17
102
{ACAD_REACTORS
330
C
102
}
330
C
100
AcDbDictionary
281
     1
  3
Standard
350
18
  0
DICTIONARY
  5
19
102
{ACAD_REACTORS
330
C
102
}
330
C
100
AcDbDictionary
281
     1
  0
ACDBDICTIONARYWDFLT
  5
E
102
{ACAD_REACTORS
330
C
102
}
330
C
100
AcDbDictionary
281
     1
  3
Normal
350
F
100
AcDbDictionaryWithDefault
340
F
  0
DICTIONARY
  5
249
102
{ACAD_REACTORS
330
C
102
}
330
C
100
AcDbDictionary
281
     1
  0
DICTIONARY
  5
2A
102
{ACAD_REACTORS
330
C
102
}
330
C
100
AcDbDictionary
281
     1
  3
2dWireframe
350
2F
  3
3D Hidden
350
31
  3
3dWireframe
350
30
  3
Basic
350
32
  3
Brighten
350
36
  3
ColorChange
350
3A
  3
Conceptual
350
34
  3
Dim
350
35
  3
Facepattern
350
39
  3
Flat
350
2B
  3
FlatWithEdges
350
2C
  3
Gouraud
350
2D
  3
GouraudWithEdges
350
2E
  3
Linepattern
350
38
  3
Realistic
350
33
  3
Thicken
350
37
  0
LAYOUT
  5
1E
102
{ACAD_REACTORS
330
1A
102
}
330
1A
100
AcDbPlotSettings
  1

  2
none_device
  4

  6

 40
0.0
 41
0.0
 42
0.0
 43
0.0
 44
0.0
 45
0.0
 46
0.0
 47
0.0
 48
0.0
 49
0.0
140
0.0
141
0.0
142
1.0
143
1.0
 70
   688
 72
     0
 73
     0
 74
     5
  7

 75
    16
 76
     0
 77
     2
 78
   300
147
1.0
148
0.0
149
0.0
100
AcDbLayout
  1
Layout1
 70
     1
 71
     1
 10
0.0
 20
0.0
 11
12.0
 21
9.0
 12
0.0
 22
0.0
 32
0.0
 14
1.000000000000000E+20
 24
1.000000000000000E+20
 34
1.000000000000000E+20
 15
-1.000000000000000E+20
 25
-1.000000000000000E+20
 35
-1.000000000000000E+20
146
0.0
 13
0.0
 23
0.0
 33
0.0
 16
1.0
 26
0.0
 36
0.0
 17
0.0
 27
1.0
 37
0.0
 76
     0
330
1B
  0
LAYOUT
  5
26
102
{ACAD_REACTORS
330
1A
102
}
330
1A
100
AcDbPlotSettings
  1

  2
none_device
  4

  6

 40
0.0
 41
0.0
 42
0.0
 43
0.0
 44
0.0
 45
0.0
 46
0.0
 47
0.0
 48
0.0
 49
0.0
140
0.0
141
0.0
142
1.0
143
1.0
 70
   688
 72
     0
 73
     0
 74
     5
  7

 75
    16
 76
     0
 77
     2
 78
   300
147
1.0
148
0.0
149
0.0
100
AcDbLayout
  1
Layout2
 70
     1
 71
     2
 10
0.0
 20
0.0
 11
0.0
 21
0.0
 12
0.0
 22
0.0
 32
0.0
 14
0.0
 24
0.0
 34
0.0
 15
0.0
 25
0.0
 35
0.0
146
0.0
 13
0.0
 23
0.0
 33
0.0
 16
1.0
 26
0.0
 36
0.0
 17
0.0
 27
1.0
 37
0.0
 76
     0
330
23
  0
LAYOUT
  5
22
102
{ACAD_REACTORS
330
1A
102
}
330
1A
100
AcDbPlotSettings
  1

  2
none_device
  4

  6

 40
0.0
 41
0.0
 42
0.0
 43
0.0
 44
0.0
 45
0.0
 46
0.0
 47
0.0
 48
0.0
 49
0.0
140
0.0
141
0.0
142
1.0
143
1.0
 70
  1712
 72
     0
 73
     0
 74
     0
  7

 75
     0
 76
     0
 77
     2
 78
   300
147
1.0
148
0.0
149
0.0
100
AcDbLayout
  1
Model
 70
     1
 71
     0
 10
0.0
 20
0.0
 11
12.0
 21
9.0
 12
0.0
 22
0.0
 32
0.0
 14
1.000000000000000E+20
 24
1.000000000000000E+20
 34
1.000000000000000E+20
 15
-1.000000000000000E+20
 25
-1.000000000000000E+20
 35
-1.000000000000000E+20
146
0.0
 13
0.0
 23
0.0
 33
0.0
 16
1.0
 26
0.0
 36
0.0
 17
0.0
 27
1.0
 37
0.0
 76
     0
330
1F
331
29
  0
MLINESTYLE
  5
18
102
{ACAD_REACTORS
330
17
102
}
330
17
100
AcDbMlineStyle
  2
Standard
 70
     0
  3

 62
   256
 51
90.0
 52
90.0
 71
     2
 49
0.5
 62
   256
  6
BYLAYER
 49
-0.5
 62
   256
  6
BYLAYER
  0
ACDBPLACEHOLDER
  5
F
102
{ACAD_REACTORS
330
E
102
}
330
E
  0
VISUALSTYLE
  5
2F
102
{ACAD_REACTORS
330
2A
102
}
330
2A
100
AcDbVisualStyle
  2
2dWireframe
 70
     4
 71
     0
 72
     2
 73
     0
 90
        0
 40
-0.6
 41
-30.0
 62
     5
 63
     7
421
 16777215
 74
     1
 91
        4
 64
     7
 65
   257
 75
     1
175
     1
 42
1.0
 92
        0
 66
   257
 43
1.0
 76
     1
 77
     6
 78
     2
 67
     7
 79
     5
170
     0
171
     0
290
     0
174
     0
 93
        1
 44
0.0
173
     0
291
     0
 45
0.0
1001
ACAD
1000
AcDbSavedByObjectVersion
1070
     0
  0
VISUALSTYLE
  5
31
102
{ACAD_REACTORS
330
2A
102
}
330
2A
100
AcDbVisualStyle
  2
3D Hidden
 70
     6
 71
     1
 72
     2
 73
     2
 90
        0
 40
-0.6
 41
-30.0
 62
     5
 63
     7
421
 16777215
 74
     2
 91
        2
 64
     7
 65
   257
 75
     2
175
     1
 42
40.0
 92
        0
 66
   257
 43
1.0
 76
     1
 77
     6
 78
     2
 67
     7
 79
     3
170
     0
171
     0
290
     0
174
     0
 93
        1
 44
0.0
173
     0
291
     0
 45
0.0
1001
ACAD
1000
AcDbSavedByObjectVersion
1070
     0
  0
VISUALSTYLE
  5
30
102
{ACAD_REACTORS
330
2A
102
}
330
2A
100
AcDbVisualStyle
  2
3dWireframe
 70
     5
 71
     0
 72
     2
 73
     0
 90
        0
 40
-0.6
 41
-30.0
 62
     5
 63
     7
421
 16777215
 74
     1
 91
        4
 64
     7
 65
   257
 75
     1
175
     1
 42
1.0
 92
        0
 66
   257
 43
1.0
 76
     1
 77
     6
 78
     2
 67
     7
 79
     5
170
     0
171
     0
290
     0
174
     0
 93
        1
 44
0.0
173
     0
291
     0
 45
0.0
1001
ACAD
1000
AcDbSavedByObjectVersion
1070
     0
  0
VISUALSTYLE
  5
32
102
{ACAD_REACTORS
330
2A
102
}
330
2A
100
AcDbVisualStyle
  2
Basic
 70
     7
 71
     1
 72
     0
 73
     1
 90
        0
 40
-0.6
 41
-30.0
 62
     5
 63
     7
421
 16777215
 74
     0
 91
        4
 64
     7
 65
   257
 75
     1
175
     1
 42
1.0
 92
        8
 66
     7
 43
1.0
 76
     1
 77
     6
 78
     2
 67
     7
 79
     5
170
     0
171
     0
290
     0
174
     0
 93
        1
 44
0.0
173
     0
291
     1
 45
0.0
1001
ACAD
1000
AcDbSavedByObjectVersion
1070
     0
  0
VISUALSTYLE
  5
36
102
{ACAD_REACTORS
330
2A
102
}
330
2A
100
AcDbVisualStyle
  2
Brighten
 70
    12
 71
     2
 72
     2
 73
     0
 90
        0
 40
-0.6
 41
-30.0
 62
     5
 63
     7
421
 16777215
 74
     1
 91
        4
 64
     7
 65
   257
 75
     1
175
     1
 42
1.0
 92
        8
 66
     7
 43
1.0
 76
     1
 77
     6
 78
     2
 67
     7
 79
     5
170
     0
171
     0
290
     0
174
     0
 93
        1
 44
50.0
173
     0
291
     1
 45
0.0
1001
ACAD
1000
AcDbSavedByObjectVersion
1070
     0
  0
VISUALSTYLE
  5
3A
102
{ACAD_REACTORS
330
2A
102
}
330
2A
100
AcDbVisualStyle
  2
ColorChange
 70
    16
 71
     2
 72
     2
 73
     3
 90
        0
 40
-0.6
 41
-30.0
 62
     5
 63
     8
421
  8421504
 74
     1
 91
        4
 64
     7
 65
   257
 75
     1
175
     1
 42
1.0
 92
        8
 66
     8
424
  8421504
 43
1.0
 76
     1
 77
     6
 78
     2
 67
     7
 79
     5
170
     0
171
     0
290
     0
174
     0
 93
        1
 44
0.0
173
     0
291
     1
 45
0.0
1001
ACAD
1000
AcDbSavedByObjectVersion
1070
     0
  0
VISUALSTYLE
  5
34
102
{ACAD_REACTORS
330
2A
102
}
330
2A
100
AcDbVisualStyle
  2
Conceptual
 70
     9
 71
     3
 72
     2
 73
     0
 90
        0
 40
-0.6
 41
-30.0
 62
     5
 63
     7
421
 16777215
 74
     2
 91
        2
 64
     7
 65
   257
 75
     1
175
     1
 42
40.0
 92
        8
 66
     7
 43
1.0
 76
     1
 77
     6
 78
     2
 67
     7
 79
     3
170
     0
171
     0
290
     0
174
     0
 93
        1
 44
0.0
173
     0
291
     0
 45
0.0
1001
ACAD
1000
AcDbSavedByObjectVersion
1070
     0
  0
VISUALSTYLE
  5
35
102
{ACAD_REACTORS
330
2A
102
}
330
2A
100
AcDbVisualStyle
  2
Dim
 70
    11
 71
     2
 72
     2
 73
     0
 90
        0
 40
-0.6
 41
-30.0
 62
     5
 63
     7
421
 16777215
 74
     1
 91
        4
 64
     7
 65
   257
 75
     1
175
     1
 42
1.0
 92
        8
 66
     7
 43
1.0
 76
     1
 77
     6
 78
     2
 67
     7
 79
     5
170
     0
171
     0
290
     0
174
     0
 93
        1
 44
-50.0
173
     0
291
     1
 45
0.0
1001
ACAD
1000
AcDbSavedByObjectVersion
1070
     0
  0
VISUALSTYLE
  5
39
102
{ACAD_REACTORS
330
2A
102
}
330
2A
100
AcDbVisualStyle
  2
Facepattern
 70
    15
 71
     2
 72
     2
 73
     0
 90
        0
 40
-0.6
 41
-30.0
 62
     5
 63
     7
421
 16777215
 74
     1
 91
        4
 64
     7
 65
   257
 75
     1
175
     1
 42
1.0
 92
        8
 66
     7
 43
1.0
 76
     1
 77
     6
 78
     2
 67
     7
 79
     5
170
     0
171
     0
290
     0
174
     0
 93
        1
 44
0.0
173
     0
291
     1
 45
0.0
1001
ACAD
1000
AcDbSavedByObjectVersion
1070
     0
  0
VISUALSTYLE
  5
2B
102
{ACAD_REACTORS
330
2A
102
}
330
2A
100
AcDbVisualStyle
  2
Flat
 70
     0
 71
     2
 72
     1
 73
     1
 90
        2
 40
-0.6
 41
30.0
 62
     5
 63
     7
421
 16777215
 74
     0
 91
        4
 64
     7
 65
   257
 75
     1
175
     1
 42
1.0
 92
        8
 66
     7
 43
1.0
 76
     1
 77
     6
 78
     2
 67
     7
 79
     5
170
     0
171
     0
290
     0
174
     0
 93
       13
 44
0.0
173
     0
291
     1
 45
0.0
1001
ACAD
1000
AcDbSavedByObjectVersion
1070
     0
  0
VISUALSTYLE
  5
2C
102
{ACAD_REACTORS
330
2A
102
}
330
2A
100
AcDbVisualStyle
  2
FlatWithEdges
 70
     1
 71
     2
 72
     1
 73
     1
 90
        2
 40
-0.6
 41
30.0
 62
     5
 63
     7
421
 16777215
 74
     1
 91
        4
 64
     7
 65
   257
 75
     1
175
     1
 42
1.0
 92
        0
 66
   257
 43
1.0
 76
     1
 77
     6
 78
     2
 67
     7
 79
     5
170
     0
171
     0
290
     0
174
     0
 93
       13
 44
0.0
173
     0
291
     1
 45
0.0
1001
ACAD
1000
AcDbSavedByObjectVersion
1070
     0
  0
VISUALSTYLE
  5
2D
102
{ACAD_REACTORS
330
2A
102
}
330
2A
100
AcDbVisualStyle
  2
Gouraud
 70
     2
 71
     2
 72
     2
 73
     1
 90
        2
 40
-0.6
 41
30.0
 62
     5
 63
     7
421
 16777215
 74
     0
 91
        4
 64
     7
 65
   257
 75
     1
175
     1
 42
1.0
 92
        0
 66
     7
 43
1.0
 76
     1
 77
     6
 78
     2
 67
     7
 79
     5
170
     0
171
     0
290
     0
174
     0
 93
       13
 44
0.0
173
     0
291
     1
 45
0.0
1001
ACAD
1000
AcDbSavedByObjectVersion
1070
     0
  0
VISUALSTYLE
  5
2E
102
{ACAD_REACTORS
330
2A
102
}
330
2A
100
AcDbVisualStyle
  2
GouraudWithEdges
 70
     3
 71
     2
 72
     2
 73
     1
 90
        2
 40
-0.6
 41
30.0
 62
     5
 63
     7
421
 16777215
 74
     1
 91
        4
 64
     7
 65
   257
 75
     1
175
     1
 42
1.0
 92
        0
 66
   257
 43
1.0
 76
     1
 77
     6
 78
     2
 67
     7
 79
     5
170
     0
171
     0
290
     0
174
     0
 93
       13
 44
0.0
173
     0
291
     1
 45
0.0
1001
ACAD
1000
AcDbSavedByObjectVersion
1070
     0
  0
VISUALSTYLE
  5
38
102
{ACAD_REACTORS
330
2A
102
}
330
2A
100
AcDbVisualStyle
  2
Linepattern
 70
    14
 71
     2
 72
     2
 73
     0
 90
        0
 40
-0.6
 41
-30.0
 62
     5
 63
     7
421
 16777215
 74
     1
 91
        4
 64
     7
 65
   257
 75
     7
175
     7
 42
1.0
 92
        8
 66
     7
 43
1.0
 76
     1
 77
     6
 78
     2
 67
     7
 79
     5
170
     0
171
     0
290
     0
174
     0
 93
        1
 44
0.0
173
     0
291
     1
 45
0.0
1001
ACAD
1000
AcDbSavedByObjectVersion
1070
     0
  0
VISUALSTYLE
  5
33
102
{ACAD_REACTORS
330
2A
102
}
330
2A
100
AcDbVisualStyle
  2
Realistic
 70
     8
 71
     2
 72
     2
 73
     0
 90
        0
 40
-0.6
 41
-30.0
 62
     5
 63
     7
421
 16777215
 74
     1
 91
        0
 64
     7
 65
   257
 75
     1
175
     1
 42
1.0
 92
        8
 66
     8
424
  7895160
 43
1.0
 76
     1
 77
     6
 78
     2
 67
     7
 79
     5
170
     0
171
     0
290
     0
174
     0
 93
       13
 44
0.0
173
     0
291
     0
 45
0.0
1001
ACAD
1000
AcDbSavedByObjectVersion
1070
     0
  0
VISUALSTYLE
  5
37
102
{ACAD_REACTORS
330
2A
102
}
330
2A
100
AcDbVisualStyle
  2
Thicken
 70
    13
 71
     2
 72
     2
 73
     0
 90
        0
 40
-0.6
 41
-30.0
 62
     5
 63
     7
421
 16777215
 74
     1
 91
        4
 64
     7
 65
   257
 75
     1
175
     1
 42
1.0
 92
       12
 66
     7
 43
1.0
 76
     1
 77
     6
 78
     2
 67
     7
 79
     5
170
     0
171
     0
290
     0
174
     0
 93
        1
 44
0.0
173
     0
291
     1
 45
0.0
1001
ACAD
1000
AcDbSavedByObjectVersion
1070
     0
  0
ENDSEC
  0
EOF
