  0
SECTION
  2
HEADER
  9
$ACADVER
  1
AC1015
  9
$ACADMAINTVER
 70
    20
  9
$DWGCODEPAGE
  3
ANSI_1252
  9
$INSBASE
 10
0.0
 20
0.0
 30
0.0
  9
$EXTMIN
 10
1257.745684438755
 20
4191.074879632077
 30
0.0
  9
$EXTMAX
 10
1763.838632934386
 20
4520.153516131152
 30
0.0
  9
$LIMMIN
 10
0.0
 20
0.0
  9
$LIMMAX
 10
420.0
 20
297.0
  9
$ORTHOMODE
 70
     0
  9
$REGENMODE
 70
     1
  9
$FILLMODE
 70
     1
  9
$QTEXTMODE
 70
     0
  9
$MIRRTEXT
 70
     0
  9
$LTSCALE
 40
1.0
  9
$ATTMODE
 70
     1
  9
$TEXTSIZE
 40
2.5
  9
$TRACEWID
 40
1.0
  9
$TEXTSTYLE
  7
Standard
  9
$CLAYER
  8
0
  9
$CELTYPE
  6
ByLayer
  9
$CECOLOR
 62
   256
  9
$CELTSCALE
 40
1.0
  9
$DISPSILH
 70
     0
  9
$DIMSCALE
 40
1.0
  9
$DIMASZ
 40
2.5
  9
$DIMEXO
 40
0.625
  9
$DIMDLI
 40
3.75
  9
$DIMRND
 40
0.0
  9
$DIMDLE
 40
0.0
  9
$DIMEXE
 40
1.25
  9
$DIMTP
 40
0.0
  9
$DIMTM
 40
0.0
  9
$DIMTXT
 40
2.5
  9
$DIMCEN
 40
2.5
  9
$DIMTSZ
 40
0.0
  9
$DIMTOL
 70
     0
  9
$DIMLIM
 70
     0
  9
$DIMTIH
 70
     0
  9
$DIMTOH
 70
     0
  9
$DIMSE1
 70
     0
  9
$DIMSE2
 70
     0
  9
$DIMTAD
 70
     1
  9
$DIMZIN
 70
     8
  9
$DIMBLK
  1

  9
$DIMASO
 70
     1
  9
$DIMSHO
 70
     1
  9
$DIMPOST
  1

  9
$DIMAPOST
  1

  9
$DIMALT
 70
     0
  9
$DIMALTD
 70
     3
  9
$DIMALTF
 40
0.03937007874016
  9
$DIMLFAC
 40
1.0
  9
$DIMTOFL
 70
     1
  9
$DIMTVP
 40
0.0
  9
$DIMTIX
 70
     0
  9
$DIMSOXD
 70
     0
  9
$DIMSAH
 70
     0
  9
$DIMBLK1
  1

  9
$DIMBLK2
  1

  9
$DIMSTYLE
  2
ISO-25
  9
$DIMCLRD
 70
     0
  9
$DIMCLRE
 70
     0
  9
$DIMCLRT
 70
     0
  9
$DIMTFAC
 40
1.0
  9
$DIMGAP
 40
0.625
  9
$DIMJUST
 70
     0
  9
$DIMSD1
 70
     0
  9
$DIMSD2
 70
     0
  9
$DIMTOLJ
 70
     0
  9
$DIMTZIN
 70
     8
  9
$DIMALTZ
 70
     0
  9
$DIMALTTZ
 70
     0
  9
$DIMUPT
 70
     0
  9
$DIMDEC
 70
     2
  9
$DIMTDEC
 70
     2
  9
$DIMALTU
 70
     2
  9
$DIMALTTD
 70
     3
  9
$DIMTXSTY
  7
Standard
  9
$DIMAUNIT
 70
     0
  9
$DIMADEC
 70
     0
  9
$DIMALTRND
 40
0.0
  9
$DIMAZIN
 70
     0
  9
$DIMDSEP
 70
    44
  9
$DIMATFIT
 70
     3
  9
$DIMFRAC
 70
     0
  9
$DIMLDRBLK
  1

  9
$DIMLUNIT
 70
     2
  9
$DIMLWD
 70
    -2
  9
$DIMLWE
 70
    -2
  9
$DIMTMOVE
 70
     0
  9
$LUNITS
 70
     2
  9
$LUPREC
 70
     4
  9
$SKETCHINC
 40
1.0
  9
$FILLETRAD
 40
0.0
  9
$AUNITS
 70
     0
  9
$AUPREC
 70
     0
  9
$MENU
  1
.
  9
$ELEVATION
 40
0.0
  9
$PELEVATION
 40
0.0
  9
$THICKNESS
 40
0.0
  9
$LIMCHECK
 70
     0
  9
$CHAMFERA
 40
0.0
  9
$CHAMFERB
 40
0.0
  9
$CHAMFERC
 40
0.0
  9
$CHAMFERD
 40
0.0
  9
$SKPOLY
 70
     0
  9
$TDCREATE
 40
2454483.823867720
  9
$TDUCREATE
 40
2454483.782201053
  9
$TDUPDATE
 40
2454544.448288658
  9
$TDUUPDATE
 40
2454544.406621991
  9
$TDINDWG
 40
0.0245607176
  9
$TDUSRTIMER
 40
0.0245547569
  9
$USRTIMER
 70
     1
  9
$ANGBASE
 50
0.0
  9
$ANGDIR
 70
     0
  9
$PDMODE
 70
     0
  9
$PDSIZE
 40
0.0
  9
$PLINEWID
 40
0.0
  9
$SPLFRAME
 70
     0
  9
$SPLINETYPE
 70
     6
  9
$SPLINESEGS
 70
     8
  9
$HANDSEED
  5
37E
  9
$SURFTAB1
 70
     6
  9
$SURFTAB2
 70
     6
  9
$SURFTYPE
 70
     6
  9
$SURFU
 70
     6
  9
$SURFV
 70
     6
  9
$UCSBASE
  2

  9
$UCSNAME
  2

  9
$UCSORG
 10
0.0
 20
0.0
 30
0.0
  9
$UCSXDIR
 10
1.0
 20
0.0
 30
0.0
  9
$UCSYDIR
 10
0.0
 20
1.0
 30
0.0
  9
$UCSORTHOREF
  2

  9
$UCSORTHOVIEW
 70
     0
  9
$UCSORGTOP
 10
0.0
 20
0.0
 30
0.0
  9
$UCSORGBOTTOM
 10
0.0
 20
0.0
 30
0.0
  9
$UCSORGLEFT
 10
0.0
 20
0.0
 30
0.0
  9
$UCSORGRIGHT
 10
0.0
 20
0.0
 30
0.0
  9
$UCSORGFRONT
 10
0.0
 20
0.0
 30
0.0
  9
$UCSORGBACK
 10
0.0
 20
0.0
 30
0.0
  9
$PUCSBASE
  2

  9
$PUCSNAME
  2

  9
$PUCSORG
 10
0.0
 20
0.0
 30
0.0
  9
$PUCSXDIR
 10
1.0
 20
0.0
 30
0.0
  9
$PUCSYDIR
 10
0.0
 20
1.0
 30
0.0
  9
$PUCSORTHOREF
  2

  9
$PUCSORTHOVIEW
 70
     0
  9
$PUCSORGTOP
 10
0.0
 20
0.0
 30
0.0
  9
$PUCSORGBOTTOM
 10
0.0
 20
0.0
 30
0.0
  9
$PUCSORGLEFT
 10
0.0
 20
0.0
 30
0.0
  9
$PUCSORGRIGHT
 10
0.0
 20
0.0
 30
0.0
  9
$PUCSORGFRONT
 10
0.0
 20
0.0
 30
0.0
  9
$PUCSORGBACK
 10
0.0
 20
0.0
 30
0.0
  9
$USERI1
 70
     0
  9
$USERI2
 70
     0
  9
$USERI3
 70
     0
  9
$USERI4
 70
     0
  9
$USERI5
 70
     0
  9
$USERR1
 40
0.0
  9
$USERR2
 40
0.0
  9
$USERR3
 40
0.0
  9
$USERR4
 40
0.0
  9
$USERR5
 40
0.0
  9
$WORLDVIEW
 70
     1
  9
$SHADEDGE
 70
     3
  9
$SHADEDIF
 70
    70
  9
$TILEMODE
 70
     1
  9
$MAXACTVP
 70
    64
  9
$PINSBASE
 10
0.0
 20
0.0
 30
0.0
  9
$PLIMCHECK
 70
     0
  9
$PEXTMIN
 10
0.0
 20
0.0
 30
0.0
  9
$PEXTMAX
 10
0.0
 20
0.0
 30
0.0
  9
$PLIMMIN
 10
0.0
 20
0.0
  9
$PLIMMAX
 10
12.0
 20
9.0
  9
$UNITMODE
 70
     0
  9
$VISRETAIN
 70
     1
  9
$PLINEGEN
 70
     0
  9
$PSLTSCALE
 70
     1
  9
$TREEDEPTH
 70
  3020
  9
$CMLSTYLE
  2
Standard
  9
$CMLJUST
 70
     0
  9
$CMLSCALE
 40
20.0
  9
$PROXYGRAPHICS
 70
     1
  9
$MEASUREMENT
 70
     1
  9
$CELWEIGHT
370
    -1
  9
$ENDCAPS
280
     0
  9
$JOINSTYLE
280
     0
  9
$LWDISPLAY
290
     0
  9
$INSUNITS
 70
     4
  9
$HYPERLINKBASE
  1

  9
$STYLESHEET
  1

  9
$XEDIT
290
     1
  9
$CEPSNTYPE
380
     0
  9
$PSTYLEMODE
290
     1
  9
$FINGERPRINTGUID
  2
{FDEAD578-A652-11D2-9A35-0060089B3A3F}
  9
$VERSIONGUID
  2
{5BDA8C7D-68E2-414F-A704-1F24A984A2DA}
  9
$EXTNAMES
290
     1
  9
$PSVPSCALE
 40
0.0
  9
$OLESTARTUP
290
     0
  0
ENDSEC
  0
SECTION
  2
CLASSES
  0
CLASS
  1
ACDBDICTIONARYWDFLT
  2
AcDbDictionaryWithDefault
  3
ObjectDBX Classes
 90
        0
280
     0
281
     0
  0
CLASS
  1
DICTIONARYVAR
  2
AcDbDictionaryVar
  3
ObjectDBX Classes
 90
        0
280
     0
281
     0
  0
CLASS
  1
RASTERVARIABLES
  2
AcDbRasterVariables
  3
ISM
 90
        0
280
     0
281
     0
  0
CLASS
  1
IMAGEDEF
  2
AcDbRasterImageDef
  3
ISM
 90
        0
280
     0
281
     0
  0
CLASS
  1
IMAGEDEF_REACTOR
  2
AcDbRasterImageDefReactor
  3
ISM
 90
    32769
280
     0
281
     0
  0
CLASS
  1
IMAGE
  2
AcDbRasterImage
  3
ISM
 90
    32895
280
     0
281
     1
  0
CLASS
  1
SORTENTSTABLE
  2
AcDbSortentsTable
  3
ObjectDBX Classes
 90
        0
280
     0
281
     0
  0
CLASS
  1
TABLESTYLE
  2
AcDbTableStyle
  3
ObjectDBX Classes
 90
     2047
280
     0
281
     0
  0
CLASS
  1
ACDBPLACEHOLDER
  2
AcDbPlaceHolder
  3
ObjectDBX Classes
 90
        0
280
     0
281
     0
  0
CLASS
  1
LAYOUT
  2
AcDbLayout
  3
ObjectDBX Classes
 90
        0
280
     0
281
     0
  0
ENDSEC
  0
SECTION
  2
TABLES
  0
TABLE
  2
VPORT
  5
8
330
0
100
AcDbSymbolTable
 70
     2
  0
VPORT
  5
375
330
8
100
AcDbSymbolTableRecord
100
AcDbViewportTableRecord
  2
*Active
 70
     0
 10
0.0
 20
0.0
 11
1.0
 21
1.0
 12
1521.292831538751
 22
4409.304965219067
 13
0.0
 23
0.0
 14
10.0
 24
10.0
 15
10.0
 25
10.0
 16
0.0
 26
0.0
 36
1.0
 17
0.0
 27
0.0
 37
0.0
 40
987.6481244214181
 41
1.454088050314465
 42
50.0
 43
0.0
 44
0.0
 50
0.0
 51
0.0
 71
     0
 72
  1000
 73
     1
 74
     3
 75
     0
 76
     0
 77
     0
 78
     0
281
     0
 65
     1
110
0.0
120
0.0
130
0.0
111
1.0
121
0.0
131
0.0
112
0.0
122
1.0
132
0.0
 79
     0
146
0.0
  0
ENDTAB
  0
TABLE
  2
LTYPE
  5
5
330
0
100
AcDbSymbolTable
 70
     1
  0
LTYPE
  5
14
330
5
100
AcDbSymbolTableRecord
100
AcDbLinetypeTableRecord
  2
ByBlock
 70
     0
  3

 72
    65
 73
     0
 40
0.0
  0
LTYPE
  5
15
330
5
100
AcDbSymbolTableRecord
100
AcDbLinetypeTableRecord
  2
ByLayer
 70
     0
  3

 72
    65
 73
     0
 40
0.0
  0
LTYPE
  5
16
330
5
100
AcDbSymbolTableRecord
100
AcDbLinetypeTableRecord
  2
Continuous
 70
     0
  3
Solid line
 72
    65
 73
     0
 40
0.0
  0
ENDTAB
  0
TABLE
  2
LAYER
  5
2
102
{ACAD_XDICTIONARY
360
F9
102
}
330
0
100
AcDbSymbolTable
 70
     1
  0
LAYER
  5
10
330
2
100
AcDbSymbolTableRecord
100
AcDbLayerTableRecord
  2
0
 70
     0
 62
     7
  6
Continuous
370
    -3
390
F
  0
ENDTAB
  0
TABLE
  2
STYLE
  5
3
330
0
100
AcDbSymbolTable
 70
     1
  0
STYLE
  5
11
330
3
100
AcDbSymbolTableRecord
100
AcDbTextStyleTableRecord
  2
Standard
 70
     0
 40
0.0
 41
1.0
 50
0.0
 71
     0
 42
2.5
  3
txt
  4

  0
ENDTAB
  0
TABLE
  2
VIEW
  5
6
330
0
100
AcDbSymbolTable
 70
     0
  0
ENDTAB
  0
TABLE
  2
UCS
  5
7
330
0
100
AcDbSymbolTable
 70
     0
  0
ENDTAB
  0
TABLE
  2
APPID
  5
9
330
0
100
AcDbSymbolTable
 70
     1
  0
APPID
  5
12
330
9
100
AcDbSymbolTableRecord
100
AcDbRegAppTableRecord
  2
ACAD
 70
     0
  0
ENDTAB
  0
TABLE
  2
DIMSTYLE
  5
A
330
0
100
AcDbSymbolTable
 70
     2
100
AcDbDimStyleTable
 71
     0
  0
DIMSTYLE
105
27
330
A
100
AcDbSymbolTableRecord
100
AcDbDimStyleTableRecord
  2
ISO-25
 70
     0
 41
2.5
 42
0.625
 43
3.75
 44
1.25
 73
     0
 74
     0
 77
     1
 78
     8
140
2.5
141
2.5
143
0.03937007874016
147
0.625
171
     3
172
     1
271
     2
272
     2
274
     3
278
    44
283
     0
284
     8
340
11
  0
DIMSTYLE
105
F8
330
A
100
AcDbSymbolTableRecord
100
AcDbDimStyleTableRecord
  2
STANDARD
 70
     0
340
11
  0
ENDTAB
  0
TABLE
  2
BLOCK_RECORD
  5
1
330
0
100
AcDbSymbolTable
 70
     2
  0
BLOCK_RECORD
  5
1F
102
{ACAD_XDICTIONARY
360
92
102
}
330
1
100
AcDbSymbolTableRecord
100
AcDbBlockTableRecord
  2
*Model_Space
340
22
  0
BLOCK_RECORD
  5
50
330
1
100
AcDbSymbolTableRecord
100
AcDbBlockTableRecord
  2
*Paper_Space
340
51
  0
BLOCK_RECORD
  5
55
330
1
100
AcDbSymbolTableRecord
100
AcDbBlockTableRecord
  2
*Paper_Space0
340
56
  0
BLOCK_RECORD
  5
2D9
102
{ACAD_XDICTIONARY
360
366
102
}
330
1
100
AcDbSymbolTableRecord
100
AcDbBlockTableRecord
  2
26020_A
340
0
310
2800000020000000200000000100080000000000000400000000000000000000000000000000000000000000000080000080000000808000800000008000800080800000C0C0C000C0DCC000F0CAA6000020400000206000002080000020A0000020C0000020E00000400000004020000040400000406000004080000040A0
310
000040C0000040E00000600000006020000060400000606000006080000060A0000060C0000060E00000800000008020000080400000806000008080000080A0000080C0000080E00000A0000000A0200000A0400000A0600000A0800000A0A00000A0C00000A0E00000C0000000C0200000C0400000C0600000C0800000C0
310
A00000C0C00000C0E00000E0000000E0200000E0400000E0600000E0800000E0A00000E0C00000E0E00040000000400020004000400040006000400080004000A0004000C0004000E00040200000402020004020400040206000402080004020A0004020C0004020E000404000004040200040404000404060004040800040
310
40A0004040C0004040E00040600000406020004060400040606000406080004060A0004060C0004060E00040800000408020004080400040806000408080004080A0004080C0004080E00040A0000040A0200040A0400040A0600040A0800040A0A00040A0C00040A0E00040C0000040C0200040C0400040C0600040C08000
310
40C0A00040C0C00040C0E00040E0000040E0200040E0400040E0600040E0800040E0A00040E0C00040E0E00080000000800020008000400080006000800080008000A0008000C0008000E00080200000802020008020400080206000802080008020A0008020C0008020E00080400000804020008040400080406000804080
310
008040A0008040C0008040E00080600000806020008060400080606000806080008060A0008060C0008060E00080800000808020008080400080806000808080008080A0008080C0008080E00080A0000080A0200080A0400080A0600080A0800080A0A00080A0C00080A0E00080C0000080C0200080C0400080C0600080C0
310
800080C0A00080C0C00080C0E00080E0000080E0200080E0400080E0600080E0800080E0A00080E0C00080E0E000C0000000C0002000C0004000C0006000C0008000C000A000C000C000C000E000C0200000C0202000C0204000C0206000C0208000C020A000C020C000C020E000C0400000C0402000C0404000C0406000C0
310
408000C040A000C040C000C040E000C0600000C0602000C0604000C0606000C0608000C060A000C060C000C060E000C0800000C0802000C0804000C0806000C0808000C080A000C080C000C080E000C0A00000C0A02000C0A04000C0A06000C0A08000C0A0A000C0A0C000C0A0E000C0C00000C0C02000C0C04000C0C06000
310
C0C08000C0C0A000F0FBFF00A4A0A000808080000000FF0000FF000000FFFF00FF000000FF00FF00FFFF0000FFFFFF0000000000000000000000000000000000000000000000000000000000000000000000000000000000000000000000000000000000000000000000000000000000000000000000000000000000000000
310
00000000000000000000000000000000000000000000000000000000000000000000000000000000000000000000000000000000000000000000000000000000000000000000000000000000000000000000000000000000000000000000000000000000000000000000000000000000000000000000000000000000000000
310
00000000000000000000000000000000000000000000000000000000000000000000000000000000000000000000000000000000000000000000000000000000000000000000000000000000000000000000000000000000000000000000000000000000000000000000000000000000000000000000000000000000000000
310
0000000000000000000000000000000000000000000000000000000000000000FFFFFFFFFFFF0000000000000000000000000000000000000000000000000000FFFFFFFFFFFF000000000000000000000000000000000000000000000000FFFFFFFF0000FFFFFFFF000000000000000000000000000000000000FFFFFFFF00
310
0000FF0000FF000000FFFFFFFF000000000000000000000000FFFF00000000000000FF0000FF00000000000000FFFF00000000000000000000FF0000000000000000FF0000FF000000000000000000FF0000000000000000FF000000000000000000FF0000FF000000000000000000FF0000000000000000FF000000000000
310
000000FF0000FF00000000000000000000FF00000000FFFFFFFFFFFFFFFFFFFFFFFFFFFFFFFFFFFFFFFFFFFFFFFFFFFFFFFFFFFF0000FFFFFFFFFFFFFFFFFFFFFFFFFFFFFFFFFFFFFFFFFFFFFFFFFFFFFFFFFFFF00000000000000000000000000000000000000000000000000000000000000000000000000000000000000
310
00000000000000000000000000000000000000000000000000000000000000000000000000000000000000000000000000000000000000000000000000000000000000000000000000000000000000000000000000000000000000000000000000000000000000000000000000000000000000000000000000000000000000
310
00000000000000000000000000000000000000000000000000000000000000000000000000000000000000000000000000000000000000000000000000000000000000000000000000000000000000000000000000000000000000000000000000000000000000000000000000000000000000000000000000000000000000
310
0000000000000000000000000000000000000000000000000000000000000000000000000000000000000000000000000000000000000000
102
{BLKREFS
331
301
102
}
1001
ACAD
1000
DesignCenter Data
1002
{
1070
     1
1070
     4
1002
}
  0
ENDTAB
  0
ENDSEC
  0
SECTION
  2
BLOCKS
  0
BLOCK
  5
20
330
1F
100
AcDbEntity
  8
0
100
AcDbBlockBegin
  2
*Model_Space
 70
     0
 10
0.0
 20
0.0
 30
0.0
  3
*Model_Space
  1

  0
ENDBLK
  5
21
330
1F
100
AcDbEntity
  8
0
100
AcDbBlockEnd
  0
BLOCK
  5
52
330
50
100
AcDbEntity
 67
     1
  8
0
100
AcDbBlockBegin
  2
*Paper_Space
 70
     0
 10
0.0
 20
0.0
 30
0.0
  3
*Paper_Space
  1

  0
ENDBLK
  5
53
330
50
100
AcDbEntity
 67
     1
  8
0
100
AcDbBlockEnd
  0
BLOCK
  5
57
330
55
100
AcDbEntity
  8
0
100
AcDbBlockBegin
  2
*Paper_Space0
 70
     0
 10
0.0
 20
0.0
 30
0.0
  3
*Paper_Space0
  1

  0
ENDBLK
  5
58
330
55
100
AcDbEntity
  8
0
100
AcDbBlockEnd
  0
BLOCK
  5
2DA
330
2D9
100
AcDbEntity
  8
0
100
AcDbBlockBegin
  2
26020_A
 70
     0
 10
0.0
 20
0.0
 30
0.0
  3
26020_A
  1

  0
LINE
  5
2DC
330
2D9
100
AcDbEntity
  8
0
  6
Continuous
370
    30
100
AcDbLine
 10
33.62550248599655
 20
-146.9999998807907
 30
0.0
 11
-33.62550248617572
 21
-146.9999998807907
 31
0.0
  0
ARC
  5
2DD
330
2D9
100
AcDbEntity
  8
0
  6
Continuous
370
    30
100
AcDbCircle
 10
-33.62550248617572
 20
-145.4999998807907
 30
0.0
 40
1.5
100
AcDbArc
 50
184.9999895898031
 51
270.0
  0
ARC
  5
2DE
330
2D9
100
AcDbEntity
  8
0
  6
Continuous
370
    30
100
AcDbCircle
 10
33.62550248599655
 20
-145.4999998807907
 30
0.0
 40
1.5
100
AcDbArc
 50
270.0
 51
355.0000644948831
  0
ARC
  5
2DF
330
2D9
100
AcDbEntity
  8
0
  6
Continuous
370
    30
100
AcDbCircle
 10
-236.8765959210605
 20
-7.0
 30
0.0
 40
8.0
100
AcDbArc
 50
181.0000000000278
 51
270.0
  0
LINE
  5
2E0
330
2D9
100
AcDbEntity
  8
0
  6
Continuous
370
    30
100
AcDbLine
 10
-244.99999999991
 20
0.0
 30
0.0
 11
-244.8753774852057
 21
-7.139619439840316
 31
0.0
  0
LINE
  5
2E1
330
2D9
100
AcDbEntity
  8
0
  6
Continuous
370
    30
100
AcDbLine
 10
244.99999999991
 20
0.0
 30
0.0
 11
-244.99999999991
 21
0.0
 31
0.0
  0
LINE
  5
2E2
330
2D9
100
AcDbEntity
  8
0
  6
Continuous
370
    30
100
AcDbLine
 10
35.19992967987128
 20
-144.7147727012634
 30
0.0
 11
35.11979468029313
 21
-145.6307318128647
 31
0.0
  0
LINE
  5
2E3
330
2D9
100
AcDbEntity
  8
0
  6
Continuous
370
    30
100
AcDbLine
 10
244.8753666876855
 20
-7.139619439840316
 30
0.0
 11
244.9999999999109
 21
0.0
 31
0.0
  0
LINE
  5
2E4
330
2D9
100
AcDbEntity
  8
0
  6
Continuous
370
    30
100
AcDbLine
 10
155.9093701792362
 20
-105.943737073926
 30
0.0
 11
45.25841764494361
 21
-109.6216968745966
 31
0.0
  0
ARC
  5
2E5
330
2D9
100
AcDbEntity
  8
0
  6
Continuous
370
    30
100
AcDbCircle
 10
154.6543196748962
 20
-75.97000110005137
 30
0.0
 40
30.0
100
AcDbArc
 50
272.3976696339565
 51
333.4349488229628
  0
LINE
  5
2E6
330
2D9
100
AcDbEntity
  8
0
  6
Continuous
370
    30
100
AcDbLine
 10
35.19992967987128
 20
-144.7147727012634
 30
0.0
 11
37.62354019469785
 21
-116.9174471923143
 31
0.0
  0
ARC
  5
2E7
330
2D9
100
AcDbEntity
  8
0
  6
Continuous
370
    30
100
AcDbCircle
 10
45.59309777943235
 20
-117.6146931342964
 30
0.0
 40
8.0
100
AcDbArc
 50
92.39766963395647
 51
175.0000000000265
  0
LINE
  5
2E8
330
2D9
100
AcDbEntity
  8
0
  6
Continuous
370
    30
100
AcDbLine
 10
236.8765959210623
 20
-14.99999999999181
 30
0.0
 11
-236.8765959210605
 21
-15.00000000002546
 31
0.0
1001
ACAD
1000
ASC_BOUNDS
1002
{
1070
    19
1002
}
  0
LINE
  5
2E9
330
2D9
100
AcDbEntity
  8
0
  6
Continuous
370
    30
100
AcDbLine
 10
216.4691942694089
 20
-19.42229123600191
 30
0.0
 11
181.4871354048964
 21
-89.38640896504603
 31
0.0
  0
ARC
  5
2EA
330
2D9
100
AcDbEntity
  8
0
  6
Continuous
370
    30
100
AcDbCircle
 10
236.8765959210614
 20
-7.0
 30
0.0
 40
8.0
100
AcDbArc
 50
270.0
 51
359.0940151272653
1001
ACAD
1000
ASC_BOUNDS
1002
{
1070
    19
1002
}
  0
LINE
  5
2EB
330
2D9
100
AcDbEntity
  8
0
  6
Continuous
370
    30
100
AcDbLine
 10
34.49271991848946
 20
-22.45703712105751
 30
0.0
 11
29.58815358579159
 21
-94.55413278192281
 31
0.0
  0
ARC
  5
2EC
330
2D9
100
AcDbEntity
  8
0
  6
Continuous
370
    30
100
AcDbCircle
 10
42.47426482049559
 20
-22.99999176933852
 30
0.0
 40
7.999991173296655
100
AcDbArc
 50
89.99993717697556
 51
176.1083779396581
  0
LWPOLYLINE
  5
2ED
330
2D9
100
AcDbEntity
  8
0
  6
Continuous
370
    30
100
AcDbPolyline
 90
       12
 70
   128
 43
0.0
 10
29.58815358579159
 20
-94.55413278192281
 10
29.33438681066036
 20
-98.2845015823841
 10
29.09453213214874
 20
-101.8103826791048
 10
28.87056767940521
 20
-105.1026433706283
 10
28.6643486469984
 20
-108.1340815871954
 10
28.47757376730442
 20
-110.8796522021293
 10
28.31179089844227
 20
-113.3166719228029
 10
28.16836722195148
 20
-115.4250018298626
 10
28.04848738014698
 20
-117.1872243285179
 10
27.95314416289329
 20
-118.588775396347
 10
27.8831236064434
 20
-119.6180805563926
 10
27.06915885210037
 20
-131.5833665430564
  0
LINE
  5
2EE
330
2D9
100
AcDbEntity
  8
0
  6
Continuous
370
     0
100
AcDbLine
 10
35.76327115297317
 20
-109.6054911613464
 30
0.0
 11
45.25841764494361
 21
-109.6216968745966
 31
0.0
  0
ARC
  5
2EF
330
2D9
100
AcDbEntity
  8
0
  6
Continuous
370
     0
100
AcDbCircle
 10
0.4481273038927612
 20
-497.3305144080409
 30
0.0
 40
359.873076210466
100
AcDbArc
 50
87.01966698946595
 51
90.07134684840796
  0
ARC
  5
2F0
330
2D9
100
AcDbEntity
  8
0
  6
Continuous
370
     0
100
AcDbCircle
 10
20.24920135234243
 20
-131.2010744744839
 30
0.0
 40
6.830663768932071
100
AcDbArc
 50
260.8166762048857
 51
356.7916480982121
  0
ARC
  5
2F1
330
2D9
100
AcDbEntity
  8
0
  6
Continuous
370
     0
100
AcDbCircle
 10
36.03715929807004
 20
-117.5989974203021
 30
0.0
 40
7.99819711109924
100
AcDbArc
 50
91.96240516772542
 51
176.0993930849753
  0
ARC
  5
2F2
330
2D9
100
AcDbEntity
  8
0
  6
Continuous
370
    30
100
AcDbCircle
 10
223.6246117974088
 20
-23.0
 30
0.0
 40
8.0
100
AcDbArc
 50
90.0
 51
153.4349488229628
  0
LINE
  5
2F3
330
2D9
100
AcDbEntity
  8
0
  6
Continuous
370
    30
100
AcDbLine
 10
-35.1999209270507
 20
-144.7147727012634
 30
0.0
 11
-35.11978592747255
 21
-145.6307318128647
 31
0.0
  0
LINE
  5
2F4
330
2D9
100
AcDbEntity
  8
0
  6
Continuous
370
    30
100
AcDbLine
 10
-155.9093614264156
 20
-105.943737073926
 30
0.0
 11
-45.25840889212304
 21
-109.6216968745966
 31
0.0
  0
ARC
  5
2F5
330
2D9
100
AcDbEntity
  8
0
  6
Continuous
370
    30
100
AcDbCircle
 10
-154.6543109220756
 20
-75.97000110005137
 30
0.0
 40
30.0
100
AcDbArc
 50
206.5650511770372
 51
267.6023303660435
  0
LINE
  5
2F6
330
2D9
100
AcDbEntity
  8
0
  6
Continuous
370
    30
100
AcDbLine
 10
-35.1999209270507
 20
-144.7147727012634
 30
0.0
 11
-37.62353144187728
 21
-116.9174471923143
 31
0.0
  0
ARC
  5
2F7
330
2D9
100
AcDbEntity
  8
0
  6
Continuous
370
    30
100
AcDbCircle
 10
-45.59308902661178
 20
-117.6146931342964
 30
0.0
 40
8.0
100
AcDbArc
 50
4.999999999973503
 51
87.60233036604352
  0
LINE
  5
2F8
330
2D9
100
AcDbEntity
  8
0
  6
Continuous
370
    30
100
AcDbLine
 10
-216.4691855165884
 20
-19.42229123600191
 30
0.0
 11
-181.4871266520759
 21
-89.38640896504603
 31
0.0
  0
LINE
  5
2F9
330
2D9
100
AcDbEntity
  8
0
  6
Continuous
370
    30
100
AcDbLine
 10
-34.49271116566888
 20
-22.45703712105751
 30
0.0
 11
-29.58814483297101
 21
-94.55413278192281
 31
0.0
  0
ARC
  5
2FA
330
2D9
100
AcDbEntity
  8
0
  6
Continuous
370
    30
100
AcDbCircle
 10
-42.47425606767501
 20
-22.99999176933852
 30
0.0
 40
7.999991173296655
100
AcDbArc
 50
3.891622060341917
 51
90.00006282302443
  0
LWPOLYLINE
  5
2FB
330
2D9
100
AcDbEntity
  8
0
  6
Continuous
370
    30
100
AcDbPolyline
 90
       12
 70
   128
 43
0.0
 10
-29.58814483297101
 20
-94.55413278192281
 10
-29.33437805783979
 20
-98.2845015823841
 10
-29.09452337932817
 20
-101.8103826791048
 10
-28.87055892658464
 20
-105.1026433706283
 10
-28.66433989417783
 20
-108.1340815871954
 10
-28.47756501448385
 20
-110.8796522021293
 10
-28.31178214562169
 20
-113.3166719228029
 10
-28.16835846913091
 20
-115.4250018298626
 10
-28.04847862732641
 20
-117.1872243285179
 10
-27.95313541007272
 20
-118.588775396347
 10
-27.88311485362283
 20
-119.6180805563926
 10
-27.0691500992798
 20
-131.5833665430564
  0
LINE
  5
2FC
330
2D9
100
AcDbEntity
  8
0
  6
Continuous
370
     0
100
AcDbLine
 10
-35.7632624001526
 20
-109.6054911613464
 30
0.0
 11
-45.25840889212304
 21
-109.6216968745966
 31
0.0
  0
ARC
  5
2FD
330
2D9
100
AcDbEntity
  8
0
  6
Continuous
370
     0
100
AcDbCircle
 10
-0.4481185510721844
 20
-497.3305144080409
 30
0.0
 40
359.873076210466
100
AcDbArc
 50
89.92865315159205
 51
92.98033301053406
  0
ARC
  5
2FE
330
2D9
100
AcDbEntity
  8
0
  6
Continuous
370
     0
100
AcDbCircle
 10
-20.24919259952185
 20
-131.2010744744839
 30
0.0
 40
6.830663768932071
100
AcDbArc
 50
183.2083519017879
 51
279.1833237951142
  0
ARC
  5
2FF
330
2D9
100
AcDbEntity
  8
0
  6
Continuous
370
     0
100
AcDbCircle
 10
-36.03715054524946
 20
-117.5989974203021
 30
0.0
 40
7.99819711109924
100
AcDbArc
 50
3.900606915024652
 51
88.03759483227459
  0
ARC
  5
300
330
2D9
100
AcDbEntity
  8
0
  6
Continuous
370
    30
100
AcDbCircle
 10
-223.6246030445882
 20
-23.0
 30
0.0
 40
8.0
100
AcDbArc
 50
26.56505117703721
 51
90.0
  0
ENDBLK
  5
2DB
330
2D9
100
AcDbEntity
  8
0
100
AcDbBlockEnd
  0
ENDSEC
  0
SECTION
  2
ENTITIES
  0
MTEXT
  5
166
330
1F
100
AcDbEntity
  8
0
370
    53
100
AcDbMText
 10
1258.336888476246
 20
4217.462767159115
 30
0.0
 40
20.0
 41
528.2530204157336
 71
     1
 72
     5
  1
{\fTimes New Roman|b0|i0|c0|p18;LAVABO DE BAJO-ENCIMERA FLEX.}
 73
     1
 44
1.0
1001
ACAD
1000
MTEXTBEGIN
1070
    73
1070
     1
1070
    44
1040
1.0
1070
    74
1070
     0
1000
MTEXTEND
  0
INSERT
  5
301
330
1F
100
AcDbEntity
  8
0
100
AcDbBlockReference
  2
26020_A
 10
1517.350583426302
 20
4520.153516131152
 30
0.0
  0
ENDSEC
  0
SECTION
  2
OBJECTS
  0
DICTIONARY
  5
C
330
0
100
AcDbDictionary
281
     1
  3
ACAD_COLOR
350
6B
  3
ACAD_GROUP
350
D
  3
ACAD_IMAGE_DICT
350
8B
  3
ACAD_IMAGE_VARS
350
8C
  3
ACAD_LAYOUT
350
1A
  3
ACAD_MATERIAL
350
6A
  3
ACAD_MLINESTYLE
350
17
  3
ACAD_PLOTSETTINGS
350
19
  3
ACAD_PLOTSTYLENAME
350
E
  3
ACAD_TABLESTYLE
350
F2
  3
ACDBHEADERROUNDTRIPXREC
350
377
  3
AcDbVariableDictionary
350
5E
  3
DWGPROPS
350
376
  0
DICTIONARY
  5
F9
330
2
100
AcDbDictionary
280
     1
281
     1
  3
ACAD_LAYERSTATES
360
FA
  0
DICTIONARY
  5
92
330
1F
100
AcDbDictionary
280
     1
281
     1
  3
ACAD_SORTENTS
360
93
  0
DICTIONARY
  5
366
330
2D9
100
AcDbDictionary
280
     1
281
     1
  3
ACAD_SORTENTS
360
367
  0
DICTIONARY
  5
6B
102
{ACAD_REACTORS
330
C
102
}
330
C
100
AcDbDictionary
281
     1
  0
DICTIONARY
  5
D
102
{ACAD_REACTORS
330
C
102
}
330
C
100
AcDbDictionary
281
     1
  0
DICTIONARY
  5
8B
102
{ACAD_REACTORS
330
C
102
}
330
C
100
AcDbDictionary
281
     1
  3
Panorama Square 60
350
8D
  0
RASTERVARIABLES
  5
8C
102
{ACAD_REACTORS
330
C
102
}
330
C
100
AcDbRasterVariables
 90
        0
 70
     1
 71
     1
 72
     1
  0
DICTIONARY
  5
1A
102
{ACAD_REACTORS
330
C
102
}
330
C
100
AcDbDictionary
281
     1
  3
Model
350
22
  3
Presentación1
350
51
  3
Presentación2
350
56
  0
DICTIONARY
  5
6A
102
{ACAD_REACTORS
330
C
102
}
330
C
100
AcDbDictionary
281
     1
  0
DICTIONARY
  5
17
102
{ACAD_REACTORS
330
C
102
}
330
C
100
AcDbDictionary
281
     1
  3
Standard
350
18
  0
DICTIONARY
  5
19
102
{ACAD_REACTORS
330
C
102
}
330
C
100
AcDbDictionary
281
     1
  0
ACDBDICTIONARYWDFLT
  5
E
102
{ACAD_REACTORS
330
C
102
}
330
C
100
AcDbDictionary
281
     1
  3
Normal
350
F
100
AcDbDictionaryWithDefault
340
F
  0
DICTIONARY
  5
F2
102
{ACAD_REACTORS
330
C
102
}
330
C
100
AcDbDictionary
281
     1
  3
Standard
350
F3
  0
DICTIONARY
  5
377
102
{ACAD_REACTORS
330
C
102
}
330
C
100
AcDbDictionary
281
     1
  0
DICTIONARY
  5
5E
102
{ACAD_REACTORS
330
C
102
}
330
C
100
AcDbDictionary
281
     1
  3
CTABLESTYLE
350
211
  3
DIMASSOC
350
5F
  3
HIDETEXT
350
63
  3
PROJECTNAME
350
30B
  0
XRECORD
  5
376
102
{ACAD_REACTORS
330
C
102
}
330
C
100
AcDbXrecord
280
     1
  1
DWGPROPS COOKIE
  2

  3

  4

  6

  7

  8

  9

300
=
301
=
302
=
303
=
304
=
305
=
306
=
307
=
308
=
309
=
 40
0.0245607175925926
 41
2454483.82386772
 42
2454544.448288658
  1

 90
        0
  0
DICTIONARY
  5
FA
102
{ACAD_REACTORS
330
F9
102
}
330
F9
100
AcDbDictionary
281
     1
  0
SORTENTSTABLE
  5
93
102
{ACAD_REACTORS
330
92
102
}
330
92
100
AcDbSortentsTable
330
1F
331
301
  5
301
331
166
  5
296
  0
SORTENTSTABLE
  5
367
102
{ACAD_REACTORS
330
366
102
}
330
366
100
AcDbSortentsTable
330
2D9
  0
IMAGEDEF
  5
8D
102
{ACAD_REACTORS
330
8B
102
}
330
8B
100
AcDbRasterImageDef
 90
        0
  1
D:\Mis documentos\Alvaro\gala\Mío\LAVABOS\PANORAMA\Panorama Square 60.bmp
 10
577.0
 20
815.0
 11
0.352858149123434
 21
0.352858149123434
280
     1
281
     2
  0
LAYOUT
  5
22
102
{ACAD_XDICTIONARY
360
378
102
}
102
{ACAD_REACTORS
330
1A
102
}
330
1A
100
AcDbPlotSettings
  1

  2
none_device
  4
ANSI_A_(8.50_x_11.00_Inches)
  6

 40
6.349999904632567
 41
19.04999923706055
 42
6.350006103515625
 43
19.04998779296875
 44
215.8999938964844
 45
279.3999938964844
 46
0.0
 47
0.0
 48
0.0
 49
0.0
140
0.0
141
0.0
142
1.0
143
78.436453180766
 70
 11952
 72
     0
 73
     1
 74
     0
  7

 75
     0
147
0.0127491741332998
148
0.0
149
0.0
100
AcDbLayout
  1
Model
 70
     1
 71
     0
 10
0.0
 20
0.0
 11
12.0
 21
9.0
 12
0.0
 22
0.0
 32
0.0
 14
0.0
 24
0.0
 34
0.0
 15
0.0
 25
0.0
 35
0.0
146
0.0
 13
0.0
 23
0.0
 33
0.0
 16
1.0
 26
0.0
 36
0.0
 17
0.0
 27
1.0
 37
0.0
 76
     0
330
1F
  0
LAYOUT
  5
51
102
{ACAD_XDICTIONARY
360
37A
102
}
102
{ACAD_REACTORS
330
1A
102
}
330
1A
100
AcDbPlotSettings
  1

  2
None
  4

  6

 40
0.0
 41
0.0
 42
0.0
 43
0.0
 44
0.0
 45
0.0
 46
0.0
 47
0.0
 48
0.0
 49
0.0
140
0.0
141
0.0
142
1.0
143
1.0
 70
   688
 72
     0
 73
     0
 74
     5
  7

 75
    16
147
1.0
148
0.0
149
0.0
100
AcDbLayout
  1
Presentación1
 70
     1
 71
     1
 10
0.0
 20
0.0
 11
12.0
 21
9.0
 12
0.0
 22
0.0
 32
0.0
 14
0.0
 24
0.0
 34
0.0
 15
0.0
 25
0.0
 35
0.0
146
0.0
 13
0.0
 23
0.0
 33
0.0
 16
1.0
 26
0.0
 36
0.0
 17
0.0
 27
1.0
 37
0.0
 76
     0
330
50
  0
LAYOUT
  5
56
102
{ACAD_XDICTIONARY
360
37C
102
}
102
{ACAD_REACTORS
330
1A
102
}
330
1A
100
AcDbPlotSettings
  1

  2
None
  4

  6

 40
0.0
 41
0.0
 42
0.0
 43
0.0
 44
0.0
 45
0.0
 46
0.0
 47
0.0
 48
0.0
 49
0.0
140
0.0
141
0.0
142
1.0
143
1.0
 70
   688
 72
     0
 73
     0
 74
     5
  7

 75
    16
147
1.0
148
0.0
149
0.0
100
AcDbLayout
  1
Presentación2
 70
     1
 71
     2
 10
0.0
 20
0.0
 11
12.0
 21
9.0
 12
0.0
 22
0.0
 32
0.0
 14
0.0
 24
0.0
 34
0.0
 15
0.0
 25
0.0
 35
0.0
146
0.0
 13
0.0
 23
0.0
 33
0.0
 16
1.0
 26
0.0
 36
0.0
 17
0.0
 27
1.0
 37
0.0
 76
     0
330
55
  0
MLINESTYLE
  5
18
102
{ACAD_REACTORS
330
17
102
}
330
17
100
AcDbMlineStyle
  2
STANDARD
 70
     0
  3

 62
   256
 51
90.0
 52
90.0
 71
     2
 49
0.5
 62
   256
  6
BYLAYER
 49
-0.5
 62
   256
  6
BYLAYER
  0
ACDBPLACEHOLDER
  5
F
102
{ACAD_REACTORS
330
E
102
}
330
E
  0
TABLESTYLE
  5
F3
102
{ACAD_REACTORS
330
F2
102
}
330
F2
100
AcDbTableStyle
  3
Standard
 70
     0
 71
     0
 40
1.5
 41
1.5
280
     0
281
     0
  7
Standard
140
4.5
170
     2
 62
     0
 63
     7
283
     0
274
    -2
284
     1
 64
     0
275
    -2
285
     1
 65
     0
276
    -2
286
     1
 66
     0
277
    -2
287
     1
 67
     0
278
    -2
288
     1
 68
     0
279
    -2
289
     1
 69
     0
  7
Standard
140
6.0
170
     5
 62
     0
 63
     7
283
     0
274
    -2
284
     1
 64
     0
275
    -2
285
     1
 65
     0
276
    -2
286
     1
 66
     0
277
    -2
287
     1
 67
     0
278
    -2
288
     1
 68
     0
279
    -2
289
     1
 69
     0
  7
Standard
140
4.5
170
     5
 62
     0
 63
     7
283
     0
274
    -2
284
     1
 64
     0
275
    -2
285
     1
 65
     0
276
    -2
286
     1
 66
     0
277
    -2
287
     1
 67
     0
278
    -2
288
     1
 68
     0
279
    -2
289
     1
 69
     0
  0
DICTIONARYVAR
  5
211
102
{ACAD_REACTORS
330
5E
102
}
330
5E
100
DictionaryVariables
280
     0
  1
STANDARD
  0
DICTIONARYVAR
  5
5F
102
{ACAD_REACTORS
330
5E
102
}
330
5E
100
DictionaryVariables
280
     0
  1
2
  0
DICTIONARYVAR
  5
63
102
{ACAD_REACTORS
330
5E
102
}
330
5E
100
DictionaryVariables
280
     0
  1
1
  0
DICTIONARYVAR
  5
30B
102
{ACAD_REACTORS
330
5E
102
}
330
5E
100
DictionaryVariables
280
     0
  1

  0
DICTIONARY
  5
378
330
22
100
AcDbDictionary
280
     1
281
     1
  3
ACAD_XREC_ROUNDTRIP
360
379
  0
DICTIONARY
  5
37A
330
51
100
AcDbDictionary
280
     1
281
     1
  3
ACAD_XREC_ROUNDTRIP
360
37B
  0
DICTIONARY
  5
37C
330
56
100
AcDbDictionary
280
     1
281
     1
  3
ACAD_XREC_ROUNDTRIP
360
37D
  0
XRECORD
  5
379
102
{ACAD_REACTORS
330
378
102
}
330
378
100
AcDbXrecord
280
     1
102
SHADEPLOT
 70
     0
102
SHADEPLOTRESLEVEL
 70
     2
102
SHADEPLOTCUSTOMDPI
 70
   300
  0
XRECORD
  5
37B
102
{ACAD_REACTORS
330
37A
102
}
330
37A
100
AcDbXrecord
280
     1
102
SHADEPLOT
 70
     0
102
SHADEPLOTRESLEVEL
 70
     2
102
SHADEPLOTCUSTOMDPI
 70
   300
  0
XRECORD
  5
37D
102
{ACAD_REACTORS
330
37C
102
}
330
37C
100
AcDbXrecord
280
     1
102
SHADEPLOT
 70
     0
102
SHADEPLOTRESLEVEL
 70
     2
102
SHADEPLOTCUSTOMDPI
 70
   300
  0
ENDSEC
  0
EOF
