  0
SECTION
  2
HEADER
  9
$ACADVER
  1
AC1015
  9
$ACADMAINTVER
 70
    20
  9
$DWGCODEPAGE
  3
ANSI_1252
  9
$INSBASE
 10
0.0
 20
0.0
 30
0.0
  9
$EXTMIN
 10
1041.750385593738
 20
4201.709485676385
 30
0.0
  9
$EXTMAX
 10
1841.469278540855
 20
4728.697862363127
 30
0.0
  9
$LIMMIN
 10
0.0
 20
0.0
  9
$LIMMAX
 10
420.0
 20
297.0
  9
$ORTHOMODE
 70
     0
  9
$REGENMODE
 70
     1
  9
$FILLMODE
 70
     1
  9
$QTEXTMODE
 70
     0
  9
$MIRRTEXT
 70
     0
  9
$LTSCALE
 40
1.0
  9
$ATTMODE
 70
     1
  9
$TEXTSIZE
 40
2.5
  9
$TRACEWID
 40
1.0
  9
$TEXTSTYLE
  7
Standard
  9
$CLAYER
  8
0
  9
$CELTYPE
  6
ByLayer
  9
$CECOLOR
 62
   256
  9
$CELTSCALE
 40
1.0
  9
$DISPSILH
 70
     0
  9
$DIMSCALE
 40
1.0
  9
$DIMASZ
 40
0.18
  9
$DIMEXO
 40
0.0625
  9
$DIMDLI
 40
0.38
  9
$DIMRND
 40
0.0
  9
$DIMDLE
 40
0.0
  9
$DIMEXE
 40
0.18
  9
$DIMTP
 40
0.0
  9
$DIMTM
 40
0.0
  9
$DIMTXT
 40
0.18
  9
$DIMCEN
 40
0.09
  9
$DIMTSZ
 40
0.0
  9
$DIMTOL
 70
     0
  9
$DIMLIM
 70
     0
  9
$DIMTIH
 70
     1
  9
$DIMTOH
 70
     1
  9
$DIMSE1
 70
     0
  9
$DIMSE2
 70
     0
  9
$DIMTAD
 70
     0
  9
$DIMZIN
 70
     0
  9
$DIMBLK
  1

  9
$DIMASO
 70
     1
  9
$DIMSHO
 70
     1
  9
$DIMPOST
  1

  9
$DIMAPOST
  1

  9
$DIMALT
 70
     0
  9
$DIMALTD
 70
     2
  9
$DIMALTF
 40
25.4
  9
$DIMLFAC
 40
1.0
  9
$DIMTOFL
 70
     0
  9
$DIMTVP
 40
0.0
  9
$DIMTIX
 70
     0
  9
$DIMSOXD
 70
     0
  9
$DIMSAH
 70
     0
  9
$DIMBLK1
  1

  9
$DIMBLK2
  1

  9
$DIMSTYLE
  2
STANDARD
  9
$DIMCLRD
 70
     0
  9
$DIMCLRE
 70
     0
  9
$DIMCLRT
 70
     0
  9
$DIMTFAC
 40
1.0
  9
$DIMGAP
 40
0.09
  9
$DIMJUST
 70
     0
  9
$DIMSD1
 70
     0
  9
$DIMSD2
 70
     0
  9
$DIMTOLJ
 70
     1
  9
$DIMTZIN
 70
     0
  9
$DIMALTZ
 70
     0
  9
$DIMALTTZ
 70
     0
  9
$DIMUPT
 70
     0
  9
$DIMDEC
 70
     4
  9
$DIMTDEC
 70
     4
  9
$DIMALTU
 70
     2
  9
$DIMALTTD
 70
     2
  9
$DIMTXSTY
  7
Standard
  9
$DIMAUNIT
 70
     0
  9
$DIMADEC
 70
     0
  9
$DIMALTRND
 40
0.0
  9
$DIMAZIN
 70
     0
  9
$DIMDSEP
 70
    46
  9
$DIMATFIT
 70
     3
  9
$DIMFRAC
 70
     0
  9
$DIMLDRBLK
  1

  9
$DIMLUNIT
 70
     2
  9
$DIMLWD
 70
    -2
  9
$DIMLWE
 70
    -2
  9
$DIMTMOVE
 70
     0
  9
$LUNITS
 70
     2
  9
$LUPREC
 70
     4
  9
$SKETCHINC
 40
1.0
  9
$FILLETRAD
 40
0.0
  9
$AUNITS
 70
     0
  9
$AUPREC
 70
     0
  9
$MENU
  1
.
  9
$ELEVATION
 40
0.0
  9
$PELEVATION
 40
0.0
  9
$THICKNESS
 40
0.0
  9
$LIMCHECK
 70
     0
  9
$CHAMFERA
 40
0.0
  9
$CHAMFERB
 40
0.0
  9
$CHAMFERC
 40
0.0
  9
$CHAMFERD
 40
0.0
  9
$SKPOLY
 70
     0
  9
$TDCREATE
 40
2454483.865534387
  9
$TDUCREATE
 40
2454483.782201053
  9
$TDUPDATE
 40
2455026.455703843
  9
$TDUUPDATE
 40
2455026.372370510
  9
$TDINDWG
 40
0.0349936806
  9
$TDUSRTIMER
 40
0.0349877199
  9
$USRTIMER
 70
     1
  9
$ANGBASE
 50
0.0
  9
$ANGDIR
 70
     0
  9
$PDMODE
 70
     0
  9
$PDSIZE
 40
0.0
  9
$PLINEWID
 40
0.0
  9
$SPLFRAME
 70
     0
  9
$SPLINETYPE
 70
     6
  9
$SPLINESEGS
 70
     8
  9
$HANDSEED
  5
5D1
  9
$SURFTAB1
 70
     6
  9
$SURFTAB2
 70
     6
  9
$SURFTYPE
 70
     6
  9
$SURFU
 70
     6
  9
$SURFV
 70
     6
  9
$UCSBASE
  2

  9
$UCSNAME
  2

  9
$UCSORG
 10
0.0
 20
0.0
 30
0.0
  9
$UCSXDIR
 10
1.0
 20
0.0
 30
0.0
  9
$UCSYDIR
 10
0.0
 20
1.0
 30
0.0
  9
$UCSORTHOREF
  2

  9
$UCSORTHOVIEW
 70
     0
  9
$UCSORGTOP
 10
0.0
 20
0.0
 30
0.0
  9
$UCSORGBOTTOM
 10
0.0
 20
0.0
 30
0.0
  9
$UCSORGLEFT
 10
0.0
 20
0.0
 30
0.0
  9
$UCSORGRIGHT
 10
0.0
 20
0.0
 30
0.0
  9
$UCSORGFRONT
 10
0.0
 20
0.0
 30
0.0
  9
$UCSORGBACK
 10
0.0
 20
0.0
 30
0.0
  9
$PUCSBASE
  2

  9
$PUCSNAME
  2

  9
$PUCSORG
 10
0.0
 20
0.0
 30
0.0
  9
$PUCSXDIR
 10
1.0
 20
0.0
 30
0.0
  9
$PUCSYDIR
 10
0.0
 20
1.0
 30
0.0
  9
$PUCSORTHOREF
  2

  9
$PUCSORTHOVIEW
 70
     0
  9
$PUCSORGTOP
 10
0.0
 20
0.0
 30
0.0
  9
$PUCSORGBOTTOM
 10
0.0
 20
0.0
 30
0.0
  9
$PUCSORGLEFT
 10
0.0
 20
0.0
 30
0.0
  9
$PUCSORGRIGHT
 10
0.0
 20
0.0
 30
0.0
  9
$PUCSORGFRONT
 10
0.0
 20
0.0
 30
0.0
  9
$PUCSORGBACK
 10
0.0
 20
0.0
 30
0.0
  9
$USERI1
 70
     0
  9
$USERI2
 70
     0
  9
$USERI3
 70
     0
  9
$USERI4
 70
     0
  9
$USERI5
 70
     0
  9
$USERR1
 40
0.0
  9
$USERR2
 40
0.0
  9
$USERR3
 40
0.0
  9
$USERR4
 40
0.0
  9
$USERR5
 40
0.0
  9
$WORLDVIEW
 70
     1
  9
$SHADEDGE
 70
     3
  9
$SHADEDIF
 70
    70
  9
$TILEMODE
 70
     1
  9
$MAXACTVP
 70
    64
  9
$PINSBASE
 10
0.0
 20
0.0
 30
0.0
  9
$PLIMCHECK
 70
     0
  9
$PEXTMIN
 10
0.0
 20
0.0
 30
0.0
  9
$PEXTMAX
 10
0.0
 20
0.0
 30
0.0
  9
$PLIMMIN
 10
0.0
 20
0.0
  9
$PLIMMAX
 10
12.0
 20
9.0
  9
$UNITMODE
 70
     0
  9
$VISRETAIN
 70
     1
  9
$PLINEGEN
 70
     0
  9
$PSLTSCALE
 70
     1
  9
$TREEDEPTH
 70
  3020
  9
$CMLSTYLE
  2
Standard
  9
$CMLJUST
 70
     0
  9
$CMLSCALE
 40
20.0
  9
$PROXYGRAPHICS
 70
     1
  9
$MEASUREMENT
 70
     1
  9
$CELWEIGHT
370
    -1
  9
$ENDCAPS
280
     0
  9
$JOINSTYLE
280
     0
  9
$LWDISPLAY
290
     0
  9
$INSUNITS
 70
     4
  9
$HYPERLINKBASE
  1

  9
$STYLESHEET
  1

  9
$XEDIT
290
     1
  9
$CEPSNTYPE
380
     0
  9
$PSTYLEMODE
290
     1
  9
$FINGERPRINTGUID
  2
{FDEAD578-A652-11D2-9A35-0060089B3A3F}
  9
$VERSIONGUID
  2
{1DD80748-9A75-4591-A209-897DDE409728}
  9
$EXTNAMES
290
     1
  9
$PSVPSCALE
 40
0.0
  9
$OLESTARTUP
290
     0
  0
ENDSEC
  0
SECTION
  2
CLASSES
  0
CLASS
  1
ACDBDICTIONARYWDFLT
  2
AcDbDictionaryWithDefault
  3
ObjectDBX Classes
 90
        0
280
     0
281
     0
  0
CLASS
  1
DICTIONARYVAR
  2
AcDbDictionaryVar
  3
ObjectDBX Classes
 90
        0
280
     0
281
     0
  0
CLASS
  1
RASTERVARIABLES
  2
AcDbRasterVariables
  3
ISM
 90
        0
280
     0
281
     0
  0
CLASS
  1
IMAGEDEF
  2
AcDbRasterImageDef
  3
ISM
 90
        0
280
     0
281
     0
  0
CLASS
  1
IMAGEDEF_REACTOR
  2
AcDbRasterImageDefReactor
  3
ISM
 90
    32769
280
     0
281
     0
  0
CLASS
  1
IMAGE
  2
AcDbRasterImage
  3
ISM
 90
    32895
280
     0
281
     1
  0
CLASS
  1
SORTENTSTABLE
  2
AcDbSortentsTable
  3
ObjectDBX Classes
 90
        0
280
     0
281
     0
  0
CLASS
  1
TABLESTYLE
  2
AcDbTableStyle
  3
ObjectDBX Classes
 90
     2047
280
     0
281
     0
  0
CLASS
  1
ACDBPLACEHOLDER
  2
AcDbPlaceHolder
  3
ObjectDBX Classes
 90
        0
280
     0
281
     0
  0
CLASS
  1
LAYOUT
  2
AcDbLayout
  3
ObjectDBX Classes
 90
        0
280
     0
281
     0
  0
ENDSEC
  0
SECTION
  2
TABLES
  0
TABLE
  2
VPORT
  5
8
330
0
100
AcDbSymbolTable
 70
     2
  0
VPORT
  5
5C8
330
8
100
AcDbSymbolTableRecord
100
AcDbViewportTableRecord
  2
*Active
 70
     0
 10
0.0
 20
0.0
 11
1.0
 21
1.0
 12
1441.612294835062
 22
4465.281123261309
 13
0.0
 23
0.0
 14
10.0
 24
10.0
 15
10.0
 25
10.0
 16
0.0
 26
0.0
 36
1.0
 17
0.0
 27
0.0
 37
0.0
 40
530.8043234278113
 41
1.525474525474525
 42
50.0
 43
0.0
 44
0.0
 50
0.0
 51
0.0
 71
     0
 72
  1000
 73
     1
 74
     3
 75
     0
 76
     0
 77
     0
 78
     0
281
     0
 65
     1
110
0.0
120
0.0
130
0.0
111
1.0
121
0.0
131
0.0
112
0.0
122
1.0
132
0.0
 79
     0
146
0.0
  0
ENDTAB
  0
TABLE
  2
LTYPE
  5
5
330
0
100
AcDbSymbolTable
 70
     1
  0
LTYPE
  5
14
330
5
100
AcDbSymbolTableRecord
100
AcDbLinetypeTableRecord
  2
ByBlock
 70
     0
  3

 72
    65
 73
     0
 40
0.0
  0
LTYPE
  5
15
330
5
100
AcDbSymbolTableRecord
100
AcDbLinetypeTableRecord
  2
ByLayer
 70
     0
  3

 72
    65
 73
     0
 40
0.0
  0
LTYPE
  5
16
330
5
100
AcDbSymbolTableRecord
100
AcDbLinetypeTableRecord
  2
Continuous
 70
     0
  3
Solid line
 72
    65
 73
     0
 40
0.0
  0
ENDTAB
  0
TABLE
  2
LAYER
  5
2
102
{ACAD_XDICTIONARY
360
F9
102
}
330
0
100
AcDbSymbolTable
 70
     1
  0
LAYER
  5
10
330
2
100
AcDbSymbolTableRecord
100
AcDbLayerTableRecord
  2
0
 70
     0
 62
     7
  6
Continuous
370
    -3
390
F
  0
ENDTAB
  0
TABLE
  2
STYLE
  5
3
330
0
100
AcDbSymbolTable
 70
     1
  0
STYLE
  5
11
330
3
100
AcDbSymbolTableRecord
100
AcDbTextStyleTableRecord
  2
Standard
 70
     0
 40
0.0
 41
1.0
 50
0.0
 71
     0
 42
2.5
  3
txt
  4

  0
ENDTAB
  0
TABLE
  2
VIEW
  5
6
330
0
100
AcDbSymbolTable
 70
     0
  0
ENDTAB
  0
TABLE
  2
UCS
  5
7
330
0
100
AcDbSymbolTable
 70
     0
  0
ENDTAB
  0
TABLE
  2
APPID
  5
9
330
0
100
AcDbSymbolTable
 70
     8
  0
APPID
  5
12
330
9
100
AcDbSymbolTableRecord
100
AcDbRegAppTableRecord
  2
ACAD
 70
     0
  0
APPID
  5
337
330
9
100
AcDbSymbolTableRecord
100
AcDbRegAppTableRecord
  2
ACAD_DSTYLE_DIMTEXT_FILL
 70
     0
  0
APPID
  5
338
330
9
100
AcDbSymbolTableRecord
100
AcDbRegAppTableRecord
  2
ACAD_DSTYLE_DIMEXT_LENGTH
 70
     0
  0
APPID
  5
339
330
9
100
AcDbSymbolTableRecord
100
AcDbRegAppTableRecord
  2
ACAD_DSTYLE_DIMEXT_ENABLED
 70
     0
  0
APPID
  5
33A
330
9
100
AcDbSymbolTableRecord
100
AcDbRegAppTableRecord
  2
ACAD_DSTYLE_DIM_LINETYPE
 70
     0
  0
APPID
  5
33B
330
9
100
AcDbSymbolTableRecord
100
AcDbRegAppTableRecord
  2
ACAD_DSTYLE_DIM_EXT1_LINETYPE
 70
     0
  0
APPID
  5
33C
330
9
100
AcDbSymbolTableRecord
100
AcDbRegAppTableRecord
  2
ACAD_DSTYLE_DIM_EXT2_LINETYPE
 70
     0
  0
APPID
  5
4FA
330
9
100
AcDbSymbolTableRecord
100
AcDbRegAppTableRecord
  2
ACAD_PSEXT
 70
     0
  0
ENDTAB
  0
TABLE
  2
DIMSTYLE
  5
A
330
0
100
AcDbSymbolTable
 70
     1
100
AcDbDimStyleTable
 71
     1
340
F8
  0
DIMSTYLE
105
F8
330
A
100
AcDbSymbolTableRecord
100
AcDbDimStyleTableRecord
  2
STANDARD
 70
     0
340
11
  0
ENDTAB
  0
TABLE
  2
BLOCK_RECORD
  5
1
330
0
100
AcDbSymbolTable
 70
     2
  0
BLOCK_RECORD
  5
1F
102
{ACAD_XDICTIONARY
360
92
102
}
330
1
100
AcDbSymbolTableRecord
100
AcDbBlockTableRecord
  2
*Model_Space
340
22
  0
BLOCK_RECORD
  5
50
330
1
100
AcDbSymbolTableRecord
100
AcDbBlockTableRecord
  2
*Paper_Space
340
51
  0
BLOCK_RECORD
  5
55
330
1
100
AcDbSymbolTableRecord
100
AcDbBlockTableRecord
  2
*Paper_Space0
340
56
  0
BLOCK_RECORD
  5
596
102
{ACAD_XDICTIONARY
360
597
102
}
330
1
100
AcDbSymbolTableRecord
100
AcDbBlockTableRecord
  2
26030_P
340
0
310
2800000020000000200000000100080000000000000400000000000000000000000000000000000000000000000080000080000000808000800000008000800080800000C0C0C000C0DCC000F0CAA6000020400000206000002080000020A0000020C0000020E00000400000004020000040400000406000004080000040A0
310
000040C0000040E00000600000006020000060400000606000006080000060A0000060C0000060E00000800000008020000080400000806000008080000080A0000080C0000080E00000A0000000A0200000A0400000A0600000A0800000A0A00000A0C00000A0E00000C0000000C0200000C0400000C0600000C0800000C0
310
A00000C0C00000C0E00000E0000000E0200000E0400000E0600000E0800000E0A00000E0C00000E0E00040000000400020004000400040006000400080004000A0004000C0004000E00040200000402020004020400040206000402080004020A0004020C0004020E000404000004040200040404000404060004040800040
310
40A0004040C0004040E00040600000406020004060400040606000406080004060A0004060C0004060E00040800000408020004080400040806000408080004080A0004080C0004080E00040A0000040A0200040A0400040A0600040A0800040A0A00040A0C00040A0E00040C0000040C0200040C0400040C0600040C08000
310
40C0A00040C0C00040C0E00040E0000040E0200040E0400040E0600040E0800040E0A00040E0C00040E0E00080000000800020008000400080006000800080008000A0008000C0008000E00080200000802020008020400080206000802080008020A0008020C0008020E00080400000804020008040400080406000804080
310
008040A0008040C0008040E00080600000806020008060400080606000806080008060A0008060C0008060E00080800000808020008080400080806000808080008080A0008080C0008080E00080A0000080A0200080A0400080A0600080A0800080A0A00080A0C00080A0E00080C0000080C0200080C0400080C0600080C0
310
800080C0A00080C0C00080C0E00080E0000080E0200080E0400080E0600080E0800080E0A00080E0C00080E0E000C0000000C0002000C0004000C0006000C0008000C000A000C000C000C000E000C0200000C0202000C0204000C0206000C0208000C020A000C020C000C020E000C0400000C0402000C0404000C0406000C0
310
408000C040A000C040C000C040E000C0600000C0602000C0604000C0606000C0608000C060A000C060C000C060E000C0800000C0802000C0804000C0806000C0808000C080A000C080C000C080E000C0A00000C0A02000C0A04000C0A06000C0A08000C0A0A000C0A0C000C0A0E000C0C00000C0C02000C0C04000C0C06000
310
C0C08000C0C0A000F0FBFF00A4A0A000808080000000FF0000FF000000FFFF00FF000000FF00FF00FFFF0000FFFFFF0000000000000000000000000000000000000000000000000000000000000000000000000000000000000000000000000000000000000000000000000000000000000000000000000000000000000000
310
00000000000000000000000000000000000000000000000000000000000000000000000000000000000000000000000000000000000000000000000000000000000000000000000000000000000000000000000000000000000000000000000000000000000000000000000000000000000000000000000000000000000000
310
0000000000000000000000000000000000000000FFFFFFFFFFFFFFFFFFFFFFFFFFFFFFFFFFFFFFFFFFFFFFFFFFFFFFFF000000FF00000000000000FFFFFFFFFFFFFFFFFFFFFFFFFFFF00000000000000FF0000FF000000000000FF0000000000000000000000000000FF000000000000FF0000FF00000000FFFF0000000000
310
0000000000000000000000FFFF00000000FF0000FF00000000FF0000FFFFFFFFFFFFFFFFFFFFFFFFFFFF0000FF00000000FF0000FF00000000FF0000FF000000000000000000000000FF0000FF00000000FF0000FF00000000FF0000FF000000000000000000000000FF0000FF00000000FF0000FF00000000FF0000FF0000
310
00000000000000000000FF0000FF00000000FF0000FF00000000FF0000FF0000000000FFFFFF00000000FF0000FF00000000FF0000FF00000000FF0000FF00000000FFFFFFFF00000000FF0000FF00000000FF0000FF00000000FF0000FFFF00000000FFFFFF000000FFFF0000FF00000000FF0000FF00000000FF000000FF
310
FFFFFFFFFFFFFFFFFFFFFF000000FF00000000FF0000FF0000000000FFFF000000000000FFFF000000000000FFFF0000000000FF0000FF00000000000000FFFFFFFFFFFFFFFFFFFFFFFFFFFF00000000000000FF0000FF00000000000000000000000000FFFF00000000000000000000000000FF0000FF0000000000000000
310
0000000000FFFF00000000000000000000000000FF0000FF00000000000000000000000000000000000000000000000000000000FF0000FFFFFFFFFFFFFFFFFFFFFFFFFFFFFFFFFFFFFFFFFFFFFFFFFFFFFFFFFFFF000000000000000000000000000000000000000000000000000000000000000000000000000000000000
310
00000000000000000000000000000000000000000000000000000000000000000000000000000000000000000000000000000000000000000000000000000000000000000000000000000000000000000000000000000000000000000000000000000000000000000000000000000000000000000000000000000000000000
310
0000000000000000000000000000000000000000000000000000000000000000000000000000000000000000000000000000000000000000
102
{BLKREFS
331
5BA
102
}
1001
ACAD
1000
DesignCenter Data
1002
{
1070
     1
1070
     4
1002
}
  0
ENDTAB
  0
ENDSEC
  0
SECTION
  2
BLOCKS
  0
BLOCK
  5
20
330
1F
100
AcDbEntity
  8
0
100
AcDbBlockBegin
  2
*Model_Space
 70
     0
 10
0.0
 20
0.0
 30
0.0
  3
*Model_Space
  1

  0
ENDBLK
  5
21
330
1F
100
AcDbEntity
  8
0
100
AcDbBlockEnd
  0
BLOCK
  5
52
330
50
100
AcDbEntity
 67
     1
  8
0
100
AcDbBlockBegin
  2
*Paper_Space
 70
     0
 10
0.0
 20
0.0
 30
0.0
  3
*Paper_Space
  1

  0
ENDBLK
  5
53
330
50
100
AcDbEntity
 67
     1
  8
0
100
AcDbBlockEnd
  0
BLOCK
  5
57
330
55
100
AcDbEntity
 67
     1
  8
0
100
AcDbBlockBegin
  2
*Paper_Space0
 70
     0
 10
0.0
 20
0.0
 30
0.0
  3
*Paper_Space0
  1

  0
ENDBLK
  5
58
330
55
100
AcDbEntity
 67
     1
  8
0
100
AcDbBlockEnd
  0
BLOCK
  5
59A
330
596
100
AcDbEntity
  8
0
100
AcDbBlockBegin
  2
26030_P
 70
     0
 10
0.0
 20
0.0
 30
0.0
  3
26030_P
  1

  0
CIRCLE
  5
59C
330
596
100
AcDbEntity
  8
0
100
AcDbCircle
 10
-0.0003012686956936
 20
-220.1033305557558
 30
0.0
 40
21.97369906048473
  0
LINE
  5
59D
330
596
100
AcDbEntity
  8
0
100
AcDbLine
 10
399.8582240045662
 20
-460.0762020136344
 30
0.0
 11
399.8594464737498
 21
-1.500685277733282
 31
0.0
  0
ARC
  5
59E
330
596
100
AcDbEntity
  8
0
100
AcDbCircle
 10
398.3587722503998
 20
-1.500674222832458
 30
0.0
 40
1.500674223388969
100
AcDbArc
 50
359.9995779236265
 51
90.00156044455305
  0
SPLINE
  5
59F
330
596
100
AcDbEntity
  8
0
100
AcDbSpline
210
0.0
220
0.0
230
1.0
 70
    12
 71
     3
 72
    10
 73
     6
 74
     0
 42
0.0000000001
 43
0.0000000001
 40
0.0
 40
0.0
 40
0.0
 40
0.0
 40
0.0693251293785258
 40
0.3466262436319432
 40
0.9999999999999998
 40
0.9999999999999998
 40
0.9999999999999998
 40
0.9999999999999998
 10
384.8534583697455
 20
-475.080967648455
 30
0.0
 41
1.0
 10
268.3587177392228
 20
-475.0806774116699
 30
0.0
 41
1.0
 10
236.61849314144
 20
-475.0792262252453
 30
0.0
 41
1.0
 10
145.0494754438596
 20
-475.0787007480139
 30
0.0
 41
1.0
 10
59.82849177229673
 20
-475.0788501559563
 30
0.0
 41
1.0
 10
-384.8534583692863
 20
-475.080967648455
 30
0.0
 41
1.0
  0
ARC
  5
5A0
330
596
100
AcDbEntity
  8
0
100
AcDbCircle
 10
384.850969778573
 20
-460.0737134224609
 30
0.0
 40
15.00725443233054
100
AcDbArc
 50
270.0095011230888
 51
359.9904988768591
  0
LINE
  5
5A1
330
596
100
AcDbEntity
  8
0
100
AcDbLine
 10
-398.3587313729959
 20
0.0
 30
0.0
 11
398.3587313729959
 21
0.0
 31
0.0
  0
SPLINE
  5
5A2
330
596
100
AcDbEntity
  8
0
100
AcDbSpline
210
0.0
220
0.0
230
1.0
 70
    12
 71
     3
 72
     9
 73
     5
 74
     0
 42
0.0000000001
 43
0.0000000001
 40
0.0
 40
0.0
 40
0.0
 40
0.0
 40
0.354978520856649
 40
0.9999999999999998
 40
0.9999999999999998
 40
0.9999999999999998
 40
0.9999999999999998
 10
178.0838162671944
 20
-445.7054357311626
 30
0.0
 41
1.0
 10
157.0118044874334
 20
-445.6999061584211
 30
0.0
 41
1.0
 10
97.65043318838161
 20
-445.684328954685
 30
0.0
 41
1.0
 10
38.28905967815535
 20
-445.6885955035759
 30
0.0
 41
1.0
 10
-0.0003012673905687
 20
-445.6913475192505
 30
0.0
 41
1.0
  0
ARC
  5
5A3
330
596
100
AcDbEntity
  8
0
100
AcDbCircle
 10
178.0842950134365
 20
-353.1730624227003
 30
0.0
 40
92.53237330970184
100
AcDbArc
 50
269.9997035617025
 51
0.0047040915986184
  0
LINE
  5
5A4
330
596
100
AcDbEntity
  8
0
100
AcDbLine
 10
270.6127620731531
 20
-207.0970244465852
 30
0.0
 11
270.6166680112692
 21
-353.1654653403284
 31
0.0
  0
ARC
  5
5A5
330
596
100
AcDbEntity
  8
0
100
AcDbCircle
 10
178.1183219099921
 20
-206.9954551710216
 30
0.0
 40
92.49449593037624
100
AcDbArc
 50
359.9370828293146
 51
90.02162388630669
  0
SPLINE
  5
5A6
330
596
100
AcDbEntity
  8
0
100
AcDbSpline
210
0.0
220
0.0
230
1.0
 70
    12
 71
     3
 72
     9
 73
     5
 74
     0
 42
0.0000000001
 43
0.0000000001
 40
0.0
 40
0.0
 40
0.0
 40
0.0
 40
0.8047919297128331
 40
1.0
 40
1.0
 40
1.0
 40
1.0
 10
-0.0003012697916347
 20
-114.5279197825966
 30
0.0
 41
1.0
 10
47.77315176118008
 20
-114.5409995063037
 30
0.0
 41
1.0
 10
107.134399391999
 20
-114.5572518110584
 30
0.0
 41
1.0
 10
166.4956236998378
 20
-114.5101587696863
 30
0.0
 41
1.0
 10
178.0834137468528
 20
-114.5009658279559
 30
0.0
 41
1.0
  0
CIRCLE
  5
5A7
330
596
100
AcDbEntity
  8
0
100
AcDbCircle
 10
0.0370969577033975
 20
-70.0626233519506
 30
0.0
 40
17.47850930446952
  0
CIRCLE
  5
5A8
330
596
100
AcDbEntity
  8
0
100
AcDbCircle
 10
-0.0003012665792994
 20
-220.1033305557558
 30
0.0
 40
34.87130503076925
  0
SPLINE
  5
5A9
330
596
100
AcDbEntity
  8
0
100
AcDbSpline
210
0.0
220
0.0
230
1.0
 70
     8
 71
     3
 72
    56
 73
    52
 74
     0
 42
0.0000000001
 43
0.0000000001
 40
0.0
 40
0.0
 40
0.0
 40
0.0
 40
0.1504232401028064
 40
0.1504232401028064
 40
0.3008464802056128
 40
0.3008464802056128
 40
0.3901136920786957
 40
0.3901136920786957
 40
0.4793809039517787
 40
0.4793809039517787
 40
0.53882516335881
 40
0.53882516335881
 40
0.5638871371748082
 40
0.5638871371748082
 40
0.6140110848068048
 40
0.6140110848068048
 40
0.6378494607444986
 40
0.6378494607444986
 40
0.6616878366821924
 40
0.6616878366821924
 40
0.6855262126198861
 40
0.6855262126198861
 40
0.7093645885575799
 40
0.7093645885575799
 40
0.7427875162941518
 40
0.7427875162941518
 40
0.7762104440307236
 40
0.7762104440307236
 40
0.8731262396116862
 40
0.8731262396116862
 40
0.8978336046638551
 40
0.8978336046638551
 40
0.9225409697160239
 40
0.9225409697160239
 40
0.9371458441893164
 40
0.9371458441893164
 40
0.9517507186626087
 40
0.9517507186626087
 40
0.9604801685360515
 40
0.9604801685360515
 40
0.9693766814121371
 40
0.9693766814121371
 40
0.9782731942882227
 40
0.9782731942882227
 40
0.9843335206833552
 40
0.9843335206833552
 40
0.9964541734736204
 40
0.9964541734736204
 40
0.9989559976988314
 40
0.9989559976988314
 40
0.9999999999999998
 40
0.9999999999999998
 40
0.9999999999999998
 40
0.9999999999999998
 10
186.1294026287041
 20
-322.7963655806034
 30
0.0
 10
185.9937435044421
 20
-313.8236527153495
 30
0.0
 10
185.8593701145155
 20
-304.8306166715538
 30
0.0
 10
185.6461136379157
 20
-286.8471954517463
 30
0.0
 10
185.5607169579207
 20
-277.8645703802595
 30
0.0
 10
185.4251673758854
 20
-263.5653290062419
 30
0.0
 10
185.3724140541135
 20
-258.2364560097612
 30
0.0
 10
185.2912023995895
 20
-247.547413880302
 30
0.0
 10
185.2632299434381
 20
-242.1910017487262
 30
0.0
 10
185.2646472898423
 20
-233.2483438614381
 30
0.0
 10
185.2820961524166
 20
-229.6592659213565
 30
0.0
 10
185.3145859891019
 20
-224.6134796225542
 30
0.0
 10
185.3244426789615
 20
-223.1225073470705
 30
0.0
 10
185.3484818001243
 20
-218.6655289605969
 30
0.0
 10
185.3551317089996
 20
-215.8527637893931
 30
0.0
 10
185.1956454756955
 20
-211.9740662709864
 30
0.0
 10
185.1193917038154
 20
-210.7655873367439
 30
0.0
 10
184.8995497732366
 20
-208.4802148786712
 30
0.0
 10
184.7570751513531
 20
-207.4141637669527
 30
0.0
 10
184.3767340298591
 20
-205.2693670438184
 30
0.0
 10
184.1407765353042
 20
-204.2000133212787
 30
0.0
 10
183.5851863486468
 20
-202.1013295393986
 30
0.0
 10
183.2663726015789
 20
-201.0760771931054
 30
0.0
 10
182.403082936341
 20
-198.6843704593775
 30
0.0
 10
181.8016744992683
 20
-197.2996602441944
 30
0.0
 10
180.4152725767753
 20
-194.5545949731004
 30
0.0
 10
179.6407898876104
 20
-193.2161696606599
 30
0.0
 10
176.3291236583036
 20
-188.1669452611641
 30
0.0
 10
173.2236776904619
 20
-184.7666694316249
 30
0.0
 10
168.7827599804195
 20
-181.2117224511694
 30
0.0
 10
167.8457893810928
 20
-180.5212470472888
 30
0.0
 10
165.951535951398
 20
-179.2401479348518
 30
0.0
 10
165.0007384103855
 20
-178.6548127376372
 30
0.0
 10
163.4954900205821
 20
-177.8244001241764
 30
0.0
 10
162.9428542898067
 20
-177.5408599515995
 30
0.0
 10
161.7376554635893
 20
-176.9626326699526
 30
0.0
 10
161.0971465736702
 20
-176.6741146028016
 30
0.0
 10
160.0129295649904
 20
-176.2087019930859
 30
0.0
 10
159.5937516230597
 20
-176.0335815412199
 30
0.0
 10
158.7204896285738
 20
-175.6761224460551
 30
0.0
 10
158.2564093989977
 20
-175.4890787921686
 30
0.0
 10
157.4563900185576
 20
-175.1767468102316
 30
0.0
 10
157.1021703651722
 20
-175.044900296536
 30
0.0
 10
156.5879593038526
 20
-174.867096757489
 30
0.0
 10
156.4021187967564
 20
-174.807091756169
 30
0.0
 10
155.9152950279285
 20
-174.6612981338112
 30
0.0
 10
155.6863634094743
 20
-174.610948850177
 30
0.0
 10
155.5261465821795
 20
-174.5835545460195
 30
0.0
 10
155.5027549498563
 20
-174.5799828694889
 30
0.0
 10
155.4750987954221
 20
-174.5761411821786
 30
0.0
 10
155.5225641990337
 20
-174.5820264744052
 30
0.0
 10
155.4607961131596
 20
-174.574305510323
 30
0.0
  0
SPLINE
  5
5AA
330
596
100
AcDbEntity
  8
0
100
AcDbSpline
210
0.0
220
0.0
230
1.0
 70
     8
 71
     3
 72
    42
 73
    38
 74
     0
 42
0.0000000001
 43
0.0000000001
 40
0.0
 40
0.0
 40
0.0
 40
0.0
 40
0.0041105327604941
 40
0.0041105327604941
 40
0.0082210655209881
 40
0.0082210655209881
 40
0.0164421310419763
 40
0.0164421310419763
 40
0.0328842620839525
 40
0.0328842620839525
 40
0.0451368043297582
 40
0.0451368043297582
 40
0.0573893465755638
 40
0.0573893465755638
 40
0.0818944310671751
 40
0.0818944310671751
 40
0.1076752637230259
 40
0.1076752637230259
 40
0.1334560963788768
 40
0.1334560963788768
 40
0.1714734606255385
 40
0.1714734606255385
 40
0.1988326428478007
 40
0.1988326428478007
 40
0.2261918250700628
 40
0.2261918250700628
 40
0.2809101895145871
 40
0.2809101895145871
 40
0.3903469184036357
 40
0.3903469184036357
 40
0.502397922305544
 40
0.502397922305544
 40
0.6144489262074523
 40
0.6144489262074523
 40
0.8385509340112687
 40
0.8385509340112687
 40
1.0
 40
1.0
 40
1.0
 40
1.0
 10
154.0381046872617
 20
-174.3085541324999
 30
0.0
 10
153.8294161886961
 20
-174.256381933299
 30
0.0
 10
153.7813198926787
 20
-174.2457802226963
 30
0.0
 10
153.5155571957921
 20
-174.1850707562535
 30
0.0
 10
153.3796680257446
 20
-174.1554073052175
 30
0.0
 10
152.9629318292254
 20
-174.0685093494903
 30
0.0
 10
152.6730030462176
 20
-174.0133767998431
 30
0.0
 10
151.7671041504372
 20
-173.8562328213865
 30
0.0
 10
151.1149416150337
 20
-173.7626636826771
 30
0.0
 10
149.8967396200687
 20
-173.6146943653311
 30
0.0
 10
149.349681909186
 20
-173.5561820951734
 30
0.0
 10
148.2132789080542
 20
-173.4452586515635
 30
0.0
 10
147.6452257250103
 20
-173.3949407172404
 30
0.0
 10
145.9413081464963
 20
-173.2594398131987
 30
0.0
 10
144.8056870405753
 20
-173.1897073072123
 30
0.0
 10
142.4748402594641
 20
-173.0890619348338
 30
0.0
 10
141.2778958463541
 20
-173.0611872939098
 30
0.0
 10
138.8166936564676
 20
-173.0420559138329
 30
0.0
 10
137.5609379075149
 20
-173.0507077010879
 30
0.0
 10
134.3938362355484
 20
-173.1009935034362
 30
0.0
 10
132.4565172387201
 20
-173.156405584401
 30
0.0
 10
129.0380492485537
 20
-173.2554488119858
 30
0.0
 10
127.5810880897452
 20
-173.2964006461261
 30
0.0
 10
124.6872062048724
 20
-173.3708268308637
 30
0.0
 10
123.2412051854126
 20
-173.4052999440901
 30
0.0
 10
118.9062314666307
 20
-173.5016474456042
 30
0.0
 10
116.0207346074066
 20
-173.5564444093124
 30
0.0
 10
107.3778768563434
 20
-173.7027251237341
 30
0.0
 10
101.6341489313281
 20
-173.7761310486949
 30
0.0
 10
90.04718360978314
 20
-173.9301236453448
 30
0.0
 10
84.2009947603592
 20
-174.0164751728061
 30
0.0
 10
72.47677488592035
 20
-174.1990996745589
 30
0.0
 10
66.60730781898838
 20
-174.2932126084324
 30
0.0
 10
48.97626809137455
 20
-174.5513464214818
 30
0.0
 10
37.20125350734179
 20
-174.6892310325493
 30
0.0
 10
16.95233007130173
 20
-174.8136795101436
 30
0.0
 10
8.486255642940705
 20
-174.8374979932469
 30
0.0
 10
0.0335067597525267
 20
-174.8613011377874
 30
0.0
  0
SPLINE
  5
5AB
330
596
100
AcDbEntity
  8
0
100
AcDbSpline
210
0.0
220
0.0
230
1.0
 70
     8
 71
     3
 72
    40
 73
    36
 74
     0
 42
0.0000000001
 43
0.0000000001
 40
0.0
 40
0.0
 40
0.0
 40
0.0
 40
0.1607722361893847
 40
0.1607722361893847
 40
0.3656057271173763
 40
0.3656057271173763
 40
0.5704392180453679
 40
0.5704392180453679
 40
0.7310321958069246
 40
0.7310321958069246
 40
0.7960336778853106
 40
0.7960336778853106
 40
0.8438340533875564
 40
0.8438340533875564
 40
0.8830481476545237
 40
0.8830481476545237
 40
0.9066612088034737
 40
0.9066612088034737
 40
0.9262718949923016
 40
0.9262718949923016
 40
0.9458825811811294
 40
0.9458825811811294
 40
0.9578313940308106
 40
0.9578313940308106
 40
0.9661789579632058
 40
0.9661789579632058
 40
0.974526521895601
 40
0.974526521895601
 40
0.991221649760391
 40
0.991221649760391
 40
0.9956306952816142
 40
0.9956306952816142
 40
0.9987351247729494
 40
0.9987351247729494
 40
1.0
 40
1.0
 40
1.0
 40
1.0
 10
-0.0161721242575368
 20
-370.2882831018724
 30
0.0
 10
8.323805893292046
 20
-370.2772580555156
 30
0.0
 10
16.68026495974572
 20
-370.2661772859992
 30
0.0
 10
35.72076545816981
 20
-370.3194210967213
 30
0.0
 10
46.37492736263175
 20
-370.4071411453697
 30
0.0
 10
67.64633343815967
 20
-370.6106584947284
 30
0.0
 10
78.281854176651
 20
-370.7206251000753
 30
0.0
 10
97.28494693406629
 20
-370.9794666119979
 30
0.0
 10
105.637833859696
 20
-371.1229902774467
 30
0.0
 10
117.3296655253407
 20
-371.3167927244722
 30
0.0
 10
120.6949316042964
 20
-371.3713446617548
 30
0.0
 10
126.5284901493842
 20
-371.4588680165671
 30
0.0
 10
128.9984855440243
 20
-371.4937304449031
 30
0.0
 10
133.4910298958721
 20
-371.5511043912866
 30
0.0
 10
135.5229752333334
 20
-371.5773280324193
 30
0.0
 10
138.6967155581269
 20
-371.601304940732
 30
0.0
 10
139.8750204805046
 20
-371.6054486136018
 30
0.0
 10
142.0062966985215
 20
-371.5967634238114
 30
0.0
 10
142.9671563881902
 20
-371.587513272183
 30
0.0
 10
144.7857803634369
 20
-371.5470949097671
 30
0.0
 10
145.6533257384226
 20
-371.5151895544386
 30
0.0
 10
146.9791191522427
 20
-371.4357379018275
 30
0.0
 10
147.464851882466
 20
-371.3992255054127
 30
0.0
 10
148.2619670442845
 20
-371.3248693008864
 30
0.0
 10
148.5802107298414
 20
-371.2909401598809
 30
0.0
 10
149.2070673328062
 20
-371.2148589588287
 30
0.0
 10
149.5478377416593
 20
-371.1687490276236
 30
0.0
 10
150.6525075979525
 20
-371.0096729524903
 30
0.0
 10
151.4984578148987
 20
-370.8748187773326
 30
0.0
 10
152.7095172506715
 20
-370.6973553344451
 30
0.0
 10
152.9703688703021
 20
-370.6599936047296
 30
0.0
 10
153.428391205548
 20
-370.5969354693098
 30
0.0
 10
153.6215664992314
 20
-370.5710604101641
 30
0.0
 10
153.8990215311723
 20
-370.5352505424162
 30
0.0
 10
153.9965017066251
 20
-370.5228931368711
 30
0.0
 10
154.0616290927109
 20
-370.5147522277257
 30
0.0
  0
SPLINE
  5
5AC
330
596
100
AcDbEntity
  8
0
100
AcDbSpline
210
0.0
220
0.0
230
1.0
 70
     8
 71
     3
 72
    42
 73
    38
 74
     0
 42
0.0000000001
 43
0.0000000001
 40
0.0
 40
0.0
 40
0.0
 40
0.0
 40
0.006767261483127
 40
0.006767261483127
 40
0.013534522966254
 40
0.013534522966254
 40
0.027069045932508
 40
0.027069045932508
 40
0.0541380918650159
 40
0.0541380918650159
 40
0.0741536657967339
 40
0.0741536657967339
 40
0.1141848136601698
 40
0.1141848136601698
 40
0.1542159615236057
 40
0.1542159615236057
 40
0.1942471093870416
 40
0.1942471093870416
 40
0.2743094051139134
 40
0.2743094051139134
 40
0.3543717008407852
 40
0.3543717008407852
 40
0.434433996567657
 40
0.434433996567657
 40
0.5144962922945288
 40
0.5144962922945288
 40
0.6459602196970455
 40
0.6459602196970455
 40
0.7287964639051161
 40
0.7287964639051161
 40
0.7779825240008744
 40
0.7779825240008744
 40
0.820060753842727
 40
0.820060753842727
 40
0.9301637047793589
 40
0.9301637047793589
 40
1.0
 40
1.0
 40
1.0
 40
1.0
 10
152.6389473479039
 20
-370.7805019749594
 30
0.0
 10
152.8148078579188
 20
-370.7365368385872
 30
0.0
 10
153.0060681200639
 20
-370.6889554314567
 30
0.0
 10
153.3643931536799
 20
-370.5999906131055
 30
0.0
 10
153.5406088122044
 20
-370.5563194573624
 30
0.0
 10
154.0602895306483
 20
-370.4273376421916
 30
0.0
 10
154.3947866143689
 20
-370.3440444115131
 30
0.0
 10
155.361455948424
 20
-370.099545631103
 30
0.0
 10
155.9567283950719
 20
-369.9435027865675
 30
0.0
 10
156.9032327419236
 20
-369.6763106460676
 30
0.0
 10
157.2776302884203
 20
-369.5641417258539
 30
0.0
 10
158.316640405902
 20
-369.2298321459275
 30
0.0
 10
159.0219290718169
 20
-368.9696981271263
 30
0.0
 10
160.4812104618695
 20
-368.369448430667
 30
0.0
 10
161.2359258012084
 20
-368.0282734715766
 30
0.0
 10
162.753454815288
 20
-367.2889371994533
 30
0.0
 10
163.4981871840436
 20
-366.8992853245563
 30
0.0
 10
165.6868920890602
 20
-365.6712629663652
 30
0.0
 10
167.0846287770446
 20
-364.7732197695259
 30
0.0
 10
169.810877053239
 20
-362.7893025353005
 30
0.0
 10
171.1280163828969
 20
-361.7119446009456
 30
0.0
 10
173.6214506371261
 20
-359.4259320731726
 30
0.0
 10
174.8036717048098
 20
-358.2118799429918
 30
0.0
 10
177.0293888776004
 20
-355.6532213851515
 30
0.0
 10
178.0736832817792
 20
-354.3077175812669
 30
0.0
 10
180.5924370877446
 20
-350.6479289444851
 30
0.0
 10
181.9117294929901
 20
-348.2646979634174
 30
0.0
 10
183.6483829553226
 20
-344.2053032397653
 30
0.0
 10
184.2186653665421
 20
-342.5938334356997
 30
0.0
 10
184.9535944293939
 20
-339.9927911607901
 30
0.0
 10
185.1870600057309
 20
-339.0226406681049
 30
0.0
 10
185.5415270581443
 20
-337.2292665914174
 30
0.0
 10
185.6720817115428
 20
-336.4144288852294
 30
0.0
 10
186.0600207409161
 20
-333.3135185097745
 30
0.0
 10
186.1657116829347
 20
-330.8531591618394
 30
0.0
 10
186.1864934045961
 20
-326.4612798970556
 30
0.0
 10
186.1590828077069
 20
-324.6737964684016
 30
0.0
 10
186.129530948253
 20
-322.8046631224497
 30
0.0
  0
LINE
  5
5AD
330
596
100
AcDbEntity
  8
0
100
AcDbLine
 10
-399.8582240041078
 20
-460.0762020136344
 30
0.0
 11
-399.8594464732878
 21
-1.500685277733282
 31
0.0
  0
ARC
  5
5AE
330
596
100
AcDbEntity
  8
0
100
AcDbCircle
 10
-398.3587722499387
 20
-1.500674222832458
 30
0.0
 40
1.500674223388969
100
AcDbArc
 50
89.99843955544696
 51
180.0004220763735
  0
ARC
  5
5AF
330
596
100
AcDbEntity
  8
0
100
AcDbCircle
 10
-384.850969778111
 20
-460.0737134224609
 30
0.0
 40
15.00725443233054
100
AcDbArc
 50
180.0095011230887
 51
269.9904988769112
  0
ARC
  5
5B0
330
596
100
AcDbEntity
  8
0
100
AcDbCircle
 10
-178.0848975465933
 20
-353.1730624227003
 30
0.0
 40
92.53237330970184
100
AcDbArc
 50
179.9952959084014
 51
270.0002964382975
  0
LINE
  5
5B1
330
596
100
AcDbEntity
  8
0
100
AcDbLine
 10
-270.6133646063099
 20
-207.0970244465852
 30
0.0
 11
-270.617270544426
 21
-353.1654653403284
 31
0.0
  0
ARC
  5
5B2
330
596
100
AcDbEntity
  8
0
100
AcDbCircle
 10
-178.1189244431489
 20
-206.9954551710216
 30
0.0
 40
92.49449593037624
100
AcDbArc
 50
89.9783761136933
 51
180.0629171706853
  0
SPLINE
  5
5B3
330
596
100
AcDbEntity
  8
0
100
AcDbSpline
210
0.0
220
0.0
230
1.0
 70
     8
 71
     3
 72
    56
 73
    52
 74
     0
 42
0.0000000001
 43
0.0000000001
 40
0.0
 40
0.0
 40
0.0
 40
0.0
 40
0.1504232401028064
 40
0.1504232401028064
 40
0.3008464802056128
 40
0.3008464802056128
 40
0.3901136920786957
 40
0.3901136920786957
 40
0.4793809039517787
 40
0.4793809039517787
 40
0.53882516335881
 40
0.53882516335881
 40
0.5638871371748082
 40
0.5638871371748082
 40
0.6140110848068048
 40
0.6140110848068048
 40
0.6378494607444986
 40
0.6378494607444986
 40
0.6616878366821924
 40
0.6616878366821924
 40
0.6855262126198861
 40
0.6855262126198861
 40
0.7093645885575799
 40
0.7093645885575799
 40
0.7427875162941518
 40
0.7427875162941518
 40
0.7762104440307236
 40
0.7762104440307236
 40
0.8731262396116862
 40
0.8731262396116862
 40
0.8978336046638551
 40
0.8978336046638551
 40
0.9225409697160239
 40
0.9225409697160239
 40
0.9371458441893164
 40
0.9371458441893164
 40
0.9517507186626087
 40
0.9517507186626087
 40
0.9604801685360515
 40
0.9604801685360515
 40
0.9693766814121371
 40
0.9693766814121371
 40
0.9782731942882227
 40
0.9782731942882227
 40
0.9843335206833552
 40
0.9843335206833552
 40
0.9964541734736204
 40
0.9964541734736204
 40
0.9989559976988314
 40
0.9989559976988314
 40
0.9999999999999998
 40
0.9999999999999998
 40
0.9999999999999998
 40
0.9999999999999998
 10
-186.1300051618627
 20
-322.7963655806034
 30
0.0
 10
-185.9943460375971
 20
-313.8236527153495
 30
0.0
 10
-185.8599726476741
 20
-304.8306166715538
 30
0.0
 10
-185.6467161710743
 20
-286.8471954517463
 30
0.0
 10
-185.5613194910793
 20
-277.8645703802595
 30
0.0
 10
-185.425769909044
 20
-263.5653290062419
 30
0.0
 10
-185.3730165872685
 20
-258.2364560097612
 30
0.0
 10
-185.2918049327445
 20
-247.547413880302
 30
0.0
 10
-185.263832476593
 20
-242.1910017487262
 30
0.0
 10
-185.2652498230009
 20
-233.2483438614381
 30
0.0
 10
-185.2826986855752
 20
-229.6592659213565
 30
0.0
 10
-185.3151885222605
 20
-224.6134796225542
 30
0.0
 10
-185.3250452121201
 20
-223.1225073470705
 30
0.0
 10
-185.3490843332792
 20
-218.6655289605969
 30
0.0
 10
-185.3557342421545
 20
-215.8527637893931
 30
0.0
 10
-185.1962480088505
 20
-211.9740662709864
 30
0.0
 10
-185.1199942369776
 20
-210.7655873367439
 30
0.0
 10
-184.9001523063953
 20
-208.4802148786712
 30
0.0
 10
-184.7576776845117
 20
-207.4141637669527
 30
0.0
 10
-184.377336563014
 20
-205.2693670438184
 30
0.0
 10
-184.1413790684591
 20
-204.2000133212787
 30
0.0
 10
-183.5857888818054
 20
-202.1013295393986
 30
0.0
 10
-183.2669751347339
 20
-201.0760771931054
 30
0.0
 10
-182.4036854694959
 20
-198.6843704593775
 30
0.0
 10
-181.8022770324269
 20
-197.2996602441944
 30
0.0
 10
-180.4158751099339
 20
-194.5545949731004
 30
0.0
 10
-179.6413924207691
 20
-193.2161696606599
 30
0.0
 10
-176.3297261914585
 20
-188.1669452611641
 30
0.0
 10
-173.2242802236169
 20
-184.7666694316249
 30
0.0
 10
-168.7833625135781
 20
-181.2117224511694
 30
0.0
 10
-167.8463919142514
 20
-180.5212470472888
 30
0.0
 10
-165.9521384845566
 20
-179.2401479348518
 30
0.0
 10
-165.0013409435405
 20
-178.6548127376372
 30
0.0
 10
-163.4960925537407
 20
-177.8244001241764
 30
0.0
 10
-162.9434568229653
 20
-177.5408599515995
 30
0.0
 10
-161.7382579967443
 20
-176.9626326699526
 30
0.0
 10
-161.0977491068251
 20
-176.6741146028016
 30
0.0
 10
-160.0135320981489
 20
-176.2087019930859
 30
0.0
 10
-159.5943541562183
 20
-176.0335815412199
 30
0.0
 10
-158.7210921617325
 20
-175.6761224460551
 30
0.0
 10
-158.2570119321563
 20
-175.4890787921686
 30
0.0
 10
-157.4569925517162
 20
-175.1767468102316
 30
0.0
 10
-157.1027728983308
 20
-175.044900296536
 30
0.0
 10
-156.5885618370075
 20
-174.867096757489
 30
0.0
 10
-156.4027213299114
 20
-174.807091756169
 30
0.0
 10
-155.9158975610835
 20
-174.6612981338112
 30
0.0
 10
-155.6869659426365
 20
-174.610948850177
 30
0.0
 10
-155.5267491153345
 20
-174.5835545460195
 30
0.0
 10
-155.5033574830149
 20
-174.5799828694889
 30
0.0
 10
-155.4757013285807
 20
-174.5761411821786
 30
0.0
 10
-155.5231667321923
 20
-174.5820264744052
 30
0.0
 10
-155.4613986463146
 20
-174.574305510323
 30
0.0
  0
SPLINE
  5
5B4
330
596
100
AcDbEntity
  8
0
100
AcDbSpline
210
0.0
220
0.0
230
1.0
 70
     8
 71
     3
 72
    42
 73
    38
 74
     0
 42
0.0000000001
 43
0.0000000001
 40
0.0
 40
0.0
 40
0.0
 40
0.0
 40
0.006767261483127
 40
0.006767261483127
 40
0.013534522966254
 40
0.013534522966254
 40
0.027069045932508
 40
0.027069045932508
 40
0.0541380918650159
 40
0.0541380918650159
 40
0.0741536657967339
 40
0.0741536657967339
 40
0.1141848136601698
 40
0.1141848136601698
 40
0.1542159615236057
 40
0.1542159615236057
 40
0.1942471093870416
 40
0.1942471093870416
 40
0.2743094051139134
 40
0.2743094051139134
 40
0.3543717008407852
 40
0.3543717008407852
 40
0.434433996567657
 40
0.434433996567657
 40
0.5144962922945288
 40
0.5144962922945288
 40
0.6459602196970455
 40
0.6459602196970455
 40
0.7287964639051161
 40
0.7287964639051161
 40
0.7779825240008744
 40
0.7779825240008744
 40
0.820060753842727
 40
0.820060753842727
 40
0.9301637047793589
 40
0.9301637047793589
 40
1.0
 40
1.0
 40
1.0
 40
1.0
 10
-152.6395498810625
 20
-370.7805019749594
 30
0.0
 10
-152.8154103910738
 20
-370.7365368385872
 30
0.0
 10
-153.0066706532225
 20
-370.6889554314567
 30
0.0
 10
-153.3649956868385
 20
-370.5999906131055
 30
0.0
 10
-153.5412113453594
 20
-370.5563194573624
 30
0.0
 10
-154.0608920638033
 20
-370.4273376421916
 30
0.0
 10
-154.3953891475239
 20
-370.3440444115131
 30
0.0
 10
-155.3620584815826
 20
-370.099545631103
 30
0.0
 10
-155.9573309282304
 20
-369.9435027865675
 30
0.0
 10
-156.9038352750822
 20
-369.6763106460676
 30
0.0
 10
-157.2782328215753
 20
-369.5641417258539
 30
0.0
 10
-158.3172429390606
 20
-369.2298321459275
 30
0.0
 10
-159.0225316049755
 20
-368.9696981271263
 30
0.0
 10
-160.4818129950281
 20
-368.369448430667
 30
0.0
 10
-161.2365283343633
 20
-368.0282734715766
 30
0.0
 10
-162.7540573484466
 20
-367.2889371994533
 30
0.0
 10
-163.4987897172022
 20
-366.8992853245563
 30
0.0
 10
-165.6874946222187
 20
-365.6712629663652
 30
0.0
 10
-167.0852313102032
 20
-364.7732197695259
 30
0.0
 10
-169.8114795863939
 20
-362.7893025353005
 30
0.0
 10
-171.1286189160519
 20
-361.7119446009456
 30
0.0
 10
-173.6220531702811
 20
-359.4259320731726
 30
0.0
 10
-174.8042742379684
 20
-358.2118799429918
 30
0.0
 10
-177.0299914107591
 20
-355.6532213851515
 30
0.0
 10
-178.0742858149378
 20
-354.3077175812669
 30
0.0
 10
-180.5930396209032
 20
-350.6479289444851
 30
0.0
 10
-181.9123320261451
 20
-348.2646979634174
 30
0.0
 10
-183.6489854884812
 20
-344.2053032397653
 30
0.0
 10
-184.2192678997007
 20
-342.5938334356997
 30
0.0
 10
-184.9541969625525
 20
-339.9927911607901
 30
0.0
 10
-185.1876625388895
 20
-339.0226406681049
 30
0.0
 10
-185.5421295913065
 20
-337.2292665914174
 30
0.0
 10
-185.6726842447015
 20
-336.4144288852294
 30
0.0
 10
-186.0606232740747
 20
-333.3135185097745
 30
0.0
 10
-186.1663142160932
 20
-330.8531591618394
 30
0.0
 10
-186.1870959377511
 20
-326.4612798970556
 30
0.0
 10
-186.1596853408655
 20
-324.6737964684016
 30
0.0
 10
-186.1301334814079
 20
-322.8046631224497
 30
0.0
  0
SPLINE
  5
5B5
330
596
100
AcDbEntity
  8
0
100
AcDbSpline
210
0.0
220
0.0
230
1.0
 70
    12
 71
     3
 72
     9
 73
     5
 74
     0
 42
0.0000000001
 43
0.0000000001
 40
0.0
 40
0.0
 40
0.0
 40
0.0
 40
0.354978520856649
 40
0.9999999999999998
 40
0.9999999999999998
 40
0.9999999999999998
 40
0.9999999999999998
 10
-178.0844188019755
 20
-445.7054357311626
 30
0.0
 41
1.0
 10
-157.0124070222145
 20
-445.6999061584211
 30
0.0
 41
1.0
 10
-97.65103572315911
 20
-445.684328954685
 30
0.0
 41
1.0
 10
-38.28966221293649
 20
-445.6885955035759
 30
0.0
 41
1.0
 10
-0.0003012673905687
 20
-445.6913475192505
 30
0.0
 41
1.0
  0
SPLINE
  5
5B6
330
596
100
AcDbEntity
  8
0
100
AcDbSpline
210
0.0
220
0.0
230
1.0
 70
    12
 71
     3
 72
     9
 73
     5
 74
     0
 42
0.0000000001
 43
0.0000000001
 40
0.0
 40
0.0
 40
0.0
 40
0.0
 40
0.8047919297128331
 40
1.0
 40
1.0
 40
1.0
 40
1.0
 10
-0.0003012649895027
 20
-114.5279197825966
 30
0.0
 41
1.0
 10
-47.77375429595759
 20
-114.5409995063037
 30
0.0
 41
1.0
 10
-107.1350019267802
 20
-114.5572518110584
 30
0.0
 41
1.0
 10
-166.4962262346189
 20
-114.5101587696863
 30
0.0
 41
1.0
 10
-178.0840162816339
 20
-114.5009658279559
 30
0.0
 41
1.0
  0
SPLINE
  5
5B7
330
596
100
AcDbEntity
  8
0
100
AcDbSpline
210
0.0
220
0.0
230
1.0
 70
     8
 71
     3
 72
    42
 73
    38
 74
     0
 42
0.0000000001
 43
0.0000000001
 40
0.0
 40
0.0
 40
0.0
 40
0.0
 40
0.0041105327604941
 40
0.0041105327604941
 40
0.0082210655209881
 40
0.0082210655209881
 40
0.0164421310419763
 40
0.0164421310419763
 40
0.0328842620839525
 40
0.0328842620839525
 40
0.0451368043297582
 40
0.0451368043297582
 40
0.0573893465755638
 40
0.0573893465755638
 40
0.0818944310671751
 40
0.0818944310671751
 40
0.1076752637230259
 40
0.1076752637230259
 40
0.1334560963788768
 40
0.1334560963788768
 40
0.1714734606255385
 40
0.1714734606255385
 40
0.1988326428478007
 40
0.1988326428478007
 40
0.2261918250700628
 40
0.2261918250700628
 40
0.2809101895145871
 40
0.2809101895145871
 40
0.3903469184036357
 40
0.3903469184036357
 40
0.502397922305544
 40
0.502397922305544
 40
0.6144489262074523
 40
0.6144489262074523
 40
0.8385509340112687
 40
0.8385509340112687
 40
1.0
 40
1.0
 40
1.0
 40
1.0
 10
-154.0387072220428
 20
-174.3085541324999
 30
0.0
 10
-153.8300187234772
 20
-174.256381933299
 30
0.0
 10
-153.7819224274563
 20
-174.2457802226963
 30
0.0
 10
-153.5161597305732
 20
-174.1850707562535
 30
0.0
 10
-153.3802705605221
 20
-174.1554073052175
 30
0.0
 10
-152.9635343640029
 20
-174.0685093494903
 30
0.0
 10
-152.6736055809988
 20
-174.0133767998431
 30
0.0
 10
-151.7677066852184
 20
-173.8562328213865
 30
0.0
 10
-151.1155441498149
 20
-173.7626636826771
 30
0.0
 10
-149.8973421548498
 20
-173.6146943653311
 30
0.0
 10
-149.3502844439672
 20
-173.5561820951734
 30
0.0
 10
-148.2138814428354
 20
-173.4452586515635
 30
0.0
 10
-147.6458282597914
 20
-173.3949407172404
 30
0.0
 10
-145.9419106812738
 20
-173.2594398131987
 30
0.0
 10
-144.8062895753528
 20
-173.1897073072123
 30
0.0
 10
-142.4754427942453
 20
-173.0890619348338
 30
0.0
 10
-141.2784983811352
 20
-173.0611872939098
 30
0.0
 10
-138.8172961912487
 20
-173.0420559138329
 30
0.0
 10
-137.561540442296
 20
-173.0507077010879
 30
0.0
 10
-134.3944387703295
 20
-173.1009935034362
 30
0.0
 10
-132.4571197734976
 20
-173.156405584401
 30
0.0
 10
-129.0386517833349
 20
-173.2554488119858
 30
0.0
 10
-127.5816906245227
 20
-173.2964006461261
 30
0.0
 10
-124.6878087396499
 20
-173.3708268308637
 30
0.0
 10
-123.2418077201937
 20
-173.4052999440901
 30
0.0
 10
-118.9068340014119
 20
-173.5016474456042
 30
0.0
 10
-116.0213371421841
 20
-173.5564444093124
 30
0.0
 10
-107.3784793911281
 20
-173.7027251237341
 30
0.0
 10
-101.6347514661092
 20
-173.7761310486949
 30
0.0
 10
-90.04778614456427
 20
-173.9301236453448
 30
0.0
 10
-84.20159729514034
 20
-174.0164751728061
 30
0.0
 10
-72.47737742070149
 20
-174.1990996745589
 30
0.0
 10
-66.60791035376951
 20
-174.2932126084324
 30
0.0
 10
-48.97687062615569
 20
-174.5513464214818
 30
0.0
 10
-37.20185604212293
 20
-174.6892310325493
 30
0.0
 10
-16.95293260608287
 20
-174.8136795101436
 30
0.0
 10
-8.486858177721842
 20
-174.8374979932469
 30
0.0
 10
-0.0341092945336641
 20
-174.8613011377874
 30
0.0
  0
SPLINE
  5
5B8
330
596
100
AcDbEntity
  8
0
100
AcDbSpline
210
0.0
220
0.0
230
1.0
 70
     8
 71
     3
 72
    40
 73
    36
 74
     0
 42
0.0000000001
 43
0.0000000001
 40
0.0
 40
0.0
 40
0.0
 40
0.0
 40
0.1607722361893847
 40
0.1607722361893847
 40
0.3656057271173763
 40
0.3656057271173763
 40
0.5704392180453679
 40
0.5704392180453679
 40
0.7310321958069246
 40
0.7310321958069246
 40
0.7960336778853106
 40
0.7960336778853106
 40
0.8438340533875564
 40
0.8438340533875564
 40
0.8830481476545237
 40
0.8830481476545237
 40
0.9066612088034737
 40
0.9066612088034737
 40
0.9262718949923016
 40
0.9262718949923016
 40
0.9458825811811294
 40
0.9458825811811294
 40
0.9578313940308106
 40
0.9578313940308106
 40
0.9661789579632058
 40
0.9661789579632058
 40
0.974526521895601
 40
0.974526521895601
 40
0.991221649760391
 40
0.991221649760391
 40
0.9956306952816142
 40
0.9956306952816142
 40
0.9987351247729494
 40
0.9987351247729494
 40
1.0
 40
1.0
 40
1.0
 40
1.0
 10
0.0155695894763994
 20
-370.2882831018724
 30
0.0
 10
-8.324408428073184
 20
-370.2772580555156
 30
0.0
 10
-16.68086749452323
 20
-370.2661772859992
 30
0.0
 10
-35.72136799295094
 20
-370.3194210967213
 30
0.0
 10
-46.37552989741289
 20
-370.4071411453697
 30
0.0
 10
-67.64693597293717
 20
-370.6106584947284
 30
0.0
 10
-78.28245671143213
 20
-370.7206251000753
 30
0.0
 10
-97.28554946884742
 20
-370.9794666119979
 30
0.0
 10
-105.6384363944735
 20
-371.1229902774467
 30
0.0
 10
-117.3302680601218
 20
-371.3167927244722
 30
0.0
 10
-120.6955341390776
 20
-371.3713446617548
 30
0.0
 10
-126.5290926841653
 20
-371.4588680165671
 30
0.0
 10
-128.9990880788054
 20
-371.4937304449031
 30
0.0
 10
-133.4916324306532
 20
-371.5511043912866
 30
0.0
 10
-135.5235777681182
 20
-371.5773280324193
 30
0.0
 10
-138.6973180929044
 20
-371.601304940732
 30
0.0
 10
-139.8756230152858
 20
-371.6054486136018
 30
0.0
 10
-142.0068992333026
 20
-371.5967634238114
 30
0.0
 10
-142.9677589229713
 20
-371.587513272183
 30
0.0
 10
-144.7863828982145
 20
-371.5470949097671
 30
0.0
 10
-145.6539282732001
 20
-371.5151895544386
 30
0.0
 10
-146.9797216870238
 20
-371.4357379018275
 30
0.0
 10
-147.4654544172472
 20
-371.3992255054127
 30
0.0
 10
-148.2625695790657
 20
-371.3248693008864
 30
0.0
 10
-148.5808132646189
 20
-371.2909401598809
 30
0.0
 10
-149.2076698675873
 20
-371.2148589588287
 30
0.0
 10
-149.5484402764405
 20
-371.1687490276236
 30
0.0
 10
-150.6531101327337
 20
-371.0096729524903
 30
0.0
 10
-151.4990603496835
 20
-370.8748187773326
 30
0.0
 10
-152.7101197854526
 20
-370.6973553344451
 30
0.0
 10
-152.9709714050832
 20
-370.6599936047296
 30
0.0
 10
-153.4289937403291
 20
-370.5969354693098
 30
0.0
 10
-153.6221690340125
 20
-370.5710604101641
 30
0.0
 10
-153.8996240659535
 20
-370.5352505424162
 30
0.0
 10
-153.9971042414026
 20
-370.5228931368711
 30
0.0
 10
-154.0622316274921
 20
-370.5147522277257
 30
0.0
  0
ELLIPSE
  5
5B9
330
596
100
AcDbEntity
  8
0
100
AcDbEllipse
 10
-0.0003012686993316
 20
-140.6296753294073
 30
0.0
 11
10.49977968662187
 21
0.0
 31
0.0
210
0.0
220
0.0
230
1.0
 40
0.450126249589265
 41
0.0
 42
6.283185307179586
  0
ENDBLK
  5
59B
330
596
100
AcDbEntity
  8
0
100
AcDbBlockEnd
  0
ENDSEC
  0
SECTION
  2
ENTITIES
  0
MTEXT
  5
329
330
1F
100
AcDbEntity
  8
0
370
    53
100
AcDbMText
 10
1265.753183277928
 20
4228.097373203421
 30
0.0
 40
20.0
 41
528.2530204157336
 71
     1
 72
     5
  1
{\fTimes New Roman|b0|i0|c0|p18;LAVABO FLEX DE 80CM.}
 73
     1
 44
1.0
1001
ACAD
1000
ACAD_MTEXT_DEFINED_HEIGHT_BEGIN
1070
    46
1040
0.0
1000
ACAD_MTEXT_DEFINED_HEIGHT_END
1000
MTEXTBEGIN
1070
    73
1070
     1
1070
    44
1040
1.0
1070
    74
1070
     0
1000
MTEXTEND
  0
INSERT
  5
5BA
330
1F
100
AcDbEntity
  8
0
100
AcDbBlockReference
  2
26030_P
 10
1441.609832067066
 20
4728.697862362571
 30
0.0
  0
ENDSEC
  0
SECTION
  2
OBJECTS
  0
DICTIONARY
  5
C
330
0
100
AcDbDictionary
281
     1
  3
ACAD_COLOR
350
6B
  3
ACAD_GROUP
350
D
  3
ACAD_IMAGE_DICT
350
8B
  3
ACAD_IMAGE_VARS
350
8C
  3
ACAD_LAYOUT
350
1A
  3
ACAD_MATERIAL
350
6A
  3
ACAD_MLINESTYLE
350
17
  3
ACAD_PLOTSETTINGS
350
19
  3
ACAD_PLOTSTYLENAME
350
E
  3
ACAD_TABLESTYLE
350
F2
  3
ACDBHEADERROUNDTRIPXREC
350
5CA
  3
AcDbVariableDictionary
350
5E
  3
DWGPROPS
350
5C9
  0
DICTIONARY
  5
F9
330
2
100
AcDbDictionary
280
     1
281
     1
  3
ACAD_LAYERSTATES
360
FA
  0
DICTIONARY
  5
92
330
1F
100
AcDbDictionary
280
     1
281
     1
  3
ACAD_SORTENTS
360
93
  0
DICTIONARY
  5
597
330
596
100
AcDbDictionary
280
     1
281
     1
  3
AcDbBlockTableRecordData
360
598
  0
DICTIONARY
  5
6B
102
{ACAD_REACTORS
330
C
102
}
330
C
100
AcDbDictionary
281
     1
  0
DICTIONARY
  5
D
102
{ACAD_REACTORS
330
C
102
}
330
C
100
AcDbDictionary
281
     1
  0
DICTIONARY
  5
8B
102
{ACAD_REACTORS
330
C
102
}
330
C
100
AcDbDictionary
281
     1
  3
Panorama Square 60
350
8D
  0
RASTERVARIABLES
  5
8C
102
{ACAD_REACTORS
330
C
102
}
330
C
100
AcDbRasterVariables
 90
        0
 70
     1
 71
     1
 72
     1
  0
DICTIONARY
  5
1A
102
{ACAD_REACTORS
330
C
102
}
330
C
100
AcDbDictionary
281
     1
  3
Model
350
22
  3
Presentación1
350
51
  3
Presentación2
350
56
  0
DICTIONARY
  5
6A
102
{ACAD_REACTORS
330
C
102
}
330
C
100
AcDbDictionary
281
     1
  0
DICTIONARY
  5
17
102
{ACAD_REACTORS
330
C
102
}
330
C
100
AcDbDictionary
281
     1
  3
Standard
350
18
  0
DICTIONARY
  5
19
102
{ACAD_REACTORS
330
C
102
}
330
C
100
AcDbDictionary
281
     1
  0
ACDBDICTIONARYWDFLT
  5
E
102
{ACAD_REACTORS
330
C
102
}
330
C
100
AcDbDictionary
281
     1
  3
Normal
350
F
100
AcDbDictionaryWithDefault
340
F
  0
DICTIONARY
  5
F2
102
{ACAD_REACTORS
330
C
102
}
330
C
100
AcDbDictionary
281
     1
  3
Standard
350
F3
  0
DICTIONARY
  5
5CA
102
{ACAD_REACTORS
330
C
102
}
330
C
100
AcDbDictionary
281
     1
  0
DICTIONARY
  5
5E
102
{ACAD_REACTORS
330
C
102
}
330
C
100
AcDbDictionary
281
     1
  3
CTABLESTYLE
350
211
  3
DIMASSOC
350
5F
  3
HIDETEXT
350
63
  3
PROJECTNAME
350
21B
  0
XRECORD
  5
5C9
102
{ACAD_REACTORS
330
C
102
}
330
C
100
AcDbXrecord
280
     1
  1
DWGPROPS COOKIE
  2

  3

  4

  6

  7

  8

  9

300
=
301
=
302
=
303
=
304
=
305
=
306
=
307
=
308
=
309
=
 40
0.0349936805555556
 41
2454483.865534387
 42
2455026.455703843
  1

 90
        0
  0
DICTIONARY
  5
FA
102
{ACAD_REACTORS
330
F9
102
}
330
F9
100
AcDbDictionary
281
     1
  0
SORTENTSTABLE
  5
93
102
{ACAD_REACTORS
330
92
102
}
330
92
100
AcDbSortentsTable
330
1F
  0
DICTIONARY
  5
598
102
{ACAD_REACTORS
330
597
102
}
330
597
100
AcDbDictionary
280
     1
281
     1
  3
Edit
360
599
  0
IMAGEDEF
  5
8D
102
{ACAD_REACTORS
330
8B
102
}
330
8B
100
AcDbRasterImageDef
 90
        0
  1
D:\Mis documentos\Alvaro\gala\Mío\LAVABOS\PANORAMA\Panorama Square 60.bmp
 10
577.0
 20
815.0
 11
0.352858149123434
 21
0.352858149123434
280
     1
281
     2
  0
LAYOUT
  5
22
102
{ACAD_XDICTIONARY
360
5CB
102
}
102
{ACAD_REACTORS
330
1A
102
}
330
1A
100
AcDbPlotSettings
  1

  2
none_device
  4
ANSI_A_(8.50_x_11.00_Inches)
  6

 40
6.349999904632567
 41
19.04999923706055
 42
6.350006103515625
 43
19.04998779296875
 44
215.8999938964844
 45
279.3999938964844
 46
0.0
 47
0.0
 48
0.0
 49
0.0
140
0.0
141
0.0
142
1.0
143
78.436453180766
 70
 11952
 72
     0
 73
     1
 74
     0
  7

 75
     0
147
0.0127491741332998
148
0.0
149
0.0
100
AcDbLayout
  1
Model
 70
     1
 71
     0
 10
0.0
 20
0.0
 11
12.0
 21
9.0
 12
0.0
 22
0.0
 32
0.0
 14
0.0
 24
0.0
 34
0.0
 15
0.0
 25
0.0
 35
0.0
146
0.0
 13
0.0
 23
0.0
 33
0.0
 16
1.0
 26
0.0
 36
0.0
 17
0.0
 27
1.0
 37
0.0
 76
     0
330
1F
  0
LAYOUT
  5
51
102
{ACAD_XDICTIONARY
360
5CD
102
}
102
{ACAD_REACTORS
330
1A
102
}
330
1A
100
AcDbPlotSettings
  1

  2
None
  4

  6

 40
0.0
 41
0.0
 42
0.0
 43
0.0
 44
0.0
 45
0.0
 46
0.0
 47
0.0
 48
0.0
 49
0.0
140
0.0
141
0.0
142
1.0
143
1.0
 70
   688
 72
     0
 73
     0
 74
     5
  7

 75
    16
147
1.0
148
0.0
149
0.0
100
AcDbLayout
  1
Presentación1
 70
     1
 71
     1
 10
0.0
 20
0.0
 11
12.0
 21
9.0
 12
0.0
 22
0.0
 32
0.0
 14
0.0
 24
0.0
 34
0.0
 15
0.0
 25
0.0
 35
0.0
146
0.0
 13
0.0
 23
0.0
 33
0.0
 16
1.0
 26
0.0
 36
0.0
 17
0.0
 27
1.0
 37
0.0
 76
     0
330
50
  0
LAYOUT
  5
56
102
{ACAD_XDICTIONARY
360
5CF
102
}
102
{ACAD_REACTORS
330
1A
102
}
330
1A
100
AcDbPlotSettings
  1

  2
None
  4

  6

 40
0.0
 41
0.0
 42
0.0
 43
0.0
 44
0.0
 45
0.0
 46
0.0
 47
0.0
 48
0.0
 49
0.0
140
0.0
141
0.0
142
1.0
143
1.0
 70
   688
 72
     0
 73
     0
 74
     5
  7

 75
    16
147
1.0
148
0.0
149
0.0
100
AcDbLayout
  1
Presentación2
 70
     1
 71
     2
 10
0.0
 20
0.0
 11
12.0
 21
9.0
 12
0.0
 22
0.0
 32
0.0
 14
0.0
 24
0.0
 34
0.0
 15
0.0
 25
0.0
 35
0.0
146
0.0
 13
0.0
 23
0.0
 33
0.0
 16
1.0
 26
0.0
 36
0.0
 17
0.0
 27
1.0
 37
0.0
 76
     0
330
55
  0
MLINESTYLE
  5
18
102
{ACAD_REACTORS
330
17
102
}
330
17
100
AcDbMlineStyle
  2
STANDARD
 70
     0
  3

 62
   256
 51
90.0
 52
90.0
 71
     2
 49
0.5
 62
   256
  6
BYLAYER
 49
-0.5
 62
   256
  6
BYLAYER
  0
ACDBPLACEHOLDER
  5
F
102
{ACAD_REACTORS
330
E
102
}
330
E
  0
TABLESTYLE
  5
F3
102
{ACAD_REACTORS
330
F2
102
}
330
F2
100
AcDbTableStyle
  3
Standard
 70
     0
 71
     0
 40
1.5
 41
1.5
280
     0
281
     0
  7
Standard
140
4.5
170
     2
 62
     0
 63
     7
283
     0
274
    -2
284
     1
 64
     0
275
    -2
285
     1
 65
     0
276
    -2
286
     1
 66
     0
277
    -2
287
     1
 67
     0
278
    -2
288
     1
 68
     0
279
    -2
289
     1
 69
     0
  7
Standard
140
6.0
170
     5
 62
     0
 63
     7
283
     0
274
    -2
284
     1
 64
     0
275
    -2
285
     1
 65
     0
276
    -2
286
     1
 66
     0
277
    -2
287
     1
 67
     0
278
    -2
288
     1
 68
     0
279
    -2
289
     1
 69
     0
  7
Standard
140
4.5
170
     5
 62
     0
 63
     7
283
     0
274
    -2
284
     1
 64
     0
275
    -2
285
     1
 65
     0
276
    -2
286
     1
 66
     0
277
    -2
287
     1
 67
     0
278
    -2
288
     1
 68
     0
279
    -2
289
     1
 69
     0
  0
DICTIONARYVAR
  5
211
102
{ACAD_REACTORS
330
5E
102
}
330
5E
100
DictionaryVariables
280
     0
  1
STANDARD
  0
DICTIONARYVAR
  5
5F
102
{ACAD_REACTORS
330
5E
102
}
330
5E
100
DictionaryVariables
280
     0
  1
2
  0
DICTIONARYVAR
  5
63
102
{ACAD_REACTORS
330
5E
102
}
330
5E
100
DictionaryVariables
280
     0
  1
1
  0
DICTIONARYVAR
  5
21B
102
{ACAD_REACTORS
330
5E
102
}
330
5E
100
DictionaryVariables
280
     0
  1

  0
XRECORD
  5
599
102
{ACAD_REACTORS
330
598
102
}
330
598
100
AcDbXrecord
280
     1
1070
     0
1070
     0
1070
     0
  0
DICTIONARY
  5
5CB
330
22
100
AcDbDictionary
280
     1
281
     1
  3
ACAD_XREC_ROUNDTRIP
360
5CC
  0
DICTIONARY
  5
5CD
330
51
100
AcDbDictionary
280
     1
281
     1
  3
ACAD_XREC_ROUNDTRIP
360
5CE
  0
DICTIONARY
  5
5CF
330
56
100
AcDbDictionary
280
     1
281
     1
  3
ACAD_XREC_ROUNDTRIP
360
5D0
  0
XRECORD
  5
5CC
102
{ACAD_REACTORS
330
5CB
102
}
330
5CB
100
AcDbXrecord
280
     1
102
SHADEPLOT
 70
     0
102
SHADEPLOTRESLEVEL
 70
     2
102
SHADEPLOTCUSTOMDPI
 70
   300
  0
XRECORD
  5
5CE
102
{ACAD_REACTORS
330
5CD
102
}
330
5CD
100
AcDbXrecord
280
     1
102
SHADEPLOT
 70
     0
102
SHADEPLOTRESLEVEL
 70
     2
102
SHADEPLOTCUSTOMDPI
 70
   300
  0
XRECORD
  5
5D0
102
{ACAD_REACTORS
330
5CF
102
}
330
5CF
100
AcDbXrecord
280
     1
102
SHADEPLOT
 70
     0
102
SHADEPLOTRESLEVEL
 70
     2
102
SHADEPLOTCUSTOMDPI
 70
   300
  0
ENDSEC
  0
EOF
