  0
SECTION
  2
HEADER
  9
$ACADVER
  1
AC1024
  9
$ACADMAINTVER
 70
     6
  9
$DWGCODEPAGE
  3
ANSI_1252
  9
$INSBASE
 10
0.0
 20
0.0
 30
0.0
  9
$EXTMIN
 10
1.000000000000000E+20
 20
1.000000000000000E+20
 30
1.000000000000000E+20
  9
$EXTMAX
 10
-1.000000000000000E+20
 20
-1.000000000000000E+20
 30
-1.000000000000000E+20
  9
$LIMMIN
 10
0.0
 20
0.0
  9
$LIMMAX
 10
12.0
 20
9.0
  9
$ORTHOMODE
 70
     0
  9
$REGENMODE
 70
     1
  9
$FILLMODE
 70
     1
  9
$QTEXTMODE
 70
     0
  9
$MIRRTEXT
 70
     1
  9
$LTSCALE
 40
1.0
  9
$ATTMODE
 70
     1
  9
$TEXTSIZE
 40
0.2
  9
$TRACEWID
 40
0.05
  9
$TEXTSTYLE
  7
Standard
  9
$CLAYER
  8
0
  9
$CELTYPE
  6
ByLayer
  9
$CECOLOR
 62
   256
  9
$CELTSCALE
 40
1.0
  9
$DISPSILH
 70
     0
  9
$DIMSCALE
 40
1.0
  9
$DIMASZ
 40
0.18
  9
$DIMEXO
 40
0.0625
  9
$DIMDLI
 40
0.38
  9
$DIMRND
 40
0.0
  9
$DIMDLE
 40
0.0
  9
$DIMEXE
 40
0.18
  9
$DIMTP
 40
0.0
  9
$DIMTM
 40
0.0
  9
$DIMTXT
 40
0.18
  9
$DIMCEN
 40
0.09
  9
$DIMTSZ
 40
0.0
  9
$DIMTOL
 70
     0
  9
$DIMLIM
 70
     0
  9
$DIMTIH
 70
     1
  9
$DIMTOH
 70
     1
  9
$DIMSE1
 70
     0
  9
$DIMSE2
 70
     0
  9
$DIMTAD
 70
     0
  9
$DIMZIN
 70
     0
  9
$DIMBLK
  1

  9
$DIMASO
 70
     1
  9
$DIMSHO
 70
     1
  9
$DIMPOST
  1

  9
$DIMAPOST
  1

  9
$DIMALT
 70
     0
  9
$DIMALTD
 70
     2
  9
$DIMALTF
 40
25.4
  9
$DIMLFAC
 40
1.0
  9
$DIMTOFL
 70
     0
  9
$DIMTVP
 40
0.0
  9
$DIMTIX
 70
     0
  9
$DIMSOXD
 70
     0
  9
$DIMSAH
 70
     0
  9
$DIMBLK1
  1

  9
$DIMBLK2
  1

  9
$DIMSTYLE
  2
Standard
  9
$DIMCLRD
 70
     0
  9
$DIMCLRE
 70
     0
  9
$DIMCLRT
 70
     0
  9
$DIMTFAC
 40
1.0
  9
$DIMGAP
 40
0.09
  9
$DIMJUST
 70
     0
  9
$DIMSD1
 70
     0
  9
$DIMSD2
 70
     0
  9
$DIMTOLJ
 70
     1
  9
$DIMTZIN
 70
     0
  9
$DIMALTZ
 70
     0
  9
$DIMALTTZ
 70
     0
  9
$DIMUPT
 70
     0
  9
$DIMDEC
 70
     4
  9
$DIMTDEC
 70
     4
  9
$DIMALTU
 70
     2
  9
$DIMALTTD
 70
     2
  9
$DIMTXSTY
  7
Standard
  9
$DIMAUNIT
 70
     0
  9
$DIMADEC
 70
     0
  9
$DIMALTRND
 40
0.0
  9
$DIMAZIN
 70
     0
  9
$DIMDSEP
 70
    46
  9
$DIMATFIT
 70
     3
  9
$DIMFRAC
 70
     0
  9
$DIMLDRBLK
  1

  9
$DIMLUNIT
 70
     2
  9
$DIMLWD
 70
    -2
  9
$DIMLWE
 70
    -2
  9
$DIMTMOVE
 70
     0
  9
$DIMFXL
 40
1.0
  9
$DIMFXLON
 70
     0
  9
$DIMJOGANG
 40
0.7853981633974483
  9
$DIMTFILL
 70
     0
  9
$DIMTFILLCLR
 70
     0
  9
$DIMARCSYM
 70
     0
  9
$DIMLTYPE
  6

  9
$DIMLTEX1
  6

  9
$DIMLTEX2
  6

  9
$DIMTXTDIRECTION
 70
     0
  9
$LUNITS
 70
     2
  9
$LUPREC
 70
     4
  9
$SKETCHINC
 40
0.1
  9
$FILLETRAD
 40
0.5
  9
$AUNITS
 70
     0
  9
$AUPREC
 70
     0
  9
$MENU
  1
.
  9
$ELEVATION
 40
0.0
  9
$PELEVATION
 40
0.0
  9
$THICKNESS
 40
0.0
  9
$LIMCHECK
 70
     0
  9
$CHAMFERA
 40
0.5
  9
$CHAMFERB
 40
0.5
  9
$CHAMFERC
 40
1.0
  9
$CHAMFERD
 40
0.0
  9
$SKPOLY
 70
     0
  9
$TDCREATE
 40
2458543.764758889
  9
$TDUCREATE
 40
2458543.723092222
  9
$TDUPDATE
 40
2458543.764759907
  9
$TDUUPDATE
 40
2458543.723093241
  9
$TDINDWG
 40
0.0000000116
  9
$TDUSRTIMER
 40
0.0000000116
  9
$USRTIMER
 70
     1
  9
$ANGBASE
 50
0.0
  9
$ANGDIR
 70
     0
  9
$PDMODE
 70
     0
  9
$PDSIZE
 40
0.0
  9
$PLINEWID
 40
0.0
  9
$SPLFRAME
 70
     0
  9
$SPLINETYPE
 70
     6
  9
$SPLINESEGS
 70
     8
  9
$HANDSEED
  5
5BB
  9
$SURFTAB1
 70
     6
  9
$SURFTAB2
 70
     6
  9
$SURFTYPE
 70
     6
  9
$SURFU
 70
     6
  9
$SURFV
 70
     6
  9
$UCSBASE
  2

  9
$UCSNAME
  2

  9
$UCSORG
 10
0.0
 20
0.0
 30
0.0
  9
$UCSXDIR
 10
1.0
 20
0.0
 30
0.0
  9
$UCSYDIR
 10
0.0
 20
1.0
 30
0.0
  9
$UCSORTHOREF
  2

  9
$UCSORTHOVIEW
 70
     0
  9
$UCSORGTOP
 10
0.0
 20
0.0
 30
0.0
  9
$UCSORGBOTTOM
 10
0.0
 20
0.0
 30
0.0
  9
$UCSORGLEFT
 10
0.0
 20
0.0
 30
0.0
  9
$UCSORGRIGHT
 10
0.0
 20
0.0
 30
0.0
  9
$UCSORGFRONT
 10
0.0
 20
0.0
 30
0.0
  9
$UCSORGBACK
 10
0.0
 20
0.0
 30
0.0
  9
$PUCSBASE
  2

  9
$PUCSNAME
  2

  9
$PUCSORG
 10
0.0
 20
0.0
 30
0.0
  9
$PUCSXDIR
 10
1.0
 20
0.0
 30
0.0
  9
$PUCSYDIR
 10
0.0
 20
1.0
 30
0.0
  9
$PUCSORTHOREF
  2

  9
$PUCSORTHOVIEW
 70
     0
  9
$PUCSORGTOP
 10
0.0
 20
0.0
 30
0.0
  9
$PUCSORGBOTTOM
 10
0.0
 20
0.0
 30
0.0
  9
$PUCSORGLEFT
 10
0.0
 20
0.0
 30
0.0
  9
$PUCSORGRIGHT
 10
0.0
 20
0.0
 30
0.0
  9
$PUCSORGFRONT
 10
0.0
 20
0.0
 30
0.0
  9
$PUCSORGBACK
 10
0.0
 20
0.0
 30
0.0
  9
$USERI1
 70
     0
  9
$USERI2
 70
     0
  9
$USERI3
 70
     0
  9
$USERI4
 70
     0
  9
$USERI5
 70
     0
  9
$USERR1
 40
0.0
  9
$USERR2
 40
0.0
  9
$USERR3
 40
0.0
  9
$USERR4
 40
0.0
  9
$USERR5
 40
0.0
  9
$WORLDVIEW
 70
     1
  9
$SHADEDGE
 70
     3
  9
$SHADEDIF
 70
    70
  9
$TILEMODE
 70
     1
  9
$MAXACTVP
 70
    64
  9
$PINSBASE
 10
0.0
 20
0.0
 30
0.0
  9
$PLIMCHECK
 70
     0
  9
$PEXTMIN
 10
1.000000000000000E+20
 20
1.000000000000000E+20
 30
1.000000000000000E+20
  9
$PEXTMAX
 10
-1.000000000000000E+20
 20
-1.000000000000000E+20
 30
-1.000000000000000E+20
  9
$PLIMMIN
 10
0.0
 20
0.0
  9
$PLIMMAX
 10
12.0
 20
9.0
  9
$UNITMODE
 70
     0
  9
$VISRETAIN
 70
     1
  9
$PLINEGEN
 70
     0
  9
$PSLTSCALE
 70
     1
  9
$TREEDEPTH
 70
  3020
  9
$CMLSTYLE
  2
Standard
  9
$CMLJUST
 70
     0
  9
$CMLSCALE
 40
1.0
  9
$PROXYGRAPHICS
 70
     1
  9
$MEASUREMENT
 70
     0
  9
$CELWEIGHT
370
    -1
  9
$ENDCAPS
280
     0
  9
$JOINSTYLE
280
     0
  9
$LWDISPLAY
290
     1
  9
$INSUNITS
 70
     1
  9
$HYPERLINKBASE
  1

  9
$STYLESHEET
  1

  9
$XEDIT
290
     1
  9
$CEPSNTYPE
380
     0
  9
$PSTYLEMODE
290
     1
  9
$FINGERPRINTGUID
  2
{43301B37-088F-4812-B2C8-56DDA7C8997D}
  9
$VERSIONGUID
  2
{FAEB1C32-E019-11D5-929B-00C0DF256EC4}
  9
$EXTNAMES
290
     1
  9
$PSVPSCALE
 40
0.0
  9
$OLESTARTUP
290
     0
  9
$SORTENTS
280
   127
  9
$INDEXCTL
280
     0
  9
$HIDETEXT
280
     1
  9
$XCLIPFRAME
280
     2
  9
$HALOGAP
280
     0
  9
$OBSCOLOR
 70
   257
  9
$OBSLTYPE
280
     0
  9
$INTERSECTIONDISPLAY
280
     0
  9
$INTERSECTIONCOLOR
 70
   257
  9
$DIMASSOC
280
     2
  9
$PROJECTNAME
  1

  9
$CAMERADISPLAY
290
     0
  9
$LENSLENGTH
 40
50.0
  9
$CAMERAHEIGHT
 40
0.0
  9
$STEPSPERSEC
 40
2.0
  9
$STEPSIZE
 40
6.0
  9
$3DDWFPREC
 40
2.0
  9
$PSOLWIDTH
 40
0.25
  9
$PSOLHEIGHT
 40
4.0
  9
$LOFTANG1
 40
1.570796326794897
  9
$LOFTANG2
 40
1.570796326794897
  9
$LOFTMAG1
 40
0.0
  9
$LOFTMAG2
 40
0.0
  9
$LOFTPARAM
 70
     7
  9
$LOFTNORMALS
280
     1
  9
$LATITUDE
 40
37.795
  9
$LONGITUDE
 40
-122.394
  9
$NORTHDIRECTION
 40
0.0
  9
$TIMEZONE
 70
 -8000
  9
$LIGHTGLYPHDISPLAY
280
     1
  9
$TILEMODELIGHTSYNCH
280
     1
  9
$CMATERIAL
347
3C
  9
$SOLIDHIST
280
     1
  9
$SHOWHIST
280
     1
  9
$DWFFRAME
280
     2
  9
$DGNFRAME
280
     2
  9
$REALWORLDSCALE
290
     1
  9
$INTERFERECOLOR
 62
   256
  9
$CSHADOW
280
     0
  9
$SHADOWPLANELOCATION
 40
0.0
  0
ENDSEC
  0
SECTION
  2
CLASSES
  0
CLASS
  1
ACDBDICTIONARYWDFLT
  2
AcDbDictionaryWithDefault
  3
ObjectDBX Classes
 90
        0
 91
        4
280
     0
281
     0
  0
CLASS
  1
VISUALSTYLE
  2
AcDbVisualStyle
  3
ObjectDBX Classes
 90
     4095
 91
        4
280
     0
281
     0
  0
CLASS
  1
MATERIAL
  2
AcDbMaterial
  3
ObjectDBX Classes
 90
     1153
 91
        4
280
     0
281
     0
  0
CLASS
  1
SUN
  2
AcDbSun
  3
SCENEOE
 90
     1024
 91
        4
280
     0
281
     0
  0
ENDSEC
  0
SECTION
  2
TABLES
  0
TABLE
  2
VPORT
  5
8
330
0
100
AcDbSymbolTable
 70
     1
  0
VPORT
  5
29
330
8
100
AcDbSymbolTableRecord
100
AcDbViewportTableRecord
  2
*Active
 70
     0
 10
0.0
 20
0.0
 11
1.0
 21
1.0
 12
0.0
 22
0.0
 13
0.0
 23
0.0
 14
0.5
 24
0.5
 15
0.5
 25
0.5
 16
0.0
 26
0.0
 36
1.0
 17
104.9999999737534
 27
148.4999999628701
 37
0.0
 40
296.9999999257402
 41
0.7070707070707533
 42
50.0
 43
0.0
 44
0.0
 50
0.0
 51
0.0
 71
     0
 72
   100
 73
     1
 74
     3
 75
     0
 76
     0
 77
     0
 78
     0
281
     0
 65
     1
110
0.0
120
0.0
130
0.0
111
1.0
121
0.0
131
0.0
112
0.0
122
1.0
132
0.0
 79
     0
146
0.0
 60
     3
 61
     5
292
     1
282
     1
141
0.0
142
0.0
 63
   250
361
3F
  0
ENDTAB
  0
TABLE
  2
LTYPE
  5
5
330
0
100
AcDbSymbolTable
 70
     4
  0
LTYPE
  5
14
330
5
100
AcDbSymbolTableRecord
100
AcDbLinetypeTableRecord
  2
ByBlock
 70
     0
  3

 72
    65
 73
     0
 40
0.0
  0
LTYPE
  5
15
330
5
100
AcDbSymbolTableRecord
100
AcDbLinetypeTableRecord
  2
ByLayer
 70
     0
  3

 72
    65
 73
     0
 40
0.0
  0
LTYPE
  5
16
330
5
100
AcDbSymbolTableRecord
100
AcDbLinetypeTableRecord
  2
Continuous
 70
     0
  3
Solid line
 72
    65
 73
     0
 40
0.0
  0
LTYPE
  5
474
330
5
100
AcDbSymbolTableRecord
100
AcDbLinetypeTableRecord
  2
AI-Linetype-1
 70
     0
  3
Adobe Illustrator Linetype No. 1
 72
    65
 73
     4
 40
1.445094003555134
 49
0.7207831129285451
 74
     0
 49
-0.3603915564642726
 74
     0
 49
0.0035277776980439
 74
     0
 49
-0.3603915564642726
 74
     0
  0
LTYPE
  5
47D
330
5
100
AcDbSymbolTableRecord
100
AcDbLinetypeTableRecord
  2
AI-Linetype-2
 70
     0
  3
Adobe Illustrator Linetype No. 2
 72
    65
 73
     4
 40
1.445094003555134
 49
0.7207831129285451
 74
     0
 49
-0.3603915564642726
 74
     0
 49
0.0035277776980439
 74
     0
 49
-0.3603915564642726
 74
     0
  0
LTYPE
  5
486
330
5
100
AcDbSymbolTableRecord
100
AcDbLinetypeTableRecord
  2
AI-Linetype-3
 70
     0
  3
Adobe Illustrator Linetype No. 3
 72
    65
 73
     4
 40
1.445094003555134
 49
0.7207831129285451
 74
     0
 49
-0.3603915564642726
 74
     0
 49
0.0035277776980439
 74
     0
 49
-0.3603915564642726
 74
     0
  0
ENDTAB
  0
TABLE
  2
LAYER
  5
2
330
0
100
AcDbSymbolTable
 70
    11
  0
LAYER
  5
10
330
2
100
AcDbSymbolTableRecord
100
AcDbLayerTableRecord
  2
0
 70
     0
 62
     7
  6
Continuous
370
    -3
390
F
347
3E
  0
LAYER
  5
40
330
2
100
AcDbSymbolTableRecord
100
AcDbLayerTableRecord
  2
CAJETIN
 70
     0
 62
     7
  6
Continuous
370
    -3
390
F
347
3E
  0
LAYER
  5
41
330
2
100
AcDbSymbolTableRecord
100
AcDbLayerTableRecord
  2
TITULOS
 70
     0
 62
     7
  6
Continuous
370
    -3
390
F
347
3E
  0
LAYER
  5
42
330
2
100
AcDbSymbolTableRecord
100
AcDbLayerTableRecord
  2
TEXTO
 70
     0
 62
     7
  6
Continuous
370
    -3
390
F
347
3E
  0
LAYER
  5
43
330
2
100
AcDbSymbolTableRecord
100
AcDbLayerTableRecord
  2
REVIS_U+00D5ES
 70
     0
 62
     7
  6
Continuous
370
    -3
390
F
347
3E
  0
LAYER
  5
1FB
330
2
100
AcDbSymbolTableRecord
100
AcDbLayerTableRecord
  2
PIEZA
 70
     0
 62
     7
  6
Continuous
370
    -3
390
F
347
3E
  0
LAYER
  5
46C
330
2
100
AcDbSymbolTableRecord
100
AcDbLayerTableRecord
  2
Eixos
 70
     0
 62
     7
  6
Continuous
370
    -3
390
F
347
3E
  0
LAYER
  5
488
330
2
100
AcDbSymbolTableRecord
100
AcDbLayerTableRecord
  2
COTAS
 70
     0
 62
     7
  6
Continuous
370
    -3
390
F
347
3E
  0
LAYER
  5
555
330
2
100
AcDbSymbolTableRecord
100
AcDbLayerTableRecord
  2
DEFPOINTS
 70
     0
 62
     7
  6
Continuous
290
     0
370
    -3
390
F
347
3E
  0
LAYER
  5
5B6
330
2
100
AcDbSymbolTableRecord
100
AcDbLayerTableRecord
  2
trama-1
 70
     0
 62
     7
  6
Continuous
370
    -3
390
F
347
3E
  0
LAYER
  5
5B7
330
2
100
AcDbSymbolTableRecord
100
AcDbLayerTableRecord
  2
SOMBREA
 70
     0
 62
     7
  6
Continuous
370
    -3
390
F
347
3E
  0
ENDTAB
  0
TABLE
  2
STYLE
  5
3
330
0
100
AcDbSymbolTable
 70
     1
  0
STYLE
  5
11
330
3
100
AcDbSymbolTableRecord
100
AcDbTextStyleTableRecord
  2
Standard
 70
     0
 40
0.0
 41
1.0
 50
0.0
 71
     0
 42
0.2
  3
txt
  4

  0
ENDTAB
  0
TABLE
  2
VIEW
  5
6
330
0
100
AcDbSymbolTable
 70
     0
  0
ENDTAB
  0
TABLE
  2
UCS
  5
7
330
0
100
AcDbSymbolTable
 70
     0
  0
ENDTAB
  0
TABLE
  2
APPID
  5
9
330
0
100
AcDbSymbolTable
 70
     1
  0
APPID
  5
12
330
9
100
AcDbSymbolTableRecord
100
AcDbRegAppTableRecord
  2
ACAD
 70
     0
  0
ENDTAB
  0
TABLE
  2
DIMSTYLE
  5
A
330
0
100
AcDbSymbolTable
 70
     1
100
AcDbDimStyleTable
  0
DIMSTYLE
105
27
330
A
100
AcDbSymbolTableRecord
100
AcDbDimStyleTableRecord
  2
Standard
 70
     0
178
     0
340
11
  0
ENDTAB
  0
TABLE
  2
BLOCK_RECORD
  5
1
330
0
100
AcDbSymbolTable
 70
   190
  0
BLOCK_RECORD
  5
1F
330
1
100
AcDbSymbolTableRecord
100
AcDbBlockTableRecord
  2
*Model_Space
340
22
 70
     0
280
     1
281
     0
  0
BLOCK_RECORD
  5
1B
330
1
100
AcDbSymbolTableRecord
100
AcDbBlockTableRecord
  2
*Paper_Space
340
1E
 70
     0
280
     1
281
     0
  0
BLOCK_RECORD
  5
23
330
1
100
AcDbSymbolTableRecord
100
AcDbBlockTableRecord
  2
*Paper_Space0
340
26
 70
     0
280
     1
281
     0
  0
BLOCK_RECORD
  5
44
330
1
100
AcDbSymbolTableRecord
100
AcDbBlockTableRecord
  2
block 2
340
0
102
{BLKREFS
331
45
102
}
 70
     0
280
     1
281
     0
  0
BLOCK_RECORD
  5
49
330
1
100
AcDbSymbolTableRecord
100
AcDbBlockTableRecord
  2
block 3
340
0
102
{BLKREFS
331
4A
102
}
 70
     0
280
     1
281
     0
  0
BLOCK_RECORD
  5
51
330
1
100
AcDbSymbolTableRecord
100
AcDbBlockTableRecord
  2
block 4
340
0
102
{BLKREFS
331
52
102
}
 70
     0
280
     1
281
     0
  0
BLOCK_RECORD
  5
59
330
1
100
AcDbSymbolTableRecord
100
AcDbBlockTableRecord
  2
block 5
340
0
102
{BLKREFS
331
5A
102
}
 70
     0
280
     1
281
     0
  0
BLOCK_RECORD
  5
61
330
1
100
AcDbSymbolTableRecord
100
AcDbBlockTableRecord
  2
block 6
340
0
102
{BLKREFS
331
62
102
}
 70
     0
280
     1
281
     0
  0
BLOCK_RECORD
  5
66
330
1
100
AcDbSymbolTableRecord
100
AcDbBlockTableRecord
  2
block 7
340
0
102
{BLKREFS
331
67
102
}
 70
     0
280
     1
281
     0
  0
BLOCK_RECORD
  5
6B
330
1
100
AcDbSymbolTableRecord
100
AcDbBlockTableRecord
  2
block 8
340
0
102
{BLKREFS
331
6C
102
}
 70
     0
280
     1
281
     0
  0
BLOCK_RECORD
  5
70
330
1
100
AcDbSymbolTableRecord
100
AcDbBlockTableRecord
  2
block 9
340
0
102
{BLKREFS
331
71
102
}
 70
     0
280
     1
281
     0
  0
BLOCK_RECORD
  5
75
330
1
100
AcDbSymbolTableRecord
100
AcDbBlockTableRecord
  2
block 10
340
0
102
{BLKREFS
331
76
102
}
 70
     0
280
     1
281
     0
  0
BLOCK_RECORD
  5
7A
330
1
100
AcDbSymbolTableRecord
100
AcDbBlockTableRecord
  2
block 11
340
0
102
{BLKREFS
331
7B
102
}
 70
     0
280
     1
281
     0
  0
BLOCK_RECORD
  5
7F
330
1
100
AcDbSymbolTableRecord
100
AcDbBlockTableRecord
  2
block 12
340
0
102
{BLKREFS
331
80
102
}
 70
     0
280
     1
281
     0
  0
BLOCK_RECORD
  5
84
330
1
100
AcDbSymbolTableRecord
100
AcDbBlockTableRecord
  2
block 13
340
0
102
{BLKREFS
331
85
102
}
 70
     0
280
     1
281
     0
  0
BLOCK_RECORD
  5
89
330
1
100
AcDbSymbolTableRecord
100
AcDbBlockTableRecord
  2
block 14
340
0
102
{BLKREFS
331
8A
102
}
 70
     0
280
     1
281
     0
  0
BLOCK_RECORD
  5
8E
330
1
100
AcDbSymbolTableRecord
100
AcDbBlockTableRecord
  2
block 15
340
0
102
{BLKREFS
331
8F
102
}
 70
     0
280
     1
281
     0
  0
BLOCK_RECORD
  5
93
330
1
100
AcDbSymbolTableRecord
100
AcDbBlockTableRecord
  2
block 16
340
0
102
{BLKREFS
331
94
102
}
 70
     0
280
     1
281
     0
  0
BLOCK_RECORD
  5
98
330
1
100
AcDbSymbolTableRecord
100
AcDbBlockTableRecord
  2
block 17
340
0
102
{BLKREFS
331
99
102
}
 70
     0
280
     1
281
     0
  0
BLOCK_RECORD
  5
9D
330
1
100
AcDbSymbolTableRecord
100
AcDbBlockTableRecord
  2
block 18
340
0
102
{BLKREFS
331
9E
102
}
 70
     0
280
     1
281
     0
  0
BLOCK_RECORD
  5
A2
330
1
100
AcDbSymbolTableRecord
100
AcDbBlockTableRecord
  2
block 19
340
0
102
{BLKREFS
331
A3
102
}
 70
     0
280
     1
281
     0
  0
BLOCK_RECORD
  5
A7
330
1
100
AcDbSymbolTableRecord
100
AcDbBlockTableRecord
  2
block 20
340
0
102
{BLKREFS
331
A8
102
}
 70
     0
280
     1
281
     0
  0
BLOCK_RECORD
  5
AC
330
1
100
AcDbSymbolTableRecord
100
AcDbBlockTableRecord
  2
block 21
340
0
102
{BLKREFS
331
AD
102
}
 70
     0
280
     1
281
     0
  0
BLOCK_RECORD
  5
B1
330
1
100
AcDbSymbolTableRecord
100
AcDbBlockTableRecord
  2
block 22
340
0
102
{BLKREFS
331
B2
102
}
 70
     0
280
     1
281
     0
  0
BLOCK_RECORD
  5
B6
330
1
100
AcDbSymbolTableRecord
100
AcDbBlockTableRecord
  2
block 23
340
0
102
{BLKREFS
331
B7
102
}
 70
     0
280
     1
281
     0
  0
BLOCK_RECORD
  5
BB
330
1
100
AcDbSymbolTableRecord
100
AcDbBlockTableRecord
  2
block 24
340
0
102
{BLKREFS
331
BC
102
}
 70
     0
280
     1
281
     0
  0
BLOCK_RECORD
  5
C0
330
1
100
AcDbSymbolTableRecord
100
AcDbBlockTableRecord
  2
block 25
340
0
102
{BLKREFS
331
C1
102
}
 70
     0
280
     1
281
     0
  0
BLOCK_RECORD
  5
C5
330
1
100
AcDbSymbolTableRecord
100
AcDbBlockTableRecord
  2
block 26
340
0
102
{BLKREFS
331
C6
102
}
 70
     0
280
     1
281
     0
  0
BLOCK_RECORD
  5
CA
330
1
100
AcDbSymbolTableRecord
100
AcDbBlockTableRecord
  2
block 27
340
0
102
{BLKREFS
331
CB
102
}
 70
     0
280
     1
281
     0
  0
BLOCK_RECORD
  5
CF
330
1
100
AcDbSymbolTableRecord
100
AcDbBlockTableRecord
  2
block 28
340
0
102
{BLKREFS
331
D0
102
}
 70
     0
280
     1
281
     0
  0
BLOCK_RECORD
  5
D4
330
1
100
AcDbSymbolTableRecord
100
AcDbBlockTableRecord
  2
block 29
340
0
102
{BLKREFS
331
D5
102
}
 70
     0
280
     1
281
     0
  0
BLOCK_RECORD
  5
D9
330
1
100
AcDbSymbolTableRecord
100
AcDbBlockTableRecord
  2
block 30
340
0
102
{BLKREFS
331
DA
102
}
 70
     0
280
     1
281
     0
  0
BLOCK_RECORD
  5
DE
330
1
100
AcDbSymbolTableRecord
100
AcDbBlockTableRecord
  2
block 31
340
0
102
{BLKREFS
331
DF
102
}
 70
     0
280
     1
281
     0
  0
BLOCK_RECORD
  5
E3
330
1
100
AcDbSymbolTableRecord
100
AcDbBlockTableRecord
  2
block 32
340
0
102
{BLKREFS
331
E4
102
}
 70
     0
280
     1
281
     0
  0
BLOCK_RECORD
  5
E8
330
1
100
AcDbSymbolTableRecord
100
AcDbBlockTableRecord
  2
block 33
340
0
102
{BLKREFS
331
E9
102
}
 70
     0
280
     1
281
     0
  0
BLOCK_RECORD
  5
ED
330
1
100
AcDbSymbolTableRecord
100
AcDbBlockTableRecord
  2
block 34
340
0
102
{BLKREFS
331
EE
102
}
 70
     0
280
     1
281
     0
  0
BLOCK_RECORD
  5
F2
330
1
100
AcDbSymbolTableRecord
100
AcDbBlockTableRecord
  2
block 35
340
0
102
{BLKREFS
331
F3
102
}
 70
     0
280
     1
281
     0
  0
BLOCK_RECORD
  5
FA
330
1
100
AcDbSymbolTableRecord
100
AcDbBlockTableRecord
  2
block 36
340
0
102
{BLKREFS
331
FB
102
}
 70
     0
280
     1
281
     0
  0
BLOCK_RECORD
  5
102
330
1
100
AcDbSymbolTableRecord
100
AcDbBlockTableRecord
  2
block 37
340
0
102
{BLKREFS
331
103
102
}
 70
     0
280
     1
281
     0
  0
BLOCK_RECORD
  5
10A
330
1
100
AcDbSymbolTableRecord
100
AcDbBlockTableRecord
  2
block 38
340
0
102
{BLKREFS
331
10B
102
}
 70
     0
280
     1
281
     0
  0
BLOCK_RECORD
  5
112
330
1
100
AcDbSymbolTableRecord
100
AcDbBlockTableRecord
  2
block 39
340
0
102
{BLKREFS
331
113
102
}
 70
     0
280
     1
281
     0
  0
BLOCK_RECORD
  5
11A
330
1
100
AcDbSymbolTableRecord
100
AcDbBlockTableRecord
  2
block 40
340
0
102
{BLKREFS
331
11B
102
}
 70
     0
280
     1
281
     0
  0
BLOCK_RECORD
  5
122
330
1
100
AcDbSymbolTableRecord
100
AcDbBlockTableRecord
  2
block 41
340
0
102
{BLKREFS
331
123
102
}
 70
     0
280
     1
281
     0
  0
BLOCK_RECORD
  5
12A
330
1
100
AcDbSymbolTableRecord
100
AcDbBlockTableRecord
  2
block 42
340
0
102
{BLKREFS
331
12B
102
}
 70
     0
280
     1
281
     0
  0
BLOCK_RECORD
  5
132
330
1
100
AcDbSymbolTableRecord
100
AcDbBlockTableRecord
  2
block 43
340
0
102
{BLKREFS
331
133
102
}
 70
     0
280
     1
281
     0
  0
BLOCK_RECORD
  5
137
330
1
100
AcDbSymbolTableRecord
100
AcDbBlockTableRecord
  2
block 44
340
0
102
{BLKREFS
331
138
102
}
 70
     0
280
     1
281
     0
  0
BLOCK_RECORD
  5
13F
330
1
100
AcDbSymbolTableRecord
100
AcDbBlockTableRecord
  2
block 45
340
0
102
{BLKREFS
331
140
102
}
 70
     0
280
     1
281
     0
  0
BLOCK_RECORD
  5
147
330
1
100
AcDbSymbolTableRecord
100
AcDbBlockTableRecord
  2
block 46
340
0
102
{BLKREFS
331
148
102
}
 70
     0
280
     1
281
     0
  0
BLOCK_RECORD
  5
14F
330
1
100
AcDbSymbolTableRecord
100
AcDbBlockTableRecord
  2
block 47
340
0
102
{BLKREFS
331
150
102
}
 70
     0
280
     1
281
     0
  0
BLOCK_RECORD
  5
154
330
1
100
AcDbSymbolTableRecord
100
AcDbBlockTableRecord
  2
block 48
340
0
102
{BLKREFS
331
155
102
}
 70
     0
280
     1
281
     0
  0
BLOCK_RECORD
  5
159
330
1
100
AcDbSymbolTableRecord
100
AcDbBlockTableRecord
  2
block 49
340
0
102
{BLKREFS
331
15A
102
}
 70
     0
280
     1
281
     0
  0
BLOCK_RECORD
  5
15E
330
1
100
AcDbSymbolTableRecord
100
AcDbBlockTableRecord
  2
block 50
340
0
102
{BLKREFS
331
15F
102
}
 70
     0
280
     1
281
     0
  0
BLOCK_RECORD
  5
163
330
1
100
AcDbSymbolTableRecord
100
AcDbBlockTableRecord
  2
block 51
340
0
102
{BLKREFS
331
164
102
}
 70
     0
280
     1
281
     0
  0
BLOCK_RECORD
  5
168
330
1
100
AcDbSymbolTableRecord
100
AcDbBlockTableRecord
  2
block 52
340
0
102
{BLKREFS
331
169
102
}
 70
     0
280
     1
281
     0
  0
BLOCK_RECORD
  5
16D
330
1
100
AcDbSymbolTableRecord
100
AcDbBlockTableRecord
  2
block 53
340
0
102
{BLKREFS
331
16E
102
}
 70
     0
280
     1
281
     0
  0
BLOCK_RECORD
  5
172
330
1
100
AcDbSymbolTableRecord
100
AcDbBlockTableRecord
  2
block 54
340
0
102
{BLKREFS
331
173
102
}
 70
     0
280
     1
281
     0
  0
BLOCK_RECORD
  5
177
330
1
100
AcDbSymbolTableRecord
100
AcDbBlockTableRecord
  2
block 55
340
0
102
{BLKREFS
331
178
102
}
 70
     0
280
     1
281
     0
  0
BLOCK_RECORD
  5
17C
330
1
100
AcDbSymbolTableRecord
100
AcDbBlockTableRecord
  2
block 56
340
0
102
{BLKREFS
331
17D
102
}
 70
     0
280
     1
281
     0
  0
BLOCK_RECORD
  5
181
330
1
100
AcDbSymbolTableRecord
100
AcDbBlockTableRecord
  2
block 57
340
0
102
{BLKREFS
331
182
102
}
 70
     0
280
     1
281
     0
  0
BLOCK_RECORD
  5
186
330
1
100
AcDbSymbolTableRecord
100
AcDbBlockTableRecord
  2
block 58
340
0
102
{BLKREFS
331
187
102
}
 70
     0
280
     1
281
     0
  0
BLOCK_RECORD
  5
18B
330
1
100
AcDbSymbolTableRecord
100
AcDbBlockTableRecord
  2
block 59
340
0
102
{BLKREFS
331
18C
102
}
 70
     0
280
     1
281
     0
  0
BLOCK_RECORD
  5
190
330
1
100
AcDbSymbolTableRecord
100
AcDbBlockTableRecord
  2
block 60
340
0
102
{BLKREFS
331
191
102
}
 70
     0
280
     1
281
     0
  0
BLOCK_RECORD
  5
195
330
1
100
AcDbSymbolTableRecord
100
AcDbBlockTableRecord
  2
block 61
340
0
102
{BLKREFS
331
196
102
}
 70
     0
280
     1
281
     0
  0
BLOCK_RECORD
  5
19A
330
1
100
AcDbSymbolTableRecord
100
AcDbBlockTableRecord
  2
block 62
340
0
102
{BLKREFS
331
19B
102
}
 70
     0
280
     1
281
     0
  0
BLOCK_RECORD
  5
19F
330
1
100
AcDbSymbolTableRecord
100
AcDbBlockTableRecord
  2
block 63
340
0
102
{BLKREFS
331
1A0
102
}
 70
     0
280
     1
281
     0
  0
BLOCK_RECORD
  5
1A4
330
1
100
AcDbSymbolTableRecord
100
AcDbBlockTableRecord
  2
block 64
340
0
102
{BLKREFS
331
1A5
102
}
 70
     0
280
     1
281
     0
  0
BLOCK_RECORD
  5
1A9
330
1
100
AcDbSymbolTableRecord
100
AcDbBlockTableRecord
  2
block 65
340
0
102
{BLKREFS
331
1AA
102
}
 70
     0
280
     1
281
     0
  0
BLOCK_RECORD
  5
1AE
330
1
100
AcDbSymbolTableRecord
100
AcDbBlockTableRecord
  2
block 66
340
0
102
{BLKREFS
331
1AF
102
}
 70
     0
280
     1
281
     0
  0
BLOCK_RECORD
  5
1B3
330
1
100
AcDbSymbolTableRecord
100
AcDbBlockTableRecord
  2
block 67
340
0
102
{BLKREFS
331
1B4
102
}
 70
     0
280
     1
281
     0
  0
BLOCK_RECORD
  5
1B8
330
1
100
AcDbSymbolTableRecord
100
AcDbBlockTableRecord
  2
block 68
340
0
102
{BLKREFS
331
1B9
102
}
 70
     0
280
     1
281
     0
  0
BLOCK_RECORD
  5
1BD
330
1
100
AcDbSymbolTableRecord
100
AcDbBlockTableRecord
  2
block 69
340
0
102
{BLKREFS
331
1BE
102
}
 70
     0
280
     1
281
     0
  0
BLOCK_RECORD
  5
1C2
330
1
100
AcDbSymbolTableRecord
100
AcDbBlockTableRecord
  2
block 70
340
0
102
{BLKREFS
331
1C3
102
}
 70
     0
280
     1
281
     0
  0
BLOCK_RECORD
  5
1C7
330
1
100
AcDbSymbolTableRecord
100
AcDbBlockTableRecord
  2
block 71
340
0
102
{BLKREFS
331
1C8
102
}
 70
     0
280
     1
281
     0
  0
BLOCK_RECORD
  5
1CC
330
1
100
AcDbSymbolTableRecord
100
AcDbBlockTableRecord
  2
block 72
340
0
102
{BLKREFS
331
1CD
102
}
 70
     0
280
     1
281
     0
  0
BLOCK_RECORD
  5
1D4
330
1
100
AcDbSymbolTableRecord
100
AcDbBlockTableRecord
  2
block 73
340
0
102
{BLKREFS
331
1D5
102
}
 70
     0
280
     1
281
     0
  0
BLOCK_RECORD
  5
1D9
330
1
100
AcDbSymbolTableRecord
100
AcDbBlockTableRecord
  2
block 74
340
0
102
{BLKREFS
331
1DA
102
}
 70
     0
280
     1
281
     0
  0
BLOCK_RECORD
  5
1DE
330
1
100
AcDbSymbolTableRecord
100
AcDbBlockTableRecord
  2
block 75
340
0
102
{BLKREFS
331
1DF
102
}
 70
     0
280
     1
281
     0
  0
BLOCK_RECORD
  5
1E6
330
1
100
AcDbSymbolTableRecord
100
AcDbBlockTableRecord
  2
block 76
340
0
102
{BLKREFS
331
1E7
102
}
 70
     0
280
     1
281
     0
  0
BLOCK_RECORD
  5
1EB
330
1
100
AcDbSymbolTableRecord
100
AcDbBlockTableRecord
  2
block 77
340
0
102
{BLKREFS
331
1EC
102
}
 70
     0
280
     1
281
     0
  0
BLOCK_RECORD
  5
1F3
330
1
100
AcDbSymbolTableRecord
100
AcDbBlockTableRecord
  2
block 78
340
0
102
{BLKREFS
331
1F4
102
}
 70
     0
280
     1
281
     0
  0
BLOCK_RECORD
  5
1FC
330
1
100
AcDbSymbolTableRecord
100
AcDbBlockTableRecord
  2
block 79
340
0
102
{BLKREFS
331
1FD
102
}
 70
     0
280
     1
281
     0
  0
BLOCK_RECORD
  5
201
330
1
100
AcDbSymbolTableRecord
100
AcDbBlockTableRecord
  2
block 80
340
0
102
{BLKREFS
331
202
102
}
 70
     0
280
     1
281
     0
  0
BLOCK_RECORD
  5
209
330
1
100
AcDbSymbolTableRecord
100
AcDbBlockTableRecord
  2
block 81
340
0
102
{BLKREFS
331
20A
102
}
 70
     0
280
     1
281
     0
  0
BLOCK_RECORD
  5
211
330
1
100
AcDbSymbolTableRecord
100
AcDbBlockTableRecord
  2
block 82
340
0
102
{BLKREFS
331
212
102
}
 70
     0
280
     1
281
     0
  0
BLOCK_RECORD
  5
216
330
1
100
AcDbSymbolTableRecord
100
AcDbBlockTableRecord
  2
block 83
340
0
102
{BLKREFS
331
217
102
}
 70
     0
280
     1
281
     0
  0
BLOCK_RECORD
  5
21E
330
1
100
AcDbSymbolTableRecord
100
AcDbBlockTableRecord
  2
block 84
340
0
102
{BLKREFS
331
21F
102
}
 70
     0
280
     1
281
     0
  0
BLOCK_RECORD
  5
223
330
1
100
AcDbSymbolTableRecord
100
AcDbBlockTableRecord
  2
block 85
340
0
102
{BLKREFS
331
224
102
}
 70
     0
280
     1
281
     0
  0
BLOCK_RECORD
  5
24F
330
1
100
AcDbSymbolTableRecord
100
AcDbBlockTableRecord
  2
block 86
340
0
102
{BLKREFS
331
250
102
}
 70
     0
280
     1
281
     0
  0
BLOCK_RECORD
  5
257
330
1
100
AcDbSymbolTableRecord
100
AcDbBlockTableRecord
  2
block 87
340
0
102
{BLKREFS
331
258
102
}
 70
     0
280
     1
281
     0
  0
BLOCK_RECORD
  5
25F
330
1
100
AcDbSymbolTableRecord
100
AcDbBlockTableRecord
  2
block 88
340
0
102
{BLKREFS
331
260
102
}
 70
     0
280
     1
281
     0
  0
BLOCK_RECORD
  5
264
330
1
100
AcDbSymbolTableRecord
100
AcDbBlockTableRecord
  2
block 89
340
0
102
{BLKREFS
331
265
102
}
 70
     0
280
     1
281
     0
  0
BLOCK_RECORD
  5
26C
330
1
100
AcDbSymbolTableRecord
100
AcDbBlockTableRecord
  2
block 90
340
0
102
{BLKREFS
331
26D
102
}
 70
     0
280
     1
281
     0
  0
BLOCK_RECORD
  5
271
330
1
100
AcDbSymbolTableRecord
100
AcDbBlockTableRecord
  2
block 91
340
0
102
{BLKREFS
331
272
102
}
 70
     0
280
     1
281
     0
  0
BLOCK_RECORD
  5
279
330
1
100
AcDbSymbolTableRecord
100
AcDbBlockTableRecord
  2
block 92
340
0
102
{BLKREFS
331
27A
102
}
 70
     0
280
     1
281
     0
  0
BLOCK_RECORD
  5
281
330
1
100
AcDbSymbolTableRecord
100
AcDbBlockTableRecord
  2
block 93
340
0
102
{BLKREFS
331
282
102
}
 70
     0
280
     1
281
     0
  0
BLOCK_RECORD
  5
289
330
1
100
AcDbSymbolTableRecord
100
AcDbBlockTableRecord
  2
block 94
340
0
102
{BLKREFS
331
28A
102
}
 70
     0
280
     1
281
     0
  0
BLOCK_RECORD
  5
291
330
1
100
AcDbSymbolTableRecord
100
AcDbBlockTableRecord
  2
block 95
340
0
102
{BLKREFS
331
292
102
}
 70
     0
280
     1
281
     0
  0
BLOCK_RECORD
  5
299
330
1
100
AcDbSymbolTableRecord
100
AcDbBlockTableRecord
  2
block 96
340
0
102
{BLKREFS
331
29A
102
}
 70
     0
280
     1
281
     0
  0
BLOCK_RECORD
  5
29F
330
1
100
AcDbSymbolTableRecord
100
AcDbBlockTableRecord
  2
block 97
340
0
102
{BLKREFS
331
2A0
102
}
 70
     0
280
     1
281
     0
  0
BLOCK_RECORD
  5
2A7
330
1
100
AcDbSymbolTableRecord
100
AcDbBlockTableRecord
  2
block 98
340
0
102
{BLKREFS
331
2A8
102
}
 70
     0
280
     1
281
     0
  0
BLOCK_RECORD
  5
2AF
330
1
100
AcDbSymbolTableRecord
100
AcDbBlockTableRecord
  2
block 99
340
0
102
{BLKREFS
331
2B0
102
}
 70
     0
280
     1
281
     0
  0
BLOCK_RECORD
  5
2B7
330
1
100
AcDbSymbolTableRecord
100
AcDbBlockTableRecord
  2
block 100
340
0
102
{BLKREFS
331
2B8
102
}
 70
     0
280
     1
281
     0
  0
BLOCK_RECORD
  5
2BF
330
1
100
AcDbSymbolTableRecord
100
AcDbBlockTableRecord
  2
block 101
340
0
102
{BLKREFS
331
2C0
102
}
 70
     0
280
     1
281
     0
  0
BLOCK_RECORD
  5
2C7
330
1
100
AcDbSymbolTableRecord
100
AcDbBlockTableRecord
  2
block 102
340
0
102
{BLKREFS
331
2C8
102
}
 70
     0
280
     1
281
     0
  0
BLOCK_RECORD
  5
2CF
330
1
100
AcDbSymbolTableRecord
100
AcDbBlockTableRecord
  2
block 103
340
0
102
{BLKREFS
331
2D0
102
}
 70
     0
280
     1
281
     0
  0
BLOCK_RECORD
  5
2D4
330
1
100
AcDbSymbolTableRecord
100
AcDbBlockTableRecord
  2
block 104
340
0
102
{BLKREFS
331
2D5
102
}
 70
     0
280
     1
281
     0
  0
BLOCK_RECORD
  5
2D9
330
1
100
AcDbSymbolTableRecord
100
AcDbBlockTableRecord
  2
block 105
340
0
102
{BLKREFS
331
2DA
102
}
 70
     0
280
     1
281
     0
  0
BLOCK_RECORD
  5
2E1
330
1
100
AcDbSymbolTableRecord
100
AcDbBlockTableRecord
  2
block 106
340
0
102
{BLKREFS
331
2E2
102
}
 70
     0
280
     1
281
     0
  0
BLOCK_RECORD
  5
2E6
330
1
100
AcDbSymbolTableRecord
100
AcDbBlockTableRecord
  2
block 107
340
0
102
{BLKREFS
331
2E7
102
}
 70
     0
280
     1
281
     0
  0
BLOCK_RECORD
  5
2EE
330
1
100
AcDbSymbolTableRecord
100
AcDbBlockTableRecord
  2
block 108
340
0
102
{BLKREFS
331
2EF
102
}
 70
     0
280
     1
281
     0
  0
BLOCK_RECORD
  5
2F3
330
1
100
AcDbSymbolTableRecord
100
AcDbBlockTableRecord
  2
block 109
340
0
102
{BLKREFS
331
2F4
102
}
 70
     0
280
     1
281
     0
  0
BLOCK_RECORD
  5
2F8
330
1
100
AcDbSymbolTableRecord
100
AcDbBlockTableRecord
  2
block 110
340
0
102
{BLKREFS
331
2F9
102
}
 70
     0
280
     1
281
     0
  0
BLOCK_RECORD
  5
2FD
330
1
100
AcDbSymbolTableRecord
100
AcDbBlockTableRecord
  2
block 111
340
0
102
{BLKREFS
331
2FE
102
}
 70
     0
280
     1
281
     0
  0
BLOCK_RECORD
  5
305
330
1
100
AcDbSymbolTableRecord
100
AcDbBlockTableRecord
  2
block 112
340
0
102
{BLKREFS
331
306
102
}
 70
     0
280
     1
281
     0
  0
BLOCK_RECORD
  5
334
330
1
100
AcDbSymbolTableRecord
100
AcDbBlockTableRecord
  2
block 113
340
0
102
{BLKREFS
331
335
102
}
 70
     0
280
     1
281
     0
  0
BLOCK_RECORD
  5
33C
330
1
100
AcDbSymbolTableRecord
100
AcDbBlockTableRecord
  2
block 114
340
0
102
{BLKREFS
331
33D
102
}
 70
     0
280
     1
281
     0
  0
BLOCK_RECORD
  5
341
330
1
100
AcDbSymbolTableRecord
100
AcDbBlockTableRecord
  2
block 115
340
0
102
{BLKREFS
331
342
102
}
 70
     0
280
     1
281
     0
  0
BLOCK_RECORD
  5
349
330
1
100
AcDbSymbolTableRecord
100
AcDbBlockTableRecord
  2
block 116
340
0
102
{BLKREFS
331
34A
102
}
 70
     0
280
     1
281
     0
  0
BLOCK_RECORD
  5
34E
330
1
100
AcDbSymbolTableRecord
100
AcDbBlockTableRecord
  2
block 117
340
0
102
{BLKREFS
331
34F
102
}
 70
     0
280
     1
281
     0
  0
BLOCK_RECORD
  5
356
330
1
100
AcDbSymbolTableRecord
100
AcDbBlockTableRecord
  2
block 118
340
0
102
{BLKREFS
331
357
102
}
 70
     0
280
     1
281
     0
  0
BLOCK_RECORD
  5
35B
330
1
100
AcDbSymbolTableRecord
100
AcDbBlockTableRecord
  2
block 119
340
0
102
{BLKREFS
331
35C
102
}
 70
     0
280
     1
281
     0
  0
BLOCK_RECORD
  5
363
330
1
100
AcDbSymbolTableRecord
100
AcDbBlockTableRecord
  2
block 120
340
0
102
{BLKREFS
331
364
102
}
 70
     0
280
     1
281
     0
  0
BLOCK_RECORD
  5
36B
330
1
100
AcDbSymbolTableRecord
100
AcDbBlockTableRecord
  2
block 121
340
0
102
{BLKREFS
331
36C
102
}
 70
     0
280
     1
281
     0
  0
BLOCK_RECORD
  5
373
330
1
100
AcDbSymbolTableRecord
100
AcDbBlockTableRecord
  2
block 122
340
0
102
{BLKREFS
331
374
102
}
 70
     0
280
     1
281
     0
  0
BLOCK_RECORD
  5
378
330
1
100
AcDbSymbolTableRecord
100
AcDbBlockTableRecord
  2
block 123
340
0
102
{BLKREFS
331
379
102
}
 70
     0
280
     1
281
     0
  0
BLOCK_RECORD
  5
380
330
1
100
AcDbSymbolTableRecord
100
AcDbBlockTableRecord
  2
block 124
340
0
102
{BLKREFS
331
381
102
}
 70
     0
280
     1
281
     0
  0
BLOCK_RECORD
  5
388
330
1
100
AcDbSymbolTableRecord
100
AcDbBlockTableRecord
  2
block 125
340
0
102
{BLKREFS
331
389
102
}
 70
     0
280
     1
281
     0
  0
BLOCK_RECORD
  5
390
330
1
100
AcDbSymbolTableRecord
100
AcDbBlockTableRecord
  2
block 126
340
0
102
{BLKREFS
331
391
102
}
 70
     0
280
     1
281
     0
  0
BLOCK_RECORD
  5
395
330
1
100
AcDbSymbolTableRecord
100
AcDbBlockTableRecord
  2
block 127
340
0
102
{BLKREFS
331
396
102
}
 70
     0
280
     1
281
     0
  0
BLOCK_RECORD
  5
39D
330
1
100
AcDbSymbolTableRecord
100
AcDbBlockTableRecord
  2
block 128
340
0
102
{BLKREFS
331
39E
102
}
 70
     0
280
     1
281
     0
  0
BLOCK_RECORD
  5
3A2
330
1
100
AcDbSymbolTableRecord
100
AcDbBlockTableRecord
  2
block 129
340
0
102
{BLKREFS
331
3A3
102
}
 70
     0
280
     1
281
     0
  0
BLOCK_RECORD
  5
3AA
330
1
100
AcDbSymbolTableRecord
100
AcDbBlockTableRecord
  2
block 130
340
0
102
{BLKREFS
331
3AB
102
}
 70
     0
280
     1
281
     0
  0
BLOCK_RECORD
  5
3B2
330
1
100
AcDbSymbolTableRecord
100
AcDbBlockTableRecord
  2
block 131
340
0
102
{BLKREFS
331
3B3
102
}
 70
     0
280
     1
281
     0
  0
BLOCK_RECORD
  5
3BA
330
1
100
AcDbSymbolTableRecord
100
AcDbBlockTableRecord
  2
block 132
340
0
102
{BLKREFS
331
3BB
102
}
 70
     0
280
     1
281
     0
  0
BLOCK_RECORD
  5
3C2
330
1
100
AcDbSymbolTableRecord
100
AcDbBlockTableRecord
  2
block 133
340
0
102
{BLKREFS
331
3C3
102
}
 70
     0
280
     1
281
     0
  0
BLOCK_RECORD
  5
3DD
330
1
100
AcDbSymbolTableRecord
100
AcDbBlockTableRecord
  2
block 134
340
0
102
{BLKREFS
331
3DE
102
}
 70
     0
280
     1
281
     0
  0
BLOCK_RECORD
  5
3F8
330
1
100
AcDbSymbolTableRecord
100
AcDbBlockTableRecord
  2
block 135
340
0
102
{BLKREFS
331
3F9
102
}
 70
     0
280
     1
281
     0
  0
BLOCK_RECORD
  5
400
330
1
100
AcDbSymbolTableRecord
100
AcDbBlockTableRecord
  2
block 136
340
0
102
{BLKREFS
331
401
102
}
 70
     0
280
     1
281
     0
  0
BLOCK_RECORD
  5
408
330
1
100
AcDbSymbolTableRecord
100
AcDbBlockTableRecord
  2
block 137
340
0
102
{BLKREFS
331
409
102
}
 70
     0
280
     1
281
     0
  0
BLOCK_RECORD
  5
40D
330
1
100
AcDbSymbolTableRecord
100
AcDbBlockTableRecord
  2
block 138
340
0
102
{BLKREFS
331
40E
102
}
 70
     0
280
     1
281
     0
  0
BLOCK_RECORD
  5
414
330
1
100
AcDbSymbolTableRecord
100
AcDbBlockTableRecord
  2
block 139
340
0
102
{BLKREFS
331
415
102
}
 70
     0
280
     1
281
     0
  0
BLOCK_RECORD
  5
419
330
1
100
AcDbSymbolTableRecord
100
AcDbBlockTableRecord
  2
block 140
340
0
102
{BLKREFS
331
41A
102
}
 70
     0
280
     1
281
     0
  0
BLOCK_RECORD
  5
421
330
1
100
AcDbSymbolTableRecord
100
AcDbBlockTableRecord
  2
block 141
340
0
102
{BLKREFS
331
422
102
}
 70
     0
280
     1
281
     0
  0
BLOCK_RECORD
  5
426
330
1
100
AcDbSymbolTableRecord
100
AcDbBlockTableRecord
  2
block 142
340
0
102
{BLKREFS
331
427
102
}
 70
     0
280
     1
281
     0
  0
BLOCK_RECORD
  5
42B
330
1
100
AcDbSymbolTableRecord
100
AcDbBlockTableRecord
  2
block 143
340
0
102
{BLKREFS
331
42C
102
}
 70
     0
280
     1
281
     0
  0
BLOCK_RECORD
  5
433
330
1
100
AcDbSymbolTableRecord
100
AcDbBlockTableRecord
  2
block 144
340
0
102
{BLKREFS
331
434
102
}
 70
     0
280
     1
281
     0
  0
BLOCK_RECORD
  5
43B
330
1
100
AcDbSymbolTableRecord
100
AcDbBlockTableRecord
  2
block 145
340
0
102
{BLKREFS
331
43C
102
}
 70
     0
280
     1
281
     0
  0
BLOCK_RECORD
  5
443
330
1
100
AcDbSymbolTableRecord
100
AcDbBlockTableRecord
  2
block 146
340
0
102
{BLKREFS
331
444
102
}
 70
     0
280
     1
281
     0
  0
BLOCK_RECORD
  5
44B
330
1
100
AcDbSymbolTableRecord
100
AcDbBlockTableRecord
  2
block 147
340
0
102
{BLKREFS
331
44C
102
}
 70
     0
280
     1
281
     0
  0
BLOCK_RECORD
  5
453
330
1
100
AcDbSymbolTableRecord
100
AcDbBlockTableRecord
  2
block 148
340
0
102
{BLKREFS
331
454
102
}
 70
     0
280
     1
281
     0
  0
BLOCK_RECORD
  5
459
330
1
100
AcDbSymbolTableRecord
100
AcDbBlockTableRecord
  2
block 149
340
0
102
{BLKREFS
331
45A
102
}
 70
     0
280
     1
281
     0
  0
BLOCK_RECORD
  5
45F
330
1
100
AcDbSymbolTableRecord
100
AcDbBlockTableRecord
  2
block 150
340
0
102
{BLKREFS
331
460
102
}
 70
     0
280
     1
281
     0
  0
BLOCK_RECORD
  5
467
330
1
100
AcDbSymbolTableRecord
100
AcDbBlockTableRecord
  2
block 151
340
0
102
{BLKREFS
331
468
102
}
 70
     0
280
     1
281
     0
  0
BLOCK_RECORD
  5
46D
330
1
100
AcDbSymbolTableRecord
100
AcDbBlockTableRecord
  2
block 152
340
0
102
{BLKREFS
331
46E
102
}
 70
     0
280
     1
281
     0
  0
BLOCK_RECORD
  5
476
330
1
100
AcDbSymbolTableRecord
100
AcDbBlockTableRecord
  2
block 153
340
0
102
{BLKREFS
331
477
102
}
 70
     0
280
     1
281
     0
  0
BLOCK_RECORD
  5
47F
330
1
100
AcDbSymbolTableRecord
100
AcDbBlockTableRecord
  2
block 154
340
0
102
{BLKREFS
331
480
102
}
 70
     0
280
     1
281
     0
  0
BLOCK_RECORD
  5
489
330
1
100
AcDbSymbolTableRecord
100
AcDbBlockTableRecord
  2
block 155
340
0
102
{BLKREFS
331
48A
102
}
 70
     0
280
     1
281
     0
  0
BLOCK_RECORD
  5
491
330
1
100
AcDbSymbolTableRecord
100
AcDbBlockTableRecord
  2
block 156
340
0
102
{BLKREFS
331
492
102
}
 70
     0
280
     1
281
     0
  0
BLOCK_RECORD
  5
499
330
1
100
AcDbSymbolTableRecord
100
AcDbBlockTableRecord
  2
block 157
340
0
102
{BLKREFS
331
49A
102
}
 70
     0
280
     1
281
     0
  0
BLOCK_RECORD
  5
4A1
330
1
100
AcDbSymbolTableRecord
100
AcDbBlockTableRecord
  2
block 158
340
0
102
{BLKREFS
331
4A2
102
}
 70
     0
280
     1
281
     0
  0
BLOCK_RECORD
  5
4AC
330
1
100
AcDbSymbolTableRecord
100
AcDbBlockTableRecord
  2
block 159
340
0
102
{BLKREFS
331
4AD
102
}
 70
     0
280
     1
281
     0
  0
BLOCK_RECORD
  5
4B7
330
1
100
AcDbSymbolTableRecord
100
AcDbBlockTableRecord
  2
block 160
340
0
102
{BLKREFS
331
4B8
102
}
 70
     0
280
     1
281
     0
  0
BLOCK_RECORD
  5
4BC
330
1
100
AcDbSymbolTableRecord
100
AcDbBlockTableRecord
  2
block 161
340
0
102
{BLKREFS
331
4BD
102
}
 70
     0
280
     1
281
     0
  0
BLOCK_RECORD
  5
4C4
330
1
100
AcDbSymbolTableRecord
100
AcDbBlockTableRecord
  2
block 162
340
0
102
{BLKREFS
331
4C5
102
}
 70
     0
280
     1
281
     0
  0
BLOCK_RECORD
  5
4CC
330
1
100
AcDbSymbolTableRecord
100
AcDbBlockTableRecord
  2
block 163
340
0
102
{BLKREFS
331
4CD
102
}
 70
     0
280
     1
281
     0
  0
BLOCK_RECORD
  5
4D4
330
1
100
AcDbSymbolTableRecord
100
AcDbBlockTableRecord
  2
block 164
340
0
102
{BLKREFS
331
4D5
102
}
 70
     0
280
     1
281
     0
  0
BLOCK_RECORD
  5
4DF
330
1
100
AcDbSymbolTableRecord
100
AcDbBlockTableRecord
  2
block 165
340
0
102
{BLKREFS
331
4E0
102
}
 70
     0
280
     1
281
     0
  0
BLOCK_RECORD
  5
4EA
330
1
100
AcDbSymbolTableRecord
100
AcDbBlockTableRecord
  2
block 166
340
0
102
{BLKREFS
331
4EB
102
}
 70
     0
280
     1
281
     0
  0
BLOCK_RECORD
  5
4EF
330
1
100
AcDbSymbolTableRecord
100
AcDbBlockTableRecord
  2
block 167
340
0
102
{BLKREFS
331
4F0
102
}
 70
     0
280
     1
281
     0
  0
BLOCK_RECORD
  5
4F7
330
1
100
AcDbSymbolTableRecord
100
AcDbBlockTableRecord
  2
block 168
340
0
102
{BLKREFS
331
4F8
102
}
 70
     0
280
     1
281
     0
  0
BLOCK_RECORD
  5
4FF
330
1
100
AcDbSymbolTableRecord
100
AcDbBlockTableRecord
  2
block 169
340
0
102
{BLKREFS
331
500
102
}
 70
     0
280
     1
281
     0
  0
BLOCK_RECORD
  5
507
330
1
100
AcDbSymbolTableRecord
100
AcDbBlockTableRecord
  2
block 170
340
0
102
{BLKREFS
331
508
102
}
 70
     0
280
     1
281
     0
  0
BLOCK_RECORD
  5
512
330
1
100
AcDbSymbolTableRecord
100
AcDbBlockTableRecord
  2
block 171
340
0
102
{BLKREFS
331
513
102
}
 70
     0
280
     1
281
     0
  0
BLOCK_RECORD
  5
51D
330
1
100
AcDbSymbolTableRecord
100
AcDbBlockTableRecord
  2
block 172
340
0
102
{BLKREFS
331
51E
102
}
 70
     0
280
     1
281
     0
  0
BLOCK_RECORD
  5
522
330
1
100
AcDbSymbolTableRecord
100
AcDbBlockTableRecord
  2
block 173
340
0
102
{BLKREFS
331
523
102
}
 70
     0
280
     1
281
     0
  0
BLOCK_RECORD
  5
52A
330
1
100
AcDbSymbolTableRecord
100
AcDbBlockTableRecord
  2
block 174
340
0
102
{BLKREFS
331
52B
102
}
 70
     0
280
     1
281
     0
  0
BLOCK_RECORD
  5
532
330
1
100
AcDbSymbolTableRecord
100
AcDbBlockTableRecord
  2
block 175
340
0
102
{BLKREFS
331
533
102
}
 70
     0
280
     1
281
     0
  0
BLOCK_RECORD
  5
53A
330
1
100
AcDbSymbolTableRecord
100
AcDbBlockTableRecord
  2
block 176
340
0
102
{BLKREFS
331
53B
102
}
 70
     0
280
     1
281
     0
  0
BLOCK_RECORD
  5
545
330
1
100
AcDbSymbolTableRecord
100
AcDbBlockTableRecord
  2
block 177
340
0
102
{BLKREFS
331
546
102
}
 70
     0
280
     1
281
     0
  0
BLOCK_RECORD
  5
550
330
1
100
AcDbSymbolTableRecord
100
AcDbBlockTableRecord
  2
block 178
340
0
102
{BLKREFS
331
551
102
}
 70
     0
280
     1
281
     0
  0
BLOCK_RECORD
  5
556
330
1
100
AcDbSymbolTableRecord
100
AcDbBlockTableRecord
  2
block 179
340
0
102
{BLKREFS
331
557
102
}
 70
     0
280
     1
281
     0
  0
BLOCK_RECORD
  5
55E
330
1
100
AcDbSymbolTableRecord
100
AcDbBlockTableRecord
  2
block 180
340
0
102
{BLKREFS
331
55F
102
}
 70
     0
280
     1
281
     0
  0
BLOCK_RECORD
  5
566
330
1
100
AcDbSymbolTableRecord
100
AcDbBlockTableRecord
  2
block 181
340
0
102
{BLKREFS
331
567
102
}
 70
     0
280
     1
281
     0
  0
BLOCK_RECORD
  5
56E
330
1
100
AcDbSymbolTableRecord
100
AcDbBlockTableRecord
  2
block 182
340
0
102
{BLKREFS
331
56F
102
}
 70
     0
280
     1
281
     0
  0
BLOCK_RECORD
  5
576
330
1
100
AcDbSymbolTableRecord
100
AcDbBlockTableRecord
  2
block 183
340
0
102
{BLKREFS
331
577
102
}
 70
     0
280
     1
281
     0
  0
BLOCK_RECORD
  5
57E
330
1
100
AcDbSymbolTableRecord
100
AcDbBlockTableRecord
  2
block 184
340
0
102
{BLKREFS
331
57F
102
}
 70
     0
280
     1
281
     0
  0
BLOCK_RECORD
  5
586
330
1
100
AcDbSymbolTableRecord
100
AcDbBlockTableRecord
  2
block 185
340
0
102
{BLKREFS
331
587
102
}
 70
     0
280
     1
281
     0
  0
BLOCK_RECORD
  5
58E
330
1
100
AcDbSymbolTableRecord
100
AcDbBlockTableRecord
  2
block 186
340
0
102
{BLKREFS
331
58F
102
}
 70
     0
280
     1
281
     0
  0
BLOCK_RECORD
  5
596
330
1
100
AcDbSymbolTableRecord
100
AcDbBlockTableRecord
  2
block 187
340
0
102
{BLKREFS
331
597
102
}
 70
     0
280
     1
281
     0
  0
BLOCK_RECORD
  5
59E
330
1
100
AcDbSymbolTableRecord
100
AcDbBlockTableRecord
  2
block 188
340
0
102
{BLKREFS
331
59F
102
}
 70
     0
280
     1
281
     0
  0
BLOCK_RECORD
  5
5A6
330
1
100
AcDbSymbolTableRecord
100
AcDbBlockTableRecord
  2
block 189
340
0
102
{BLKREFS
331
5A7
102
}
 70
     0
280
     1
281
     0
  0
BLOCK_RECORD
  5
5AE
330
1
100
AcDbSymbolTableRecord
100
AcDbBlockTableRecord
  2
block 190
340
0
102
{BLKREFS
331
5AF
102
}
 70
     0
280
     1
281
     0
  0
ENDTAB
  0
ENDSEC
  0
SECTION
  2
BLOCKS
  0
BLOCK
  5
20
330
1F
100
AcDbEntity
  8
0
100
AcDbBlockBegin
  2
*Model_Space
 70
     0
 10
0.0
 20
0.0
 30
0.0
  3
*Model_Space
  1

  0
ENDBLK
  5
21
330
1F
100
AcDbEntity
  8
0
100
AcDbBlockEnd
  0
BLOCK
  5
1C
330
1B
100
AcDbEntity
 67
     1
  8
0
100
AcDbBlockBegin
  2
*Paper_Space
 70
     0
 10
0.0
 20
0.0
 30
0.0
  3
*Paper_Space
  1

  0
ENDBLK
  5
1D
330
1B
100
AcDbEntity
 67
     1
  8
0
100
AcDbBlockEnd
  0
BLOCK
  5
24
330
23
100
AcDbEntity
  8
0
100
AcDbBlockBegin
  2
*Paper_Space0
 70
     0
 10
0.0
 20
0.0
 30
0.0
  3
*Paper_Space0
  1

  0
ENDBLK
  5
25
330
23
100
AcDbEntity
  8
0
100
AcDbBlockEnd
  0
BLOCK
  5
46
330
44
100
AcDbEntity
  8
0
100
AcDbBlockBegin
  2
block 2
 70
     0
 10
0.0
 20
0.0
 30
0.0
  3
block 2
  1

  0
SPLINE
  5
48
330
44
100
AcDbEntity
  8
0
 62
     7
420
 16777215
370
     9
100
AcDbSpline
210
0.0
220
0.0
230
1.0
 70
     8
 71
     3
 72
     8
 73
     4
 74
     0
 42
0.0000000001
 43
0.0000000001
 12
1.0
 22
0.0
 32
0.0
 13
1.0
 23
0.0
 33
0.0
 40
0.0
 40
0.0
 40
0.0
 40
0.0
 40
1.0
 40
1.0
 40
1.0
 40
1.0
 10
49.9683979274481
 20
93.61041279945817
 30
0.0
 10
49.9683979274481
 20
93.29262947019738
 30
0.0
 10
50.22605145761624
 20
93.03501518191028
 30
0.0
 10
50.54388319418972
 20
93.03501518191028
 30
0.0
  0
ENDBLK
  5
47
330
44
100
AcDbEntity
  8
0
100
AcDbBlockEnd
  0
BLOCK
  5
4B
330
49
100
AcDbEntity
  8
0
100
AcDbBlockBegin
  2
block 3
 70
     0
 10
0.0
 20
0.0
 30
0.0
  3
block 3
  1

  0
POLYLINE
  5
4D
330
49
100
AcDbEntity
  8
0
 62
     7
420
 16777215
370
     9
100
AcDb2dPolyline
 66
     1
 10
0.0
 20
0.0
 30
0.0
  0
VERTEX
  5
4E
330
4D
100
AcDbEntity
  8
0
 62
     7
420
 16777215
370
     9
100
AcDbVertex
100
AcDb2dVertex
 10
49.96839829051628
 20
135.892196605999
 30
0.0
  0
VERTEX
  5
4F
330
4D
100
AcDbEntity
  8
0
 62
     7
420
 16777215
370
     9
100
AcDbVertex
100
AcDb2dVertex
 10
49.96839829051628
 20
93.61041232953812
 30
0.0
  0
SEQEND
  5
50
330
4D
100
AcDbEntity
  8
0
 62
     7
420
 16777215
370
     9
  0
ENDBLK
  5
4C
330
49
100
AcDbEntity
  8
0
100
AcDbBlockEnd
  0
BLOCK
  5
53
330
51
100
AcDbEntity
  8
0
100
AcDbBlockBegin
  2
block 4
 70
     0
 10
0.0
 20
0.0
 30
0.0
  3
block 4
  1

  0
POLYLINE
  5
55
330
51
100
AcDbEntity
  8
0
 62
     7
420
 16777215
370
     9
100
AcDb2dPolyline
 66
     1
 10
0.0
 20
0.0
 30
0.0
  0
VERTEX
  5
56
330
55
100
AcDbEntity
  8
0
 62
     7
420
 16777215
370
     9
100
AcDbVertex
100
AcDb2dVertex
 10
50.54388186504685
 20
93.03501640394396
 30
0.0
  0
VERTEX
  5
57
330
55
100
AcDbEntity
  8
0
 62
     7
420
 16777215
370
     9
100
AcDbVertex
100
AcDb2dVertex
 10
107.3252728068933
 20
93.03501640394396
 30
0.0
  0
SEQEND
  5
58
330
55
100
AcDbEntity
  8
0
 62
     7
420
 16777215
370
     9
  0
ENDBLK
  5
54
330
51
100
AcDbEntity
  8
0
100
AcDbBlockEnd
  0
BLOCK
  5
5B
330
59
100
AcDbEntity
  8
0
100
AcDbBlockBegin
  2
block 5
 70
     0
 10
0.0
 20
0.0
 30
0.0
  3
block 5
  1

  0
POLYLINE
  5
5D
330
59
100
AcDbEntity
  8
0
 62
     7
420
 16777215
370
     9
100
AcDb2dPolyline
 66
     1
 10
0.0
 20
0.0
 30
0.0
  0
VERTEX
  5
5E
330
5D
100
AcDbEntity
  8
0
 62
     7
420
 16777215
370
     9
100
AcDbVertex
100
AcDb2dVertex
 10
107.9007563814238
 20
93.61041232953812
 30
0.0
  0
VERTEX
  5
5F
330
5D
100
AcDbEntity
  8
0
 62
     7
420
 16777215
370
     9
100
AcDbVertex
100
AcDb2dVertex
 10
107.9007563814238
 20
135.892196605999
 30
0.0
  0
SEQEND
  5
60
330
5D
100
AcDbEntity
  8
0
 62
     7
420
 16777215
370
     9
  0
ENDBLK
  5
5C
330
59
100
AcDbEntity
  8
0
100
AcDbBlockEnd
  0
BLOCK
  5
63
330
61
100
AcDbEntity
  8
0
100
AcDbBlockBegin
  2
block 6
 70
     0
 10
0.0
 20
0.0
 30
0.0
  3
block 6
  1

  0
SPLINE
  5
65
330
61
100
AcDbEntity
  8
0
 62
     7
420
 16777215
370
     9
100
AcDbSpline
210
0.0
220
0.0
230
1.0
 70
     8
 71
     3
 72
     8
 73
     4
 74
     0
 42
0.0000000001
 43
0.0000000001
 12
1.0
 22
0.0
 32
0.0
 13
1.0
 23
0.0
 33
0.0
 40
0.0
 40
0.0
 40
0.0
 40
0.0
 40
1.0
 40
1.0
 40
1.0
 40
1.0
 10
107.3252714777485
 20
93.03501518191028
 30
0.0
 10
107.643103214322
 20
93.03501518191028
 30
0.0
 10
107.9007567444901
 20
93.29262947019738
 30
0.0
 10
107.9007567444901
 20
93.61041279945817
 30
0.0
  0
ENDBLK
  5
64
330
61
100
AcDbEntity
  8
0
100
AcDbBlockEnd
  0
BLOCK
  5
68
330
66
100
AcDbEntity
  8
0
100
AcDbBlockBegin
  2
block 7
 70
     0
 10
0.0
 20
0.0
 30
0.0
  3
block 7
  1

  0
SPLINE
  5
6A
330
66
100
AcDbEntity
  8
0
 62
     7
420
 16777215
370
     9
100
AcDbSpline
210
0.0
220
0.0
230
1.0
 70
     8
 71
     3
 72
    29
 73
    25
 74
     0
 42
0.0000000001
 43
0.0000000001
 12
1.0
 22
0.0
 32
0.0
 13
1.0
 23
0.0
 33
0.0
 40
0.0
 40
0.0
 40
0.0
 40
0.0
 40
1.0
 40
1.0
 40
1.0
 40
2.0
 40
2.0
 40
2.0
 40
3.0
 40
3.0
 40
3.0
 40
4.0
 40
4.0
 40
4.0
 40
5.0
 40
5.0
 40
5.0
 40
6.0
 40
6.0
 40
6.0
 40
7.0
 40
7.0
 40
7.0
 40
8.0
 40
8.0
 40
8.0
 40
8.0
 10
62.91283364217927
 20
103.2032047520881
 30
0.0
 10
62.99207021191662
 20
102.9700492749992
 30
0.0
 10
63.08010967988763
 20
102.7332486203848
 30
0.0
 10
63.17662890049836
 20
102.4953871086476
 30
0.0
 10
63.27314812110941
 20
102.2575255969097
 30
0.0
 10
63.37814778081643
 20
102.0186153492126
 30
0.0
 10
63.49085273907127
 20
101.7815498443004
 30
0.0
 10
63.6035576973258
 20
101.5444843393888
 30
0.0
 10
63.72396492191025
 20
101.3092790336109
 30
0.0
 10
63.85086455376597
 20
101.0789279221554
 30
0.0
 10
63.97776418562199
 20
100.8485768107005
 30
0.0
 10
64.11114956625642
 20
100.6230963711045
 30
0.0
 10
64.24944930532797
 20
100.4053390270199
 30
0.0
 10
64.38774904439856
 20
100.1875816829346
 30
0.0
 10
64.53095379413168
 20
99.97756215273577
 30
0.0
 10
64.67725195341067
 20
99.77775464056245
 30
0.0
 10
64.82355011269
 20
99.57794712838849
 30
0.0
 10
64.97293121647809
 20
99.38836211824965
 30
0.0
 10
65.12349375024684
 20
99.21090457176803
 30
0.0
 10
65.27405628401559
 20
99.0334470252864
 30
0.0
 10
65.4257904312931
 20
98.8681217167837
 30
0.0
 10
65.57685851649028
 20
98.71614912974701
 30
0.0
 10
65.72792660168713
 20
98.56417654271097
 30
0.0
 10
65.87832092653824
 20
98.42555559628939
 30
0.0
 10
66.02640016483285
 20
98.30079509351268
 30
0.0
  0
ENDBLK
  5
69
330
66
100
AcDbEntity
  8
0
100
AcDbBlockEnd
  0
BLOCK
  5
6D
330
6B
100
AcDbEntity
  8
0
100
AcDbBlockBegin
  2
block 8
 70
     0
 10
0.0
 20
0.0
 30
0.0
  3
block 8
  1

  0
SPLINE
  5
6F
330
6B
100
AcDbEntity
  8
0
 62
     7
420
 16777215
370
     9
100
AcDbSpline
210
0.0
220
0.0
230
1.0
 70
     8
 71
     3
 72
     8
 73
     4
 74
     0
 42
0.0000000001
 43
0.0000000001
 12
1.0
 22
0.0
 32
0.0
 13
1.0
 23
0.0
 33
0.0
 40
0.0
 40
0.0
 40
0.0
 40
0.0
 40
1.0
 40
1.0
 40
1.0
 40
1.0
 10
66.02640016483285
 20
98.30079509351268
 30
0.0
 10
62.28431640550151
 20
96.60699664179805
 30
0.0
 10
57.47696423590685
 20
95.81071376343381
 30
0.0
 10
53.46004314765555
 20
94.34847271121191
 30
0.0
  0
ENDBLK
  5
6E
330
6B
100
AcDbEntity
  8
0
100
AcDbBlockEnd
  0
BLOCK
  5
72
330
70
100
AcDbEntity
  8
0
100
AcDbBlockBegin
  2
block 9
 70
     0
 10
0.0
 20
0.0
 30
0.0
  3
block 9
  1

  0
SPLINE
  5
74
330
70
100
AcDbEntity
  8
0
 62
     7
420
 16777215
370
     9
100
AcDbSpline
210
0.0
220
0.0
230
1.0
 70
     8
 71
     3
 72
    56
 73
    52
 74
     0
 42
0.0000000001
 43
0.0000000001
 12
1.0
 22
0.0
 32
0.0
 13
1.0
 23
0.0
 33
0.0
 40
0.0
 40
0.0
 40
0.0
 40
0.0
 40
1.0
 40
1.0
 40
1.0
 40
2.0
 40
2.0
 40
2.0
 40
3.0
 40
3.0
 40
3.0
 40
4.0
 40
4.0
 40
4.0
 40
5.0
 40
5.0
 40
5.0
 40
6.0
 40
6.0
 40
6.0
 40
7.0
 40
7.0
 40
7.0
 40
8.0
 40
8.0
 40
8.0
 40
9.0
 40
9.0
 40
9.0
 40
10.0
 40
10.0
 40
10.0
 40
11.0
 40
11.0
 40
11.0
 40
12.0
 40
12.0
 40
12.0
 40
13.0
 40
13.0
 40
13.0
 40
14.0
 40
14.0
 40
14.0
 40
15.0
 40
15.0
 40
15.0
 40
16.0
 40
16.0
 40
16.0
 40
17.0
 40
17.0
 40
17.0
 40
17.0
 10
51.24264915687415
 20
95.37979320816792
 30
0.0
 10
51.24200396474215
 20
95.37259102149454
 30
0.0
 10
51.24141549325294
 20
95.36515618849707
 30
0.0
 10
51.24091745182634
 20
95.35784807965045
 30
0.0
 10
51.24041941040038
 20
95.35053997080321
 30
0.0
 10
51.24000107078651
 20
95.34323887307303
 30
0.0
 10
51.2396639462285
 20
95.33594492235639
 30
0.0
 10
51.23898969711182
 20
95.32135702092376
 30
0.0
 10
51.23864030821631
 20
95.30679770754716
 30
0.0
 10
51.23862936880188
 20
95.29226819784587
 30
0.0
 10
51.23860748997303
 20
95.26320917844394
 30
0.0
 10
51.23993727366608
 20
95.23426918826465
 30
0.0
 10
51.24274996566954
 20
95.20545990683432
 30
0.0
 10
51.245562657673
 20
95.17665062540335
 30
0.0
 10
51.2498567452908
 20
95.14797192888628
 30
0.0
 10
51.25580488933996
 20
95.11943907404803
 30
0.0
 10
51.26175303338912
 20
95.09090621920978
 30
0.0
 10
51.2694337389573
 20
95.06231934285704
 30
0.0
 10
51.27878505159013
 20
95.03440696585152
 30
0.0
 10
51.2974876768558
 20
94.97858221184048
 30
0.0
 10
51.32255250319997
 20
94.92601123641421
 30
0.0
 10
51.35385803511833
 20
94.87663187207394
 30
0.0
 10
51.38516356703668
 20
94.82725250773431
 30
0.0
 10
51.42315374814942
 20
94.78079124564151
 30
0.0
 10
51.4648078794412
 20
94.73957555401235
 30
0.0
 10
51.50646201073299
 20
94.69835986238381
 30
0.0
 10
51.55185435920878
 20
94.66194385022501
 30
0.0
 10
51.60015191413769
 20
94.62925631736495
 30
0.0
 10
51.64844946906659
 20
94.59656878450424
 30
0.0
 10
51.70001580167704
 20
94.56753298302232
 30
0.0
 10
51.75250143742934
 20
94.54227535009709
 30
0.0
 10
51.85747270893363
 20
94.49176008424664
 30
0.0
 10
51.96711696789337
 20
94.45486424982303
 30
0.0
 10
52.07962199684836
 20
94.42631165494781
 30
0.0
 10
52.13587451132585
 20
94.41203535751085
 30
0.0
 10
52.19303170365866
 20
94.39984813260048
 30
0.0
 10
52.25031367815378
 20
94.38949292955711
 30
0.0
 10
52.30759565264923
 20
94.37913772651308
 30
0.0
 10
52.36494555210551
 20
94.37061082427796
 30
0.0
 10
52.42234994129488
 20
94.36356535571507
 30
0.0
 10
52.53715871967328
 20
94.34947441858927
 30
0.0
 10
52.65218725756167
 20
94.34110898611063
 30
0.0
 10
52.76736792502162
 20
94.33664974801452
 30
0.0
 10
52.8825485924819
 20
94.33219050991777
 30
0.0
 10
52.99788223394955
 20
94.33170800806151
 30
0.0
 10
53.11333377537049
 20
94.33397657124675
 30
0.0
 10
53.1710595460808
 20
94.33511085283904
 30
0.0
 10
53.22881471390451
 20
94.33694859633914
 30
0.0
 10
53.28659551438641
 20
94.33939219285355
 30
0.0
 10
53.34437631486863
 20
94.34183578936796
 30
0.0
 10
53.40236651922216
 20
94.34489696554941
 30
0.0
 10
53.46001171271968
 20
94.34846126823571
 30
0.0
  0
ENDBLK
  5
73
330
70
100
AcDbEntity
  8
0
100
AcDbBlockEnd
  0
BLOCK
  5
77
330
75
100
AcDbEntity
  8
0
100
AcDbBlockBegin
  2
block 10
 70
     0
 10
0.0
 20
0.0
 30
0.0
  3
block 10
  1

  0
SPLINE
  5
79
330
75
100
AcDbEntity
  8
0
 62
     7
420
 16777215
370
     9
100
AcDbSpline
210
0.0
220
0.0
230
1.0
 70
     8
 71
     3
 72
     8
 73
     4
 74
     0
 42
0.0000000001
 43
0.0000000001
 12
1.0
 22
0.0
 32
0.0
 13
1.0
 23
0.0
 33
0.0
 40
0.0
 40
0.0
 40
0.0
 40
0.0
 40
1.0
 40
1.0
 40
1.0
 40
1.0
 10
51.24265044536988
 20
95.37979384584929
 30
0.0
 10
55.33128897618616
 20
97.40327860180562
 30
0.0
 10
58.77329220343732
 20
101.3295030044272
 30
0.0
 10
62.91283364217927
 20
103.2032047520881
 30
0.0
  0
ENDBLK
  5
78
330
75
100
AcDbEntity
  8
0
100
AcDbBlockEnd
  0
BLOCK
  5
7C
330
7A
100
AcDbEntity
  8
0
100
AcDbBlockBegin
  2
block 11
 70
     0
 10
0.0
 20
0.0
 30
0.0
  3
block 11
  1

  0
SPLINE
  5
7E
330
7A
100
AcDbEntity
  8
0
 62
     7
420
 16777215
370
     9
100
AcDbSpline
210
0.0
220
0.0
230
1.0
 70
     8
 71
     3
 72
    29
 73
    25
 74
     0
 42
0.0000000001
 43
0.0000000001
 12
1.0
 22
0.0
 32
0.0
 13
1.0
 23
0.0
 33
0.0
 40
0.0
 40
0.0
 40
0.0
 40
0.0
 40
1.0
 40
1.0
 40
1.0
 40
2.0
 40
2.0
 40
2.0
 40
3.0
 40
3.0
 40
3.0
 40
4.0
 40
4.0
 40
4.0
 40
5.0
 40
5.0
 40
5.0
 40
6.0
 40
6.0
 40
6.0
 40
7.0
 40
7.0
 40
7.0
 40
8.0
 40
8.0
 40
8.0
 40
8.0
 10
91.84275450710695
 20
98.30079509351268
 30
0.0
 10
91.99083374539867
 20
98.42555559628939
 30
0.0
 10
92.14122807025267
 20
98.56417654271097
 30
0.0
 10
92.29229615544952
 20
98.71614912974701
 30
0.0
 10
92.44336424064669
 20
98.8681217167837
 30
0.0
 10
92.59509838792292
 20
99.0334470252864
 30
0.0
 10
92.74566092169232
 20
99.21090457176803
 30
0.0
 10
92.89622345546204
 20
99.38836211824965
 30
0.0
 10
93.0456045592498
 20
99.57794712838849
 30
0.0
 10
93.19190271852912
 20
99.77775464056245
 30
0.0
 10
93.33820087780845
 20
99.97756215273577
 30
0.0
 10
93.48140562754124
 20
100.1875816829346
 30
0.0
 10
93.61970536661215
 20
100.4053390270199
 30
0.0
 10
93.75800510568338
 20
100.6230963711045
 30
0.0
 10
93.89139048631684
 20
100.8485768107005
 30
0.0
 10
94.01829011817318
 20
101.0789279221554
 30
0.0
 10
94.14518975002954
 20
101.3092790336109
 30
0.0
 10
94.2655969746124
 20
101.5444843393888
 30
0.0
 10
94.37830193286723
 20
101.7815498443004
 30
0.0
 10
94.49100689112208
 20
102.0186153492126
 30
0.0
 10
94.59600655083071
 20
102.2575255969097
 30
0.0
 10
94.69252577144144
 20
102.4953871086476
 30
0.0
 10
94.78904499205215
 20
102.7332486203848
 30
0.0
 10
94.87708446002028
 20
102.9700492749992
 30
0.0
 10
94.95632102975924
 20
103.2032047520881
 30
0.0
  0
ENDBLK
  5
7D
330
7A
100
AcDbEntity
  8
0
100
AcDbBlockEnd
  0
BLOCK
  5
81
330
7F
100
AcDbEntity
  8
0
100
AcDbBlockBegin
  2
block 12
 70
     0
 10
0.0
 20
0.0
 30
0.0
  3
block 12
  1

  0
SPLINE
  5
83
330
7F
100
AcDbEntity
  8
0
 62
     7
420
 16777215
370
     9
100
AcDbSpline
210
0.0
220
0.0
230
1.0
 70
     8
 71
     3
 72
     8
 73
     4
 74
     0
 42
0.0000000001
 43
0.0000000001
 12
1.0
 22
0.0
 32
0.0
 13
1.0
 23
0.0
 33
0.0
 40
0.0
 40
0.0
 40
0.0
 40
0.0
 40
1.0
 40
1.0
 40
1.0
 40
1.0
 10
94.95632102975924
 20
103.2032047520881
 30
0.0
 10
99.09586246490286
 20
101.3295030060564
 30
0.0
 10
102.5378656897669
 20
97.40327860863202
 30
0.0
 10
106.6265042159068
 20
95.37979385112662
 30
0.0
  0
ENDBLK
  5
82
330
7F
100
AcDbEntity
  8
0
100
AcDbBlockEnd
  0
BLOCK
  5
86
330
84
100
AcDbEntity
  8
0
100
AcDbBlockBegin
  2
block 13
 70
     0
 10
0.0
 20
0.0
 30
0.0
  3
block 13
  1

  0
SPLINE
  5
88
330
84
100
AcDbEntity
  8
0
 62
     7
420
 16777215
370
     9
100
AcDbSpline
210
0.0
220
0.0
230
1.0
 70
     8
 71
     3
 72
    65
 73
    61
 74
     0
 42
0.0000000001
 43
0.0000000001
 12
1.0
 22
0.0
 32
0.0
 13
1.0
 23
0.0
 33
0.0
 40
0.0
 40
0.0
 40
0.0
 40
0.0
 40
1.0
 40
1.0
 40
1.0
 40
2.0
 40
2.0
 40
2.0
 40
3.0
 40
3.0
 40
3.0
 40
4.0
 40
4.0
 40
4.0
 40
5.0
 40
5.0
 40
5.0
 40
6.0
 40
6.0
 40
6.0
 40
7.0
 40
7.0
 40
7.0
 40
8.0
 40
8.0
 40
8.0
 40
9.0
 40
9.0
 40
9.0
 40
10.0
 40
10.0
 40
10.0
 40
11.0
 40
11.0
 40
11.0
 40
12.0
 40
12.0
 40
12.0
 40
13.0
 40
13.0
 40
13.0
 40
14.0
 40
14.0
 40
14.0
 40
15.0
 40
15.0
 40
15.0
 40
16.0
 40
16.0
 40
16.0
 40
17.0
 40
17.0
 40
17.0
 40
18.0
 40
18.0
 40
18.0
 40
19.0
 40
19.0
 40
19.0
 40
20.0
 40
20.0
 40
20.0
 40
20.0
 10
104.4091429592217
 20
94.34846126823507
 30
0.0
 10
104.437902171687
 20
94.34668303605469
 30
0.0
 10
104.4669514261117
 20
94.34501813791783
 30
0.0
 10
104.4958468461223
 20
94.34350359710493
 30
0.0
 10
104.5247422661333
 20
94.34198905629202
 30
0.0
 10
104.5536316769314
 20
94.3406157149685
 30
0.0
 10
104.5825146712432
 20
94.33939407433503
 30
0.0
 10
104.6402806598668
 20
94.33695079306811
 30
0.0
 10
104.6980210298197
 20
94.33511303235956
 30
0.0
 10
104.7557320198364
 20
94.33397831818576
 30
0.0
 10
104.8711539998706
 20
94.33170888983814
 30
0.0
 10
104.9864581475218
 20
94.3321888992936
 30
0.0
 10
105.1016094215623
 20
94.33664288600198
 30
0.0
 10
105.2167606956024
 20
94.34109687271038
 30
0.0
 10
105.3317599475203
 20
94.3494546871254
 30
0.0
 10
105.4465396067626
 20
94.3635328266618
 30
0.0
 10
105.5039294363838
 20
94.37057189643032
 30
0.0
 10
105.5612648209601
 20
94.37909121071483
 30
0.0
 10
105.6185323438345
 20
94.389437150993
 30
0.0
 10
105.6757998667084
 20
94.39978309127181
 30
0.0
 10
105.7329451776164
 20
94.41195987593773
 30
0.0
 10
105.7891862647508
 20
94.42622376891451
 30
0.0
 10
105.9016684390208
 20
94.45475155486874
 30
0.0
 10
106.0112924929486
 20
94.49161475404559
 30
0.0
 10
106.1162492072589
 20
94.54208100117057
 30
0.0
 10
106.1687275644141
 20
94.56731412473339
 30
0.0
 10
106.2202919525805
 20
94.5963218388488
 30
0.0
 10
106.2685937456486
 20
94.62897963814687
 30
0.0
 10
106.3168955387167
 20
94.66163743744495
 30
0.0
 10
106.3622953212373
 20
94.698019617501
 30
0.0
 10
106.4039619323892
 20
94.73919498817702
 30
0.0
 10
106.4247952379652
 20
94.75978267351536
 30
0.0
 10
106.4447917720801
 20
94.78171482924868
 30
0.0
 10
106.4633058795795
 20
94.80448582794513
 30
0.0
 10
106.4818199870782
 20
94.82725682664156
 30
0.0
 10
106.4989331026632
 20
94.85092117409239
 30
0.0
 10
106.5145875663999
 20
94.8755156495328
 30
0.0
 10
106.5302420301365
 20
94.9001101249732
 30
0.0
 10
106.544432769709
 20
94.92563797431458
 30
0.0
 10
106.557096456221
 20
94.95213961242273
 30
0.0
 10
106.5697601427329
 20
94.97864125053088
 30
0.0
 10
106.5809033527954
 20
95.00617852167757
 30
0.0
 10
106.5903021117755
 20
95.03420555894273
 30
0.0
 10
106.5997008707548
 20
95.06223259620724
 30
0.0
 10
106.6073676247422
 20
95.09076701028303
 30
0.0
 10
106.6133235727433
 20
95.11931339970845
 30
0.0
 10
106.6192795207444
 20
95.14785978913385
 30
0.0
 10
106.6235794647114
 20
95.17655219126692
 30
0.0
 10
106.6263964433469
 20
95.20537531713006
 30
0.0
 10
106.6292134219818
 20
95.23419844299322
 30
0.0
 10
106.6305458978262
 20
95.26315241823818
 30
0.0
 10
106.6305253342802
 20
95.29222554402858
 30
0.0
 10
106.6305150525072
 20
95.3067621069238
 30
0.0
 10
106.6301659758563
 20
95.32132850392689
 30
0.0
 10
106.6294917263675
 20
95.33592351652327
 30
0.0
 10
106.6291546016237
 20
95.34322102282177
 30
0.0
 10
106.6287361575582
 20
95.35052568528059
 30
0.0
 10
106.6282379502989
 20
95.35783736427948
 30
0.0
 10
106.6277397430403
 20
95.365149043279
 30
0.0
 10
106.627149288317
 20
95.37260685994809
 30
0.0
 10
106.6265055150656
 20
95.37979320816792
 30
0.0
  0
ENDBLK
  5
87
330
84
100
AcDbEntity
  8
0
100
AcDbBlockEnd
  0
BLOCK
  5
8B
330
89
100
AcDbEntity
  8
0
100
AcDbBlockBegin
  2
block 14
 70
     0
 10
0.0
 20
0.0
 30
0.0
  3
block 14
  1

  0
SPLINE
  5
8D
330
89
100
AcDbEntity
  8
0
 62
     7
420
 16777215
370
     9
100
AcDbSpline
210
0.0
220
0.0
230
1.0
 70
     8
 71
     3
 72
     8
 73
     4
 74
     0
 42
0.0000000001
 43
0.0000000001
 12
1.0
 22
0.0
 32
0.0
 13
1.0
 23
0.0
 33
0.0
 40
0.0
 40
0.0
 40
0.0
 40
0.0
 40
1.0
 40
1.0
 40
1.0
 40
1.0
 10
104.4091118383966
 20
94.3484725968682
 30
0.0
 10
100.3921906866501
 20
95.81071372192166
 30
0.0
 10
95.58483836397717
 20
96.60699659764724
 30
0.0
 10
91.84275450710695
 20
98.30079509351268
 30
0.0
  0
ENDBLK
  5
8C
330
89
100
AcDbEntity
  8
0
100
AcDbBlockEnd
  0
BLOCK
  5
90
330
8E
100
AcDbEntity
  8
0
100
AcDbBlockBegin
  2
block 15
 70
     0
 10
0.0
 20
0.0
 30
0.0
  3
block 15
  1

  0
SPLINE
  5
92
330
8E
100
AcDbEntity
  8
0
 62
     7
420
 16777215
370
     9
100
AcDbSpline
210
0.0
220
0.0
230
1.0
 70
     8
 71
     3
 72
    29
 73
    25
 74
     0
 42
0.0000000001
 43
0.0000000001
 12
1.0
 22
0.0
 32
0.0
 13
1.0
 23
0.0
 33
0.0
 40
0.0
 40
0.0
 40
0.0
 40
0.0
 40
1.0
 40
1.0
 40
1.0
 40
2.0
 40
2.0
 40
2.0
 40
3.0
 40
3.0
 40
3.0
 40
4.0
 40
4.0
 40
4.0
 40
5.0
 40
5.0
 40
5.0
 40
6.0
 40
6.0
 40
6.0
 40
7.0
 40
7.0
 40
7.0
 40
8.0
 40
8.0
 40
8.0
 40
8.0
 10
66.01650187099362
 20
122.2118903897822
 30
0.0
 10
65.86954597888075
 20
122.0862636387474
 30
0.0
 10
65.72041781794414
 20
121.9477933750373
 30
0.0
 10
65.57066249026443
 20
121.7970399156226
 30
0.0
 10
65.42090716258375
 20
121.6462864562072
 30
0.0
 10
65.2705315667224
 20
121.4832494717415
 30
0.0
 10
65.1212546829694
 20
121.3091150600636
 30
0.0
 10
64.97197779921639
 20
121.1349806483856
 30
0.0
 10
64.82380829805865
 20
120.9497533675671
 30
0.0
 10
64.67852129141791
 20
120.7552136847415
 30
0.0
 10
64.53323428477684
 20
120.5606740019159
 30
0.0
 10
64.39083898112251
 20
120.3568311533295
 30
0.0
 10
64.25303116564116
 20
120.1459557998003
 30
0.0
 10
64.11522335015981
 20
119.9350804462717
 30
0.0
 10
63.98201130240248
 20
119.7171852572744
 30
0.0
 10
63.85487890752713
 20
119.4948651458817
 30
0.0
 10
63.72774651265211
 20
119.2725450344889
 30
0.0
 10
63.6066998065768
 20
119.0458140916171
 30
0.0
 10
63.49290233109272
 20
118.8173886171593
 30
0.0
 10
63.37910485560864
 20
118.588963142702
 30
0.0
 10
63.27255958943396
 20
118.3588564043523
 30
0.0
 10
63.17404165184418
 20
118.1296988086295
 30
0.0
 10
63.0755237142544
 20
117.9005412129067
 30
0.0
 10
62.9850328900227
 20
117.6723433160801
 30
0.0
 10
62.90293534834132
 20
117.4474694539239
 30
0.0
  0
ENDBLK
  5
91
330
8E
100
AcDbEntity
  8
0
100
AcDbBlockEnd
  0
BLOCK
  5
95
330
93
100
AcDbEntity
  8
0
100
AcDbBlockBegin
  2
block 16
 70
     0
 10
0.0
 20
0.0
 30
0.0
  3
block 16
  1

  0
SPLINE
  5
97
330
93
100
AcDbEntity
  8
0
 62
     7
420
 16777215
370
     9
100
AcDbSpline
210
0.0
220
0.0
230
1.0
 70
     8
 71
     3
 72
     8
 73
     4
 74
     0
 42
0.0000000001
 43
0.0000000001
 12
1.0
 22
0.0
 32
0.0
 13
1.0
 23
0.0
 33
0.0
 40
0.0
 40
0.0
 40
0.0
 40
0.0
 40
1.0
 40
1.0
 40
1.0
 40
1.0
 10
62.90293534834132
 20
117.4474694539239
 30
0.0
 10
58.75968402550706
 20
119.4621242175307
 30
0.0
 10
55.33265136619561
 20
123.4385777599404
 30
0.0
 10
51.24265048028505
 20
125.5990911103825
 30
0.0
  0
ENDBLK
  5
96
330
93
100
AcDbEntity
  8
0
100
AcDbBlockEnd
  0
BLOCK
  5
9A
330
98
100
AcDbEntity
  8
0
100
AcDbBlockBegin
  2
block 17
 70
     0
 10
0.0
 20
0.0
 30
0.0
  3
block 17
  1

  0
SPLINE
  5
9C
330
98
100
AcDbEntity
  8
0
 62
     7
420
 16777215
370
     9
100
AcDbSpline
210
0.0
220
0.0
230
1.0
 70
     8
 71
     3
 72
    56
 73
    52
 74
     0
 42
0.0000000001
 43
0.0000000001
 12
1.0
 22
0.0
 32
0.0
 13
1.0
 23
0.0
 33
0.0
 40
0.0
 40
0.0
 40
0.0
 40
0.0
 40
1.0
 40
1.0
 40
1.0
 40
2.0
 40
2.0
 40
2.0
 40
3.0
 40
3.0
 40
3.0
 40
4.0
 40
4.0
 40
4.0
 40
5.0
 40
5.0
 40
5.0
 40
6.0
 40
6.0
 40
6.0
 40
7.0
 40
7.0
 40
7.0
 40
8.0
 40
8.0
 40
8.0
 40
9.0
 40
9.0
 40
9.0
 40
10.0
 40
10.0
 40
10.0
 40
11.0
 40
11.0
 40
11.0
 40
12.0
 40
12.0
 40
12.0
 40
13.0
 40
13.0
 40
13.0
 40
14.0
 40
14.0
 40
14.0
 40
15.0
 40
15.0
 40
15.0
 40
16.0
 40
16.0
 40
16.0
 40
17.0
 40
17.0
 40
17.0
 40
17.0
 10
53.30697622166574
 20
126.6091307208639
 30
0.0
 10
53.27978149924065
 20
126.6109592256195
 30
0.0
 10
53.25231180528633
 20
126.6126707247793
 30
0.0
 10
53.22498719900482
 20
126.6142273821502
 30
0.0
 10
53.19766259272236
 20
126.615784039521
 30
0.0
 10
53.17034317068953
 20
126.6171952806814
 30
0.0
 10
53.1430292838259
 20
126.6184505706681
 30
0.0
 10
53.08840151009829
 20
126.6209611506416
 30
0.0
 10
53.0337958353838
 20
126.6228492528104
 30
0.0
 10
52.97921550886038
 20
126.6240166628504
 30
0.0
 10
52.87005485581388
 20
126.626351482929
 30
0.0
 10
52.76099593457882
 20
126.6258646981956
 30
0.0
 10
52.65206836168411
 20
126.6213157541051
 30
0.0
 10
52.54314078878972
 20
126.6167668100145
 30
0.0
 10
52.43434453014639
 20
126.6082488980279
 30
0.0
 10
52.32573800973278
 20
126.593834798058
 30
0.0
 10
52.21713148931885
 20
126.5794206980881
 30
0.0
 10
52.10818138856516
 20
126.5588790975566
 30
0.0
 10
52.00261576667318
 20
126.5298739276412
 30
0.0
 10
51.89705014478089
 20
126.5008687577258
 30
0.0
 10
51.79430459017301
 20
126.4634126808798
 30
0.0
 10
51.69624273033986
 20
126.4119385303998
 30
0.0
 10
51.67172726538158
 20
126.3990699927794
 30
0.0
 10
51.64751487753592
 20
126.385266854945
 30
0.0
 10
51.62405927143327
 20
126.3706651523634
 30
0.0
 10
51.60060366533062
 20
126.3560634497818
 30
0.0
 10
51.57780480646056
 20
126.3406143481494
 30
0.0
 10
51.5557284578495
 20
126.3242331198608
 30
0.0
 10
51.51157576062768
 20
126.2914706632835
 30
0.0
 10
51.47028543771897
 20
126.2550158382779
 30
0.0
 10
51.43266220686814
 20
126.2138286741168
 30
0.0
 10
51.39503897601698
 20
126.1726415099557
 30
0.0
 10
51.36226471853247
 20
126.1279605615463
 30
0.0
 10
51.33500323164064
 20
126.0799975509757
 30
0.0
 10
51.30774174474881
 20
126.0320345404046
 30
0.0
 10
51.2858289030968
 20
125.9801947375958
 30
0.0
 10
51.2701100223363
 20
125.9265216391263
 30
0.0
 10
51.25439114157547
 20
125.8728485406568
 30
0.0
 10
51.24507649093204
 20
125.8186589480988
 30
0.0
 10
51.24085051271255
 20
125.7640588244734
 30
0.0
 10
51.23873752360264
 20
125.7367587626604
 30
0.0
 10
51.2379051842301
 20
125.7093554122371
 30
0.0
 10
51.23823895512103
 20
125.6818581116952
 30
0.0
 10
51.23840584056681
 20
125.6681094614245
 30
0.0
 10
51.23886469341799
 20
125.6543372886758
 30
0.0
 10
51.239603512083
 20
125.6405425769427
 30
0.0
 10
51.2399729214155
 20
125.6336452210764
 30
0.0
 10
51.24041234375613
 20
125.6267422287542
 30
0.0
 10
51.2409204001036
 20
125.6198337133092
 30
0.0
 10
51.24142845645106
 20
125.6129251978641
 30
0.0
 10
51.24201670018684
 20
125.6058872324904
 30
0.0
 10
51.24264915687415
 20
125.5990918094642
 30
0.0
  0
ENDBLK
  5
9B
330
98
100
AcDbEntity
  8
0
100
AcDbBlockEnd
  0
BLOCK
  5
9F
330
9D
100
AcDbEntity
  8
0
100
AcDbBlockBegin
  2
block 18
 70
     0
 10
0.0
 20
0.0
 30
0.0
  3
block 18
  1

  0
SPLINE
  5
A1
330
9D
100
AcDbEntity
  8
0
 62
     7
420
 16777215
370
     9
100
AcDbSpline
210
0.0
220
0.0
230
1.0
 70
     8
 71
     3
 72
     8
 73
     4
 74
     0
 42
0.0000000001
 43
0.0000000001
 12
1.0
 22
0.0
 32
0.0
 13
1.0
 23
0.0
 33
0.0
 40
0.0
 40
0.0
 40
0.0
 40
0.0
 40
1.0
 40
1.0
 40
1.0
 40
1.0
 10
53.30700152670448
 20
126.6091205511084
 30
0.0
 10
57.35504125163425
 20
124.9822698675635
 30
0.0
 10
62.22310753454912
 20
124.0564272944195
 30
0.0
 10
66.01650187099362
 20
122.2118903897822
 30
0.0
  0
ENDBLK
  5
A0
330
9D
100
AcDbEntity
  8
0
100
AcDbBlockEnd
  0
BLOCK
  5
A4
330
A2
100
AcDbEntity
  8
0
100
AcDbBlockBegin
  2
block 19
 70
     0
 10
0.0
 20
0.0
 30
0.0
  3
block 19
  1

  0
SPLINE
  5
A6
330
A2
100
AcDbEntity
  8
0
 62
     7
420
 16777215
370
     9
100
AcDbSpline
210
0.0
220
0.0
230
1.0
 70
     8
 71
     3
 72
    29
 73
    25
 74
     0
 42
0.0000000001
 43
0.0000000001
 12
1.0
 22
0.0
 32
0.0
 13
1.0
 23
0.0
 33
0.0
 40
0.0
 40
0.0
 40
0.0
 40
0.0
 40
1.0
 40
1.0
 40
1.0
 40
2.0
 40
2.0
 40
2.0
 40
3.0
 40
3.0
 40
3.0
 40
4.0
 40
4.0
 40
4.0
 40
5.0
 40
5.0
 40
5.0
 40
6.0
 40
6.0
 40
6.0
 40
7.0
 40
7.0
 40
7.0
 40
8.0
 40
8.0
 40
8.0
 40
8.0
 10
94.96621932359847
 20
117.4474694539239
 30
0.0
 10
94.88412178191548
 20
117.6723433160801
 30
0.0
 10
94.79363095768379
 20
117.9005412129067
 30
0.0
 10
94.69511302009465
 20
118.1296988086295
 30
0.0
 10
94.59659508250583
 20
118.3588564043523
 30
0.0
 10
94.49004981632955
 20
118.588963142702
 30
0.0
 10
94.37625234084643
 20
118.8173886171593
 30
0.0
 10
94.262454865363
 20
119.0458140916171
 30
0.0
 10
94.1414081592864
 20
119.2725450344889
 30
0.0
 10
94.01427576441041
 20
119.4948651458817
 30
0.0
 10
93.88714336953443
 20
119.7171852572744
 30
0.0
 10
93.75393132177999
 20
119.9350804462717
 30
0.0
 10
93.61612350629863
 20
120.1459557998003
 30
0.0
 10
93.47831569081728
 20
120.3568311533295
 30
0.0
 10
93.33592038716039
 20
120.5606740019159
 30
0.0
 10
93.19063338052061
 20
120.7552136847415
 30
0.0
 10
93.04534637388113
 20
120.9497533675671
 30
0.0
 10
92.89717687272213
 20
121.1349806483856
 30
0.0
 10
92.74789998896912
 20
121.3091150600636
 30
0.0
 10
92.5986231052161
 20
121.4832494717415
 30
0.0
 10
92.44824750935605
 20
121.6462864562072
 30
0.0
 10
92.2984921816757
 20
121.7970399156226
 30
0.0
 10
92.14873685399566
 20
121.9477933750373
 30
0.0
 10
91.99960869305744
 20
122.0862636387474
 30
0.0
 10
91.8526528009449
 20
122.2118903897822
 30
0.0
  0
ENDBLK
  5
A5
330
A2
100
AcDbEntity
  8
0
100
AcDbBlockEnd
  0
BLOCK
  5
A9
330
A7
100
AcDbEntity
  8
0
100
AcDbBlockBegin
  2
block 20
 70
     0
 10
0.0
 20
0.0
 30
0.0
  3
block 20
  1

  0
SPLINE
  5
AB
330
A7
100
AcDbEntity
  8
0
 62
     7
420
 16777215
370
     9
100
AcDbSpline
210
0.0
220
0.0
230
1.0
 70
     8
 71
     3
 72
     8
 73
     4
 74
     0
 42
0.0000000001
 43
0.0000000001
 12
1.0
 22
0.0
 32
0.0
 13
1.0
 23
0.0
 33
0.0
 40
0.0
 40
0.0
 40
0.0
 40
0.0
 40
1.0
 40
1.0
 40
1.0
 40
1.0
 10
91.8526528009449
 20
122.2118903897822
 30
0.0
 10
95.64604706005214
 20
124.056427256814
 30
0.0
 10
100.5141132218065
 20
124.9822698298124
 30
0.0
 10
104.5621528976431
 20
126.6091204516053
 30
0.0
  0
ENDBLK
  5
AA
330
A7
100
AcDbEntity
  8
0
100
AcDbBlockEnd
  0
BLOCK
  5
AE
330
AC
100
AcDbEntity
  8
0
100
AcDbBlockBegin
  2
block 21
 70
     0
 10
0.0
 20
0.0
 30
0.0
  3
block 21
  1

  0
SPLINE
  5
B0
330
AC
100
AcDbEntity
  8
0
 62
     7
420
 16777215
370
     9
100
AcDbSpline
210
0.0
220
0.0
230
1.0
 70
     8
 71
     3
 72
    65
 73
    61
 74
     0
 42
0.0000000001
 43
0.0000000001
 12
1.0
 22
0.0
 32
0.0
 13
1.0
 23
0.0
 33
0.0
 40
0.0
 40
0.0
 40
0.0
 40
0.0
 40
1.0
 40
1.0
 40
1.0
 40
2.0
 40
2.0
 40
2.0
 40
3.0
 40
3.0
 40
3.0
 40
4.0
 40
4.0
 40
4.0
 40
5.0
 40
5.0
 40
5.0
 40
6.0
 40
6.0
 40
6.0
 40
7.0
 40
7.0
 40
7.0
 40
8.0
 40
8.0
 40
8.0
 40
9.0
 40
9.0
 40
9.0
 40
10.0
 40
10.0
 40
10.0
 40
11.0
 40
11.0
 40
11.0
 40
12.0
 40
12.0
 40
12.0
 40
13.0
 40
13.0
 40
13.0
 40
14.0
 40
14.0
 40
14.0
 40
15.0
 40
15.0
 40
15.0
 40
16.0
 40
16.0
 40
16.0
 40
17.0
 40
17.0
 40
17.0
 40
18.0
 40
18.0
 40
18.0
 40
19.0
 40
19.0
 40
19.0
 40
20.0
 40
20.0
 40
20.0
 40
20.0
 10
106.6265055150656
 20
125.5990918094642
 30
0.0
 10
106.6290804800624
 20
125.6267584886096
 30
0.0
 10
106.6306032746034
 20
125.6546784281224
 30
0.0
 10
106.6309230150663
 20
125.682475533116
 30
0.0
 10
106.6312427555292
 20
125.7102726381097
 30
0.0
 10
106.630371958334
 20
125.7380722890751
 30
0.0
 10
106.6281617098769
 20
125.7658746654942
 30
0.0
 10
106.6259514614192
 20
125.7936770419126
 30
0.0
 10
106.6223906031076
 20
125.8214281468576
 30
0.0
 10
106.6174304029004
 20
125.8486817031825
 30
0.0
 10
106.6124702026938
 20
125.8759352595075
 30
0.0
 10
106.6060956180938
 20
125.9028056136966
 30
0.0
 10
106.5982331597903
 20
125.9292728061421
 30
0.0
 10
106.5903707014868
 20
125.9557399985876
 30
0.0
 10
106.5810218735781
 20
125.9818044269646
 30
0.0
 10
106.5700904559139
 20
126.0074399795578
 30
0.0
 10
106.5591590382498
 20
126.0330755321511
 30
0.0
 10
106.5466378159505
 20
126.0582510630564
 30
0.0
 10
106.532692600733
 20
126.082551905499
 30
0.0
 10
106.5048021702967
 20
126.1311535903835
 30
0.0
 10
106.4718863648459
 20
126.1753366627961
 30
0.0
 10
106.4347844245734
 20
126.2156924995507
 30
0.0
 10
106.4162334544366
 20
126.2358704179281
 30
0.0
 10
106.3966203672997
 20
126.2550910801655
 30
0.0
 10
106.3760166896547
 20
126.2734190479807
 30
0.0
 10
106.3554130120091
 20
126.2917470157953
 30
0.0
 10
106.3337258502639
 20
126.3092591380931
 30
0.0
 10
106.3113467680481
 20
126.3257717856269
 30
0.0
 10
106.2665886036165
 20
126.3587970806939
 30
0.0
 10
106.2197322212541
 20
126.3874549932259
 30
0.0
 10
106.1712816962196
 20
126.4127926758033
 30
0.0
 10
106.1228311711846
 20
126.4381303583806
 30
0.0
 10
106.0727986410768
 20
126.4601767219
 30
0.0
 10
106.021516080759
 20
126.4796222602858
 30
0.0
 10
105.9702335204412
 20
126.4990677986709
 30
0.0
 10
105.9175410340777
 20
126.515928628243
 30
0.0
 10
105.8642279213141
 20
126.5305073845596
 30
0.0
 10
105.8109148085498
 20
126.5450861408761
 30
0.0
 10
105.7569369801323
 20
126.5574473441881
 30
0.0
 10
105.7030086211535
 20
126.5679225882825
 30
0.0
 10
105.6490802621741
 20
126.578397832377
 30
0.0
 10
105.5950673960541
 20
126.5870241880111
 30
0.0
 10
105.5409867829955
 20
126.5941562671811
 30
0.0
 10
105.4328255568785
 20
126.6084204255203
 30
0.0
 10
105.3243942836948
 20
126.6168669219405
 30
0.0
 10
105.2157766762131
 20
126.6213702489541
 30
0.0
 10
105.1071590687324
 20
126.6258735759671
 30
0.0
 10
104.9983538081815
 20
126.6263448626554
 30
0.0
 10
104.8894073213889
 20
126.6240052645262
 30
0.0
 10
104.8349340779923
 20
126.6228354654619
 30
0.0
 10
104.7804254047072
 20
126.6209479017902
 30
0.0
 10
104.7258858856228
 20
126.6184395596349
 30
0.0
 10
104.6986161260805
 20
126.6171853885576
 30
0.0
 10
104.6713386403357
 20
126.6157756990814
 30
0.0
 10
104.6440539229998
 20
126.614220905467
 30
0.0
 10
104.630411564332
 20
126.6134435086598
 30
0.0
 10
104.6167673977664
 20
126.6126298358185
 30
0.0
 10
104.6031214799076
 20
126.6117810759948
 30
0.0
 10
104.5894755620487
 20
126.6109323161718
 30
0.0
 10
104.5760184212532
 20
126.6100612857093
 30
0.0
 10
104.5621784502741
 20
126.6091307208639
 30
0.0
  0
ENDBLK
  5
AF
330
AC
100
AcDbEntity
  8
0
100
AcDbBlockEnd
  0
BLOCK
  5
B3
330
B1
100
AcDbEntity
  8
0
100
AcDbBlockBegin
  2
block 22
 70
     0
 10
0.0
 20
0.0
 30
0.0
  3
block 22
  1

  0
SPLINE
  5
B5
330
B1
100
AcDbEntity
  8
0
 62
     7
420
 16777215
370
     9
100
AcDbSpline
210
0.0
220
0.0
230
1.0
 70
     8
 71
     3
 72
     8
 73
     4
 74
     0
 42
0.0000000001
 43
0.0000000001
 12
1.0
 22
0.0
 32
0.0
 13
1.0
 23
0.0
 33
0.0
 40
0.0
 40
0.0
 40
0.0
 40
0.0
 40
1.0
 40
1.0
 40
1.0
 40
1.0
 10
106.62650420246
 20
125.5990911160898
 30
0.0
 10
102.53650331178
 20
123.4385777669439
 30
0.0
 10
99.10947065008015
 20
119.4621242193044
 30
0.0
 10
94.96621932359847
 20
117.4474694539239
 30
0.0
  0
ENDBLK
  5
B4
330
B1
100
AcDbEntity
  8
0
100
AcDbBlockEnd
  0
BLOCK
  5
B8
330
B6
100
AcDbEntity
  8
0
100
AcDbBlockBegin
  2
block 23
 70
     0
 10
0.0
 20
0.0
 30
0.0
  3
block 23
  1

  0
SPLINE
  5
BA
330
B6
100
AcDbEntity
  8
0
 62
     7
420
 16777215
370
     9
100
AcDbSpline
210
0.0
220
0.0
230
1.0
 70
     8
 71
     3
 72
    50
 73
    46
 74
     0
 42
0.0000000001
 43
0.0000000001
 12
1.0
 22
0.0
 32
0.0
 13
1.0
 23
0.0
 33
0.0
 40
0.0
 40
0.0
 40
0.0
 40
0.0
 40
1.0
 40
1.0
 40
1.0
 40
2.0
 40
2.0
 40
2.0
 40
3.0
 40
3.0
 40
3.0
 40
4.0
 40
4.0
 40
4.0
 40
5.0
 40
5.0
 40
5.0
 40
6.0
 40
6.0
 40
6.0
 40
7.0
 40
7.0
 40
7.0
 40
8.0
 40
8.0
 40
8.0
 40
9.0
 40
9.0
 40
9.0
 40
10.0
 40
10.0
 40
10.0
 40
11.0
 40
11.0
 40
11.0
 40
12.0
 40
12.0
 40
12.0
 40
13.0
 40
13.0
 40
13.0
 40
14.0
 40
14.0
 40
14.0
 40
15.0
 40
15.0
 40
15.0
 40
15.0
 10
104.562107489093
 20
127.0489234226357
 30
0.0
 10
104.6913064656107
 20
127.0489234226357
 30
0.0
 10
104.8206389075243
 20
127.0454737188568
 30
0.0
 10
104.9493314369532
 20
127.037476037365
 30
0.0
 10
105.078023966382
 20
127.0294783558725
 30
0.0
 10
105.2059507620396
 20
127.0169560357417
 30
0.0
 10
105.3328586301782
 20
126.9984129823088
 30
0.0
 10
105.4597664983168
 20
126.9798699288758
 30
0.0
 10
105.5856636575549
 20
126.9553547050648
 30
0.0
 10
105.7101442864675
 20
126.9224693556547
 30
0.0
 10
105.7723846009235
 20
126.9060266809497
 30
0.0
 10
105.8342689451034
 20
126.887480616104
 30
0.0
 10
105.8957195863168
 20
126.8663718469876
 30
0.0
 10
105.9571702275301
 20
126.8452630778713
 30
0.0
 10
106.0173982616387
 20
126.8218487577739
 30
0.0
 10
106.0761305340604
 20
126.7958232275006
 30
0.0
 10
106.1935950789032
 20
126.7437721669533
 30
0.0
 10
106.3053083768157
 20
126.6814494556731
 30
0.0
 10
106.4089047161183
 20
126.6046299639717
 30
0.0
 10
106.4348038009435
 20
126.5854250910465
 30
0.0
 10
106.4601885779629
 20
126.5653016712035
 30
0.0
 10
106.4850021778741
 20
126.5441581366183
 30
0.0
 10
106.509815777786
 20
126.5230146020326
 30
0.0
 10
106.5340305140573
 20
126.5008552673145
 30
0.0
 10
106.5571774646408
 20
126.4780135312613
 30
0.0
 10
106.6034713658077
 20
126.4323300591537
 30
0.0
 10
106.6459498987602
 20
126.3835428583139
 30
0.0
 10
106.6843153610625
 20
126.3314097535336
 30
0.0
 10
106.7034980922137
 20
126.3053432011437
 30
0.0
 10
106.7216509403322
 20
126.2784388586951
 30
0.0
 10
106.7387216543626
 20
126.2506542209576
 30
0.0
 10
106.7557923683925
 20
126.2228695832208
 30
0.0
 10
106.7718081803033
 20
126.19411787536
 30
0.0
 10
106.786415505371
 20
126.1650197021625
 30
0.0
 10
106.8156301555064
 20
126.1068233557673
 30
0.0
 10
106.8395634553854
 20
126.0467657887275
 30
0.0
 10
106.8585152260245
 20
125.9849526621011
 30
0.0
 10
106.8679911113441
 20
125.9540460987876
 30
0.0
 10
106.8762182753014
 20
125.92269946885
 30
0.0
 10
106.8832215641477
 20
125.8909215284501
 30
0.0
 10
106.8902248529947
 20
125.8591435880495
 30
0.0
 10
106.8960159920474
 20
125.8268335881459
 30
0.0
 10
106.9005684251994
 20
125.7944649566143
 30
0.0
 10
106.9096732915027
 20
125.7297276935506
 30
0.0
 10
106.9139116556177
 20
125.6645859066888
 30
0.0
 10
106.9139116556177
 20
125.5990918094642
 30
0.0
  0
ENDBLK
  5
B9
330
B6
100
AcDbEntity
  8
0
100
AcDbBlockEnd
  0
BLOCK
  5
BD
330
BB
100
AcDbEntity
  8
0
100
AcDbBlockBegin
  2
block 24
 70
     0
 10
0.0
 20
0.0
 30
0.0
  3
block 24
  1

  0
SPLINE
  5
BF
330
BB
100
AcDbEntity
  8
0
 62
     7
420
 16777215
370
     9
100
AcDbSpline
210
0.0
220
0.0
230
1.0
 70
     8
 71
     3
 72
    11
 73
     7
 74
     0
 42
0.0000000001
 43
0.0000000001
 12
1.0
 22
0.0
 32
0.0
 13
1.0
 23
0.0
 33
0.0
 40
0.0
 40
0.0
 40
0.0
 40
0.0
 40
1.0
 40
1.0
 40
1.0
 40
2.0
 40
2.0
 40
2.0
 40
2.0
 10
106.9139116556177
 20
125.5990918094642
 30
0.0
 10
106.8637558375721
 20
125.5990904750985
 30
0.0
 10
106.8136039134685
 20
125.5990891407335
 30
0.0
 10
106.7651527348283
 20
125.5990878063685
 30
0.0
 10
106.7167015561888
 20
125.5990864720028
 30
0.0
 10
106.6699586462118
 20
125.5990851376378
 30
0.0
 10
106.6265055150656
 20
125.5990838032728
 30
0.0
  0
ENDBLK
  5
BE
330
BB
100
AcDbEntity
  8
0
100
AcDbBlockEnd
  0
BLOCK
  5
C2
330
C0
100
AcDbEntity
  8
0
100
AcDbBlockBegin
  2
block 25
 70
     0
 10
0.0
 20
0.0
 30
0.0
  3
block 25
  1

  0
SPLINE
  5
C4
330
C0
100
AcDbEntity
  8
0
 62
     7
420
 16777215
370
     9
100
AcDbSpline
210
0.0
220
0.0
230
1.0
 70
     8
 71
     3
 72
    11
 73
     7
 74
     0
 42
0.0000000001
 43
0.0000000001
 12
1.0
 22
0.0
 32
0.0
 13
1.0
 23
0.0
 33
0.0
 40
0.0
 40
0.0
 40
0.0
 40
0.0
 40
1.0
 40
1.0
 40
1.0
 40
2.0
 40
2.0
 40
2.0
 40
2.0
 10
104.562107489093
 20
127.0489234226357
 30
0.0
 10
104.5621193159557
 20
126.9654908579384
 30
0.0
 10
104.5621311428197
 20
126.8821076360651
 30
0.0
 10
104.5621429696837
 20
126.8064451261192
 30
0.0
 10
104.5621547965477
 20
126.7307826161726
 30
0.0
 10
104.5621673453148
 20
126.6629295665571
 30
0.0
 10
104.5621784502741
 20
126.6091307208639
 30
0.0
  0
ENDBLK
  5
C3
330
C0
100
AcDbEntity
  8
0
100
AcDbBlockEnd
  0
BLOCK
  5
C7
330
C5
100
AcDbEntity
  8
0
100
AcDbBlockBegin
  2
block 26
 70
     0
 10
0.0
 20
0.0
 30
0.0
  3
block 26
  1

  0
SPLINE
  5
C9
330
C5
100
AcDbEntity
  8
0
 62
     7
420
 16777215
370
     9
100
AcDbSpline
210
0.0
220
0.0
230
1.0
 70
     8
 71
     3
 72
    32
 73
    28
 74
     0
 42
0.0000000001
 43
0.0000000001
 12
1.0
 22
0.0
 32
0.0
 13
1.0
 23
0.0
 33
0.0
 40
0.0
 40
0.0
 40
0.0
 40
0.0
 40
1.0
 40
1.0
 40
1.0
 40
2.0
 40
2.0
 40
2.0
 40
3.0
 40
3.0
 40
3.0
 40
4.0
 40
4.0
 40
4.0
 40
5.0
 40
5.0
 40
5.0
 40
6.0
 40
6.0
 40
6.0
 40
7.0
 40
7.0
 40
7.0
 40
8.0
 40
8.0
 40
8.0
 40
9.0
 40
9.0
 40
9.0
 40
9.0
 10
106.9139109300839
 20
95.37980210114958
 30
0.0
 10
106.9104367416037
 20
95.30449125569005
 30
0.0
 10
106.9069625531223
 20
95.22918041023117
 30
0.0
 10
106.8954881151567
 20
95.15490936701163
 30
0.0
 10
106.8840279351374
 20
95.0807306117595
 30
0.0
 10
106.8645873752363
 20
95.00758907627063
 30
0.0
 10
106.8382873471989
 20
94.93692163548685
 30
0.0
 10
106.7936467362002
 20
94.81697356053233
 30
0.0
 10
106.7292437891301
 20
94.70415342757929
 30
0.0
 10
106.6490140050203
 20
94.60448691527526
 30
0.0
 10
106.5665697923192
 20
94.5020694997143
 30
0.0
 10
106.4674130098335
 20
94.41354183372808
 30
0.0
 10
106.3595314118137
 20
94.33851570325268
 30
0.0
 10
106.2698003488781
 20
94.27611234105673
 30
0.0
 10
106.1740333150551
 20
94.22304956319368
 30
0.0
 10
106.0748481834288
 20
94.17765429302173
 30
0.0
 10
105.9754361044211
 20
94.13215515307073
 30
0.0
 10
105.8725902676856
 20
94.09435864929448
 30
0.0
 10
105.7680204170695
 20
94.06245278418125
 30
0.0
 10
105.6223561988474
 20
94.01800839728587
 30
0.0
 10
105.4733466923552
 20
93.98499424575066
 30
0.0
 10
105.3230601280574
 20
93.96026103192088
 30
0.0
 10
105.1720720735351
 20
93.93541237125923
 30
0.0
 10
105.0197950115782
 20
93.9189221343264
 30
0.0
 10
104.8671890734028
 20
93.9095938604236
 30
0.0
 10
104.714698245916
 20
93.90027262283931
 30
0.0
 10
104.5618790381658
 20
93.89810254782094
 30
0.0
 10
104.4090598304159
 20
93.89593247280192
 30
0.0
  0
ENDBLK
  5
C8
330
C5
100
AcDbEntity
  8
0
100
AcDbBlockEnd
  0
BLOCK
  5
CC
330
CA
100
AcDbEntity
  8
0
100
AcDbBlockBegin
  2
block 27
 70
     0
 10
0.0
 20
0.0
 30
0.0
  3
block 27
  1

  0
SPLINE
  5
CE
330
CA
100
AcDbEntity
  8
0
 62
     7
420
 16777215
370
     9
100
AcDbSpline
210
0.0
220
0.0
230
1.0
 70
    24
 71
     3
 72
    11
 73
     7
 74
     0
 42
0.0000000001
 43
0.0000000001
 12
1.0
 22
0.0
 32
0.0
 13
1.0
 23
0.0
 33
0.0
 40
0.0
 40
0.0
 40
0.0
 40
0.0
 40
1.0
 40
1.0
 40
1.0
 40
2.0
 40
2.0
 40
2.0
 40
2.0
 10
104.4090590918328
 20
93.89593114590498
 30
0.0
 10
104.4090590918328
 20
93.98272648245869
 30
0.0
 10
104.4090590918328
 20
94.06946174235003
 30
0.0
 10
104.4090590918328
 20
94.14752049913704
 30
0.0
 10
104.4090590918328
 20
94.2255792559247
 30
0.0
 10
104.4090590918328
 20
94.29485345058532
 30
0.0
 10
104.4090590918328
 20
94.34846126823507
 30
0.0
  0
ENDBLK
  5
CD
330
CA
100
AcDbEntity
  8
0
100
AcDbBlockEnd
  0
BLOCK
  5
D1
330
CF
100
AcDbEntity
  8
0
100
AcDbBlockBegin
  2
block 28
 70
     0
 10
0.0
 20
0.0
 30
0.0
  3
block 28
  1

  0
SPLINE
  5
D3
330
CF
100
AcDbEntity
  8
0
 62
     7
420
 16777215
370
     9
100
AcDbSpline
210
0.0
220
0.0
230
1.0
 70
    24
 71
     3
 72
    11
 73
     7
 74
     0
 42
0.0000000001
 43
0.0000000001
 12
1.0
 22
0.0
 32
0.0
 13
1.0
 23
0.0
 33
0.0
 40
0.0
 40
0.0
 40
0.0
 40
0.0
 40
1.0
 40
1.0
 40
1.0
 40
2.0
 40
2.0
 40
2.0
 40
2.0
 10
106.9139116556177
 20
95.37979734764073
 30
0.0
 10
106.8637558375721
 20
95.37979734764073
 30
0.0
 10
106.8136039134685
 20
95.37979734764073
 30
0.0
 10
106.7651527348283
 20
95.37979734764073
 30
0.0
 10
106.7167015561888
 20
95.37979734764073
 30
0.0
 10
106.6699586462118
 20
95.37979734764073
 30
0.0
 10
106.6265055150656
 20
95.37979734764073
 30
0.0
  0
ENDBLK
  5
D2
330
CF
100
AcDbEntity
  8
0
100
AcDbBlockEnd
  0
BLOCK
  5
D6
330
D4
100
AcDbEntity
  8
0
100
AcDbBlockBegin
  2
block 29
 70
     0
 10
0.0
 20
0.0
 30
0.0
  3
block 29
  1

  0
SPLINE
  5
D8
330
D4
100
AcDbEntity
  8
0
 62
     7
420
 16777215
370
     9
100
AcDbSpline
210
0.0
220
0.0
230
1.0
 70
     8
 71
     3
 72
    17
 73
    13
 74
     0
 42
0.0000000001
 43
0.0000000001
 12
1.0
 22
0.0
 32
0.0
 13
1.0
 23
0.0
 33
0.0
 40
0.0
 40
0.0
 40
0.0
 40
0.0
 40
1.0
 40
1.0
 40
1.0
 40
2.0
 40
2.0
 40
2.0
 40
3.0
 40
3.0
 40
3.0
 40
4.0
 40
4.0
 40
4.0
 40
4.0
 10
53.46001194600102
 20
94.3484616507262
 30
0.0
 10
53.46114008969099
 20
94.3194189074448
 30
0.0
 10
53.46226823338063
 20
94.2903761641634
 30
0.0
 10
53.46339637003244
 20
94.25719900856356
 30
0.0
 10
53.46452451359471
 20
94.22402164972992
 30
0.0
 10
53.46565265011883
 20
94.1867098279253
 30
0.0
 10
53.46678079406291
 20
94.14751921538924
 30
0.0
 10
53.4679089276628
 20
94.10832896218923
 30
0.0
 10
53.46903706868233
 20
94.06725995270997
 30
0.0
 10
53.47016521809272
 20
94.02501543764211
 30
0.0
 10
53.47129335384231
 20
93.98277143410975
 30
0.0
 10
53.47242149798242
 20
93.93935195345584
 30
0.0
 10
53.47354964212126
 20
93.89593247280192
 30
0.0
  0
ENDBLK
  5
D7
330
D4
100
AcDbEntity
  8
0
100
AcDbBlockEnd
  0
BLOCK
  5
DB
330
D9
100
AcDbEntity
  8
0
100
AcDbBlockBegin
  2
block 30
 70
     0
 10
0.0
 20
0.0
 30
0.0
  3
block 30
  1

  0
SPLINE
  5
DD
330
D9
100
AcDbEntity
  8
0
 62
     7
420
 16777215
370
     9
100
AcDbSpline
210
0.0
220
0.0
230
1.0
 70
     8
 71
     3
 72
    35
 73
    31
 74
     0
 42
0.0000000001
 43
0.0000000001
 12
1.0
 22
0.0
 32
0.0
 13
1.0
 23
0.0
 33
0.0
 40
0.0
 40
0.0
 40
0.0
 40
0.0
 40
1.0
 40
1.0
 40
1.0
 40
2.0
 40
2.0
 40
2.0
 40
3.0
 40
3.0
 40
3.0
 40
4.0
 40
4.0
 40
4.0
 40
5.0
 40
5.0
 40
5.0
 40
6.0
 40
6.0
 40
6.0
 40
7.0
 40
7.0
 40
7.0
 40
8.0
 40
8.0
 40
8.0
 40
9.0
 40
9.0
 40
9.0
 40
10.0
 40
10.0
 40
10.0
 40
10.0
 10
53.47354964212126
 20
93.89593247280192
 30
0.0
 10
53.42697319195277
 20
93.89612144618093
 30
0.0
 10
53.38039674178428
 20
93.89631041955994
 30
0.0
 10
53.33381923683999
 20
93.89694135770368
 30
0.0
 10
53.12570912177198
 20
93.89976041402271
 30
0.0
 10
52.91757794981874
 20
93.91140257811661
 30
0.0
 10
52.71076792558667
 20
93.93698522840836
 30
0.0
 10
52.50459470829873
 20
93.96248910490996
 30
0.0
 10
52.29973451513335
 20
94.0018477490295
 30
0.0
 10
52.1011342548709
 20
94.06245278418125
 30
0.0
 10
51.99655635769123
 20
94.09436586992565
 30
0.0
 10
51.89371422125322
 20
94.13217017719343
 30
0.0
 10
51.79430648851128
 20
94.17765429302173
 30
0.0
 10
51.69512569322789
 20
94.22303457336979
 30
0.0
 10
51.5993636387703
 20
94.2760596379033
 30
0.0
 10
51.50962326012412
 20
94.33851570325268
 30
0.0
 10
51.40173046203944
 20
94.41360519751942
 30
0.0
 10
51.30254181638293
 20
94.50232692162055
 30
0.0
 10
51.22014066691825
 20
94.60448691527526
 30
0.0
 10
51.17627906593891
 20
94.658866021718
 30
0.0
 10
51.13717397421948
 20
94.71705267949784
 30
0.0
 10
51.10353239506357
 20
94.77822947069667
 30
0.0
 10
51.06989936467425
 20
94.83939071607082
 30
0.0
 10
51.04172707050131
 20
94.90354057539378
 30
0.0
 10
51.01935056425252
 20
94.9697318300263
 30
0.0
 10
50.99709169322792
 20
95.03557511152306
 30
0.0
 10
50.98056783239063
 20
95.10343838116472
 30
0.0
 10
50.97083953366848
 20
95.17208327458847
 30
0.0
 10
50.96110135486344
 20
95.24079788392717
 30
0.0
 10
50.95817254835985
 20
95.3102957054918
 30
0.0
 10
50.95524374185625
 20
95.37979352705706
 30
0.0
  0
ENDBLK
  5
DC
330
D9
100
AcDbEntity
  8
0
100
AcDbBlockEnd
  0
BLOCK
  5
E0
330
DE
100
AcDbEntity
  8
0
100
AcDbBlockBegin
  2
block 31
 70
     0
 10
0.0
 20
0.0
 30
0.0
  3
block 31
  1

  0
SPLINE
  5
E2
330
DE
100
AcDbEntity
  8
0
 62
     7
420
 16777215
370
     9
100
AcDbSpline
210
0.0
220
0.0
230
1.0
 70
    24
 71
     3
 72
    11
 73
     7
 74
     0
 42
0.0000000001
 43
0.0000000001
 12
1.0
 22
0.0
 32
0.0
 13
1.0
 23
0.0
 33
0.0
 40
0.0
 40
0.0
 40
0.0
 40
0.0
 40
1.0
 40
1.0
 40
1.0
 40
2.0
 40
2.0
 40
2.0
 40
2.0
 10
51.24264915687415
 20
95.37979320816792
 30
0.0
 10
51.19919602572795
 20
95.37979320816792
 30
0.0
 10
51.15245311574976
 20
95.37979320816792
 30
0.0
 10
51.10400193711084
 20
95.37979320816792
 30
0.0
 10
51.05555075847159
 20
95.37979320816792
 30
0.0
 10
51.00539883436645
 20
95.37979320816792
 30
0.0
 10
50.95524301632212
 20
95.37979320816792
 30
0.0
  0
ENDBLK
  5
E1
330
DE
100
AcDbEntity
  8
0
100
AcDbBlockEnd
  0
BLOCK
  5
E5
330
E3
100
AcDbEntity
  8
0
100
AcDbBlockBegin
  2
block 32
 70
     0
 10
0.0
 20
0.0
 30
0.0
  3
block 32
  1

  0
SPLINE
  5
E7
330
E3
100
AcDbEntity
  8
0
 62
     7
420
 16777215
370
     9
100
AcDbSpline
210
0.0
220
0.0
230
1.0
 70
    24
 71
     3
 72
    11
 73
     7
 74
     0
 42
0.0000000001
 43
0.0000000001
 12
1.0
 22
0.0
 32
0.0
 13
1.0
 23
0.0
 33
0.0
 40
0.0
 40
0.0
 40
0.0
 40
0.0
 40
1.0
 40
1.0
 40
1.0
 40
2.0
 40
2.0
 40
2.0
 40
2.0
 10
51.24264915687415
 20
125.5990837373645
 30
0.0
 10
51.19919602572795
 20
125.5990837373645
 30
0.0
 10
51.15245311574976
 20
125.5990837373645
 30
0.0
 10
51.10400193711084
 20
125.5990837373645
 30
0.0
 10
51.05555075847159
 20
125.5990837373645
 30
0.0
 10
51.00539883436645
 20
125.5990837373645
 30
0.0
 10
50.95524301632212
 20
125.5990837373645
 30
0.0
  0
ENDBLK
  5
E6
330
E3
100
AcDbEntity
  8
0
100
AcDbBlockEnd
  0
BLOCK
  5
EA
330
E8
100
AcDbEntity
  8
0
100
AcDbBlockBegin
  2
block 33
 70
     0
 10
0.0
 20
0.0
 30
0.0
  3
block 33
  1

  0
SPLINE
  5
EC
330
E8
100
AcDbEntity
  8
0
 62
     7
420
 16777215
370
     9
100
AcDbSpline
210
0.0
220
0.0
230
1.0
 70
     8
 71
     3
 72
    50
 73
    46
 74
     0
 42
0.0000000001
 43
0.0000000001
 12
1.0
 22
0.0
 32
0.0
 13
1.0
 23
0.0
 33
0.0
 40
0.0
 40
0.0
 40
0.0
 40
0.0
 40
1.0
 40
1.0
 40
1.0
 40
2.0
 40
2.0
 40
2.0
 40
3.0
 40
3.0
 40
3.0
 40
4.0
 40
4.0
 40
4.0
 40
5.0
 40
5.0
 40
5.0
 40
6.0
 40
6.0
 40
6.0
 40
7.0
 40
7.0
 40
7.0
 40
8.0
 40
8.0
 40
8.0
 40
9.0
 40
9.0
 40
9.0
 40
10.0
 40
10.0
 40
10.0
 40
11.0
 40
11.0
 40
11.0
 40
12.0
 40
12.0
 40
12.0
 40
13.0
 40
13.0
 40
13.0
 40
14.0
 40
14.0
 40
14.0
 40
15.0
 40
15.0
 40
15.0
 40
15.0
 10
50.95524301632212
 20
125.5990837373645
 30
0.0
 10
50.95524301632212
 20
125.7296455472052
 30
0.0
 10
50.97193911052659
 20
125.8573511530763
 30
0.0
 10
51.00957871573566
 20
125.9814739485897
 30
0.0
 10
51.01898861703793
 20
126.0125046474678
 30
0.0
 10
51.02977931252163
 20
126.0434562593026
 30
0.0
 10
51.04181843596476
 20
126.0737697471028
 30
0.0
 10
51.05385755940789
 20
126.1040832349023
 30
0.0
 10
51.067106603302
 20
126.133704531886
 30
0.0
 10
51.08154944941693
 20
126.1626428592306
 30
0.0
 10
51.11043514164678
 20
126.2205195139211
 30
0.0
 10
51.1440997801858
 20
126.2756621518862
 30
0.0
 10
51.18243598528213
 20
126.3281322046703
 30
0.0
 10
51.20160408783014
 20
126.3543672310624
 30
0.0
 10
51.22203443580365
 20
126.3800338777043
 30
0.0
 10
51.24333439192266
 20
126.4047008988261
 30
0.0
 10
51.26463434804167
 20
126.4293679199471
 30
0.0
 10
51.28681297212668
 20
126.4530690601184
 30
0.0
 10
51.30981033488057
 20
126.4758701969739
 30
0.0
 10
51.35580506038805
 20
126.5214724706848
 30
0.0
 10
51.40505974201909
 20
126.5634912183781
 30
0.0
 10
51.45718681616126
 20
126.6023524716399
 30
0.0
 10
51.48325035323235
 20
126.6217830982709
 30
0.0
 10
51.5101226187596
 20
126.6404756463872
 30
0.0
 10
51.53739525122482
 20
126.658236039861
 30
0.0
 10
51.56466788369004
 20
126.6759964333347
 30
0.0
 10
51.59235726584875
 20
126.6928463273272
 30
0.0
 10
51.62042118260592
 20
126.7088779518323
 30
0.0
 10
51.67654901612025
 20
126.7409412008419
 30
0.0
 10
51.73416931710521
 20
126.7697437615298
 30
0.0
 10
51.79303401695737
 20
126.7958276051015
 30
0.0
 10
51.85189871680986
 20
126.8219114486739
 30
0.0
 10
51.9120127962204
 20
126.8452656934988
 30
0.0
 10
51.97319380455077
 20
126.8662889510615
 30
0.0
 10
52.03437481288082
 20
126.8873122086242
 30
0.0
 10
52.09683193690913
 20
126.9060530800554
 30
0.0
 10
52.15943397684091
 20
126.9225812260784
 30
0.0
 10
52.28463805670479
 20
126.9556375181236
 30
0.0
 10
52.41087716093833
 20
126.9801376712072
 30
0.0
 10
52.53784198796397
 20
126.9986385597
 30
0.0
 10
52.66480681498992
 20
127.0171394481928
 30
0.0
 10
52.79250407885174
 20
127.0295855697069
 30
0.0
 10
52.92074551008282
 20
127.0375332738391
 30
0.0
 10
53.04898694131454
 20
127.0454809779707
 30
0.0
 10
53.17777336759082
 20
127.0489234226357
 30
0.0
 10
53.30697622166574
 20
127.0489234226357
 30
0.0
  0
ENDBLK
  5
EB
330
E8
100
AcDbEntity
  8
0
100
AcDbBlockEnd
  0
BLOCK
  5
EF
330
ED
100
AcDbEntity
  8
0
100
AcDbBlockBegin
  2
block 34
 70
     0
 10
0.0
 20
0.0
 30
0.0
  3
block 34
  1

  0
SPLINE
  5
F1
330
ED
100
AcDbEntity
  8
0
 62
     7
420
 16777215
370
     9
100
AcDbSpline
210
0.0
220
0.0
230
1.0
 70
    24
 71
     3
 72
    11
 73
     7
 74
     0
 42
0.0000000001
 43
0.0000000001
 12
1.0
 22
0.0
 32
0.0
 13
1.0
 23
0.0
 33
0.0
 40
0.0
 40
0.0
 40
0.0
 40
0.0
 40
1.0
 40
1.0
 40
1.0
 40
2.0
 40
2.0
 40
2.0
 40
2.0
 10
53.30697622166574
 20
126.6091307208639
 30
0.0
 10
53.30697622166574
 20
126.6629303132304
 30
0.0
 10
53.30697622166574
 20
126.7307826161726
 30
0.0
 10
53.30697622166574
 20
126.8064451261192
 30
0.0
 10
53.30697622166574
 20
126.8821076360651
 30
0.0
 10
53.30697622166574
 20
126.9654908579384
 30
0.0
 10
53.30697622166574
 20
127.0489234226357
 30
0.0
  0
ENDBLK
  5
F0
330
ED
100
AcDbEntity
  8
0
100
AcDbBlockEnd
  0
BLOCK
  5
F4
330
F2
100
AcDbEntity
  8
0
100
AcDbBlockBegin
  2
block 35
 70
     0
 10
0.0
 20
0.0
 30
0.0
  3
block 35
  1

  0
POLYLINE
  5
F6
330
F2
100
AcDbEntity
  8
0
 62
     7
420
 16777215
370
     9
100
AcDb2dPolyline
 66
     1
 10
0.0
 20
0.0
 30
0.0
  0
VERTEX
  5
F7
330
F6
100
AcDbEntity
  8
0
 62
     7
420
 16777215
370
     9
100
AcDbVertex
100
AcDb2dVertex
 10
104.4090598304159
 20
93.89593247280192
 30
0.0
  0
VERTEX
  5
F8
330
F6
100
AcDbEntity
  8
0
 62
     7
420
 16777215
370
     9
100
AcDbVertex
100
AcDb2dVertex
 10
53.47354964212126
 20
93.89593247280192
 30
0.0
  0
SEQEND
  5
F9
330
F6
100
AcDbEntity
  8
0
 62
     7
420
 16777215
370
     9
  0
ENDBLK
  5
F5
330
F2
100
AcDbEntity
  8
0
100
AcDbBlockEnd
  0
BLOCK
  5
FC
330
FA
100
AcDbEntity
  8
0
100
AcDbBlockBegin
  2
block 36
 70
     0
 10
0.0
 20
0.0
 30
0.0
  3
block 36
  1

  0
POLYLINE
  5
FE
330
FA
100
AcDbEntity
  8
0
 62
     7
420
 16777215
370
     9
100
AcDb2dPolyline
 66
     1
 10
0.0
 20
0.0
 30
0.0
  0
VERTEX
  5
FF
330
FE
100
AcDbEntity
  8
0
 62
     7
420
 16777215
370
     9
100
AcDbVertex
100
AcDb2dVertex
 10
53.46009769998894
 20
94.3484616507262
 30
0.0
  0
VERTEX
  5
100
330
FE
100
AcDbEntity
  8
0
 62
     7
420
 16777215
370
     9
100
AcDbVertex
100
AcDb2dVertex
 10
104.4090598304159
 20
94.3484616507262
 30
0.0
  0
SEQEND
  5
101
330
FE
100
AcDbEntity
  8
0
 62
     7
420
 16777215
370
     9
  0
ENDBLK
  5
FD
330
FA
100
AcDbEntity
  8
0
100
AcDbBlockEnd
  0
BLOCK
  5
104
330
102
100
AcDbEntity
  8
0
100
AcDbBlockBegin
  2
block 37
 70
     0
 10
0.0
 20
0.0
 30
0.0
  3
block 37
  1

  0
POLYLINE
  5
106
330
102
100
AcDbEntity
  8
0
 62
     7
420
 16777215
370
     9
100
AcDb2dPolyline
 66
     1
 10
0.0
 20
0.0
 30
0.0
  0
VERTEX
  5
107
330
106
100
AcDbEntity
  8
0
 62
     7
420
 16777215
370
     9
100
AcDbVertex
100
AcDb2dVertex
 10
53.30697538036653
 20
127.0489235232682
 30
0.0
  0
VERTEX
  5
108
330
106
100
AcDbEntity
  8
0
 62
     7
420
 16777215
370
     9
100
AcDbVertex
100
AcDb2dVertex
 10
104.5621078299154
 20
127.0489235232682
 30
0.0
  0
SEQEND
  5
109
330
106
100
AcDbEntity
  8
0
 62
     7
420
 16777215
370
     9
  0
ENDBLK
  5
105
330
102
100
AcDbEntity
  8
0
100
AcDbBlockEnd
  0
BLOCK
  5
10C
330
10A
100
AcDbEntity
  8
0
100
AcDbBlockBegin
  2
block 38
 70
     0
 10
0.0
 20
0.0
 30
0.0
  3
block 38
  1

  0
POLYLINE
  5
10E
330
10A
100
AcDbEntity
  8
0
 62
     7
420
 16777215
370
     9
100
AcDb2dPolyline
 66
     1
 10
0.0
 20
0.0
 30
0.0
  0
VERTEX
  5
10F
330
10E
100
AcDbEntity
  8
0
 62
     7
420
 16777215
370
     9
100
AcDbVertex
100
AcDb2dVertex
 10
104.5621078299154
 20
126.6091304454665
 30
0.0
  0
VERTEX
  5
110
330
10E
100
AcDbEntity
  8
0
 62
     7
420
 16777215
370
     9
100
AcDbVertex
100
AcDb2dVertex
 10
53.30704684202307
 20
126.6091304454665
 30
0.0
  0
SEQEND
  5
111
330
10E
100
AcDbEntity
  8
0
 62
     7
420
 16777215
370
     9
  0
ENDBLK
  5
10D
330
10A
100
AcDbEntity
  8
0
100
AcDbBlockEnd
  0
BLOCK
  5
114
330
112
100
AcDbEntity
  8
0
100
AcDbBlockBegin
  2
block 39
 70
     0
 10
0.0
 20
0.0
 30
0.0
  3
block 39
  1

  0
POLYLINE
  5
116
330
112
100
AcDbEntity
  8
0
 62
     7
420
 16777215
370
     9
100
AcDb2dPolyline
 66
     1
 10
0.0
 20
0.0
 30
0.0
  0
VERTEX
  5
117
330
116
100
AcDbEntity
  8
0
 62
     7
420
 16777215
370
     9
100
AcDbVertex
100
AcDb2dVertex
 10
106.9139109300839
 20
125.5990916137235
 30
0.0
  0
VERTEX
  5
118
330
116
100
AcDbEntity
  8
0
 62
     7
420
 16777215
370
     9
100
AcDbVertex
100
AcDb2dVertex
 10
106.9139109300839
 20
95.37980210114958
 30
0.0
  0
SEQEND
  5
119
330
116
100
AcDbEntity
  8
0
 62
     7
420
 16777215
370
     9
  0
ENDBLK
  5
115
330
112
100
AcDbEntity
  8
0
100
AcDbBlockEnd
  0
BLOCK
  5
11C
330
11A
100
AcDbEntity
  8
0
100
AcDbBlockBegin
  2
block 40
 70
     0
 10
0.0
 20
0.0
 30
0.0
  3
block 40
  1

  0
POLYLINE
  5
11E
330
11A
100
AcDbEntity
  8
0
 62
     7
420
 16777215
370
     9
100
AcDb2dPolyline
 66
     1
 10
0.0
 20
0.0
 30
0.0
  0
VERTEX
  5
11F
330
11E
100
AcDbEntity
  8
0
 62
     7
420
 16777215
370
     9
100
AcDbVertex
100
AcDb2dVertex
 10
50.95524374185625
 20
95.37979352705706
 30
0.0
  0
VERTEX
  5
120
330
11E
100
AcDbEntity
  8
0
 62
     7
420
 16777215
370
     9
100
AcDbVertex
100
AcDb2dVertex
 10
50.95524374185625
 20
125.5990837541385
 30
0.0
  0
SEQEND
  5
121
330
11E
100
AcDbEntity
  8
0
 62
     7
420
 16777215
370
     9
  0
ENDBLK
  5
11D
330
11A
100
AcDbEntity
  8
0
100
AcDbBlockEnd
  0
BLOCK
  5
124
330
122
100
AcDbEntity
  8
0
100
AcDbBlockBegin
  2
block 41
 70
     0
 10
0.0
 20
0.0
 30
0.0
  3
block 41
  1

  0
POLYLINE
  5
126
330
122
100
AcDbEntity
  8
0
 62
     7
420
 16777215
370
     9
100
AcDb2dPolyline
 66
     1
 10
0.0
 20
0.0
 30
0.0
  0
VERTEX
  5
127
330
126
100
AcDbEntity
  8
0
 62
     7
420
 16777215
370
     9
100
AcDbVertex
100
AcDb2dVertex
 10
106.6265064418344
 20
95.37980210114958
 30
0.0
  0
VERTEX
  5
128
330
126
100
AcDbEntity
  8
0
 62
     7
420
 16777215
370
     9
100
AcDbVertex
100
AcDb2dVertex
 10
106.6265064418344
 20
125.5990837541385
 30
0.0
  0
SEQEND
  5
129
330
126
100
AcDbEntity
  8
0
 62
     7
420
 16777215
370
     9
  0
ENDBLK
  5
125
330
122
100
AcDbEntity
  8
0
100
AcDbBlockEnd
  0
BLOCK
  5
12C
330
12A
100
AcDbEntity
  8
0
100
AcDbBlockBegin
  2
block 42
 70
     0
 10
0.0
 20
0.0
 30
0.0
  3
block 42
  1

  0
POLYLINE
  5
12E
330
12A
100
AcDbEntity
  8
0
 62
     7
420
 16777215
370
     9
100
AcDb2dPolyline
 66
     1
 10
0.0
 20
0.0
 30
0.0
  0
VERTEX
  5
12F
330
12E
100
AcDbEntity
  8
0
 62
     7
420
 16777215
370
     9
100
AcDbVertex
100
AcDb2dVertex
 10
51.24264823010416
 20
125.5990837541385
 30
0.0
  0
VERTEX
  5
130
330
12E
100
AcDbEntity
  8
0
 62
     7
420
 16777215
370
     9
100
AcDbVertex
100
AcDb2dVertex
 10
51.24264823010416
 20
95.37980210114958
 30
0.0
  0
SEQEND
  5
131
330
12E
100
AcDbEntity
  8
0
 62
     7
420
 16777215
370
     9
  0
ENDBLK
  5
12D
330
12A
100
AcDbEntity
  8
0
100
AcDbBlockEnd
  0
BLOCK
  5
134
330
132
100
AcDbEntity
  8
0
100
AcDbBlockBegin
  2
block 43
 70
     0
 10
0.0
 20
0.0
 30
0.0
  3
block 43
  1

  0
SPLINE
  5
136
330
132
100
AcDbEntity
  8
0
 62
     7
420
 16777215
370
     9
100
AcDbSpline
210
0.0
220
0.0
230
1.0
 70
     8
 71
     3
 72
     8
 73
     4
 74
     0
 42
0.0000000001
 43
0.0000000001
 12
1.0
 22
0.0
 32
0.0
 13
1.0
 23
0.0
 33
0.0
 40
0.0
 40
0.0
 40
0.0
 40
0.0
 40
1.0
 40
1.0
 40
1.0
 40
1.0
 10
50.54388186504557
 20
136.4675942285483
 30
0.0
 10
50.22607589754393
 20
136.467570127533
 30
0.0
 10
49.96846279804568
 20
136.2099571882911
 30
0.0
 10
49.96848690273247
 20
135.8921996241772
 30
0.0
  0
ENDBLK
  5
135
330
132
100
AcDbEntity
  8
0
100
AcDbBlockEnd
  0
BLOCK
  5
139
330
137
100
AcDbEntity
  8
0
100
AcDbBlockBegin
  2
block 44
 70
     0
 10
0.0
 20
0.0
 30
0.0
  3
block 44
  1

  0
POLYLINE
  5
13B
330
137
100
AcDbEntity
  8
0
 62
     7
420
 16777215
370
     9
100
AcDb2dPolyline
 66
     1
 10
0.0
 20
0.0
 30
0.0
  0
VERTEX
  5
13C
330
13B
100
AcDbEntity
  8
0
 62
     7
420
 16777215
370
     9
100
AcDbVertex
100
AcDb2dVertex
 10
50.54388186504685
 20
136.4675942285483
 30
0.0
  0
VERTEX
  5
13D
330
13B
100
AcDbEntity
  8
0
 62
     7
420
 16777215
370
     9
100
AcDbVertex
100
AcDb2dVertex
 10
50.54397047750111
 20
136.4675942285483
 30
0.0
  0
SEQEND
  5
13E
330
13B
100
AcDbEntity
  8
0
 62
     7
420
 16777215
370
     9
  0
ENDBLK
  5
13A
330
137
100
AcDbEntity
  8
0
100
AcDbBlockEnd
  0
BLOCK
  5
141
330
13F
100
AcDbEntity
  8
0
100
AcDbBlockBegin
  2
block 45
 70
     0
 10
0.0
 20
0.0
 30
0.0
  3
block 45
  1

  0
POLYLINE
  5
143
330
13F
100
AcDbEntity
  8
0
 62
     7
420
 16777215
370
     9
100
AcDb2dPolyline
 66
     1
 10
0.0
 20
0.0
 30
0.0
  0
VERTEX
  5
144
330
143
100
AcDbEntity
  8
0
 62
     7
420
 16777215
370
     9
100
AcDbVertex
100
AcDb2dVertex
 10
50.54397047750111
 20
136.4675942285483
 30
0.0
  0
VERTEX
  5
145
330
143
100
AcDbEntity
  8
0
 62
     7
420
 16777215
370
     9
100
AcDbVertex
100
AcDb2dVertex
 10
107.3251841944387
 20
136.4675942285483
 30
0.0
  0
SEQEND
  5
146
330
143
100
AcDbEntity
  8
0
 62
     7
420
 16777215
370
     9
  0
ENDBLK
  5
142
330
13F
100
AcDbEntity
  8
0
100
AcDbBlockEnd
  0
BLOCK
  5
149
330
147
100
AcDbEntity
  8
0
100
AcDbBlockBegin
  2
block 46
 70
     0
 10
0.0
 20
0.0
 30
0.0
  3
block 46
  1

  0
POLYLINE
  5
14B
330
147
100
AcDbEntity
  8
0
 62
     7
420
 16777215
370
     9
100
AcDb2dPolyline
 66
     1
 10
0.0
 20
0.0
 30
0.0
  0
VERTEX
  5
14C
330
14B
100
AcDbEntity
  8
0
 62
     7
420
 16777215
370
     9
100
AcDbVertex
100
AcDb2dVertex
 10
107.3251841944387
 20
136.4675942285483
 30
0.0
  0
VERTEX
  5
14D
330
14B
100
AcDbEntity
  8
0
 62
     7
420
 16777215
370
     9
100
AcDbVertex
100
AcDb2dVertex
 10
107.3252728068933
 20
136.4675942285483
 30
0.0
  0
SEQEND
  5
14E
330
14B
100
AcDbEntity
  8
0
 62
     7
420
 16777215
370
     9
  0
ENDBLK
  5
14A
330
147
100
AcDbEntity
  8
0
100
AcDbBlockEnd
  0
BLOCK
  5
151
330
14F
100
AcDbEntity
  8
0
100
AcDbBlockBegin
  2
block 47
 70
     0
 10
0.0
 20
0.0
 30
0.0
  3
block 47
  1

  0
SPLINE
  5
153
330
14F
100
AcDbEntity
  8
0
 62
     7
420
 16777215
370
     9
100
AcDbSpline
210
0.0
220
0.0
230
1.0
 70
     8
 71
     3
 72
     8
 73
     4
 74
     0
 42
0.0000000001
 43
0.0000000001
 12
1.0
 22
0.0
 32
0.0
 13
1.0
 23
0.0
 33
0.0
 40
0.0
 40
0.0
 40
0.0
 40
0.0
 40
1.0
 40
1.0
 40
1.0
 40
1.0
 10
107.9006677689673
 20
135.8921966059984
 30
0.0
 10
107.9006935408027
 20
136.2099541699814
 30
0.0
 10
107.6430817929007
 20
136.4675684604021
 30
0.0
 10
107.3252758255303
 20
136.4675942283115
 30
0.0
  0
ENDBLK
  5
152
330
14F
100
AcDbEntity
  8
0
100
AcDbBlockEnd
  0
BLOCK
  5
156
330
154
100
AcDbEntity
  8
0
100
AcDbBlockBegin
  2
block 48
 70
     0
 10
0.0
 20
0.0
 30
0.0
  3
block 48
  1

  0
SPLINE
  5
158
330
154
100
AcDbEntity
  8
0
 62
     7
420
 16777215
370
     9
100
AcDbSpline
210
0.0
220
0.0
230
1.0
 70
     8
 71
     3
 72
    32
 73
    28
 74
     0
 42
0.0000000001
 43
0.0000000001
 12
1.0
 22
0.0
 32
0.0
 13
1.0
 23
0.0
 33
0.0
 40
0.0
 40
0.0
 40
0.0
 40
0.0
 40
1.0
 40
1.0
 40
1.0
 40
2.0
 40
2.0
 40
2.0
 40
3.0
 40
3.0
 40
3.0
 40
4.0
 40
4.0
 40
4.0
 40
5.0
 40
5.0
 40
5.0
 40
6.0
 40
6.0
 40
6.0
 40
7.0
 40
7.0
 40
7.0
 40
8.0
 40
8.0
 40
8.0
 40
9.0
 40
9.0
 40
9.0
 40
9.0
 10
94.96621932359847
 20
117.4474694539233
 30
0.0
 10
94.89098713380578
 20
116.8633472524163
 30
0.0
 10
94.81990189506467
 20
116.2782857686126
 30
0.0
 10
94.75502920416477
 20
115.6918171458926
 30
0.0
 10
94.69015651326518
 20
115.1053485231731
 30
0.0
 10
94.63150077537955
 20
114.5174717637692
 30
0.0
 10
94.58194802054115
 20
113.9275331833498
 30
0.0
 10
94.53239526570273
 20
113.3375946029304
 30
0.0
 10
94.4920156545146
 20
112.7455783101557
 30
0.0
 10
94.46400580479887
 20
112.1507602727205
 30
0.0
 10
94.43599595508282
 20
111.5559422352853
 30
0.0
 10
94.42049137892363
 20
110.9582917597716
 30
0.0
 10
94.41938011919461
 20
110.3573812054316
 30
0.0
 10
94.41882448933028
 20
110.0569259282618
 30
0.0
 10
94.42183589605999
 20
109.7565637573214
 30
0.0
 10
94.42830997393517
 20
109.4567241524447
 30
0.0
 10
94.43478405181068
 20
109.1568845475687
 30
0.0
 10
94.44471729188079
 20
108.8574253288252
 30
0.0
 10
94.45784383640044
 20
108.5583172612167
 30
0.0
 10
94.48409692544008
 20
107.9601011260009
 30
0.0
 10
94.5231469745825
 20
107.3632922061438
 30
0.0
 10
94.57187900247965
 20
106.7675479632962
 30
0.0
 10
94.62061103037647
 20
106.1718037204487
 30
0.0
 10
94.67894136881287
 20
105.5771149540499
 30
0.0
 10
94.74388335837737
 20
104.9831532366497
 30
0.0
 10
94.8088253479425
 20
104.3891915192488
 30
0.0
 10
94.88036777576704
 20
103.7959556178256
 30
0.0
 10
94.95632102976053
 20
103.2032047520881
 30
0.0
  0
ENDBLK
  5
157
330
154
100
AcDbEntity
  8
0
100
AcDbBlockEnd
  0
BLOCK
  5
15B
330
159
100
AcDbEntity
  8
0
100
AcDbBlockBegin
  2
block 49
 70
     0
 10
0.0
 20
0.0
 30
0.0
  3
block 49
  1

  0
SPLINE
  5
15D
330
159
100
AcDbEntity
  8
0
 62
     7
420
 16777215
370
     9
100
AcDbSpline
210
0.0
220
0.0
230
1.0
 70
     8
 71
     3
 72
    32
 73
    28
 74
     0
 42
0.0000000001
 43
0.0000000001
 12
1.0
 22
0.0
 32
0.0
 13
1.0
 23
0.0
 33
0.0
 40
0.0
 40
0.0
 40
0.0
 40
0.0
 40
1.0
 40
1.0
 40
1.0
 40
2.0
 40
2.0
 40
2.0
 40
3.0
 40
3.0
 40
3.0
 40
4.0
 40
4.0
 40
4.0
 40
5.0
 40
5.0
 40
5.0
 40
6.0
 40
6.0
 40
6.0
 40
7.0
 40
7.0
 40
7.0
 40
8.0
 40
8.0
 40
8.0
 40
9.0
 40
9.0
 40
9.0
 40
9.0
 10
62.91283364217927
 20
103.2032047520888
 30
0.0
 10
62.98769349172787
 20
103.7874225215327
 30
0.0
 10
63.05833245652962
 20
104.3725964886359
 30
0.0
 10
63.12264898548471
 20
104.9592027380011
 30
0.0
 10
63.18696551444012
 20
105.5458089873663
 30
0.0
 10
63.24495342265973
 20
106.1338489201158
 30
0.0
 10
63.29369478601279
 20
106.723983561697
 30
0.0
 10
63.34243614936616
 20
107.3141182032776
 30
0.0
 10
63.38185693982701
 20
107.9063643239706
 30
0.0
 10
63.40877638687195
 20
108.5014424943462
 30
0.0
 10
63.4222361103941
 20
108.7989815795339
 30
0.0
 10
63.43257311080296
 20
109.0972280852535
 30
0.0
 10
63.43949212169174
 20
109.3962489010456
 30
0.0
 10
63.44641113258051
 20
109.6952697168384
 30
0.0
 10
63.44990844575302
 20
109.9951834760037
 30
0.0
 10
63.4498387800876
 20
110.2956593844726
 30
0.0
 10
63.44969944875707
 20
110.8966112014097
 30
0.0
 10
63.43514412588574
 20
111.4959868762499
 30
0.0
 10
63.4077855015875
 20
112.0939627290732
 30
0.0
 10
63.38042687728989
 20
112.6919385818959
 30
0.0
 10
63.34039917569537
 20
113.2885292878146
 30
0.0
 10
63.29083981599121
 20
113.8840778699526
 30
0.0
 10
63.24128045628736
 20
114.4796264520906
 30
0.0
 10
63.1822692110737
 20
115.0741416322172
 30
0.0
 10
63.11676236206127
 20
115.6679466291725
 30
0.0
 10
63.05125551304916
 20
116.2617516261278
 30
0.0
 10
62.97926227303503
 20
116.8548474471732
 30
0.0
 10
62.90293534834132
 20
117.4474694539246
 30
0.0
  0
ENDBLK
  5
15C
330
159
100
AcDbEntity
  8
0
100
AcDbBlockEnd
  0
BLOCK
  5
160
330
15E
100
AcDbEntity
  8
0
100
AcDbBlockBegin
  2
block 50
 70
     0
 10
0.0
 20
0.0
 30
0.0
  3
block 50
  1

  0
SPLINE
  5
162
330
15E
100
AcDbEntity
  8
0
 62
     7
420
 16777215
370
     9
100
AcDbSpline
210
0.0
220
0.0
230
1.0
 70
     8
 71
     3
 72
    17
 73
    13
 74
     0
 42
0.0000000001
 43
0.0000000001
 12
1.0
 22
0.0
 32
0.0
 13
1.0
 23
0.0
 33
0.0
 40
0.0
 40
0.0
 40
0.0
 40
0.0
 40
1.0
 40
1.0
 40
1.0
 40
2.0
 40
2.0
 40
2.0
 40
3.0
 40
3.0
 40
3.0
 40
4.0
 40
4.0
 40
4.0
 40
4.0
 10
87.93046869184607
 20
121.5266690197655
 30
0.0
 10
88.25177591016329
 20
121.550959925938
 30
0.0
 10
88.58739049462864
 20
121.5396690898024
 30
0.0
 10
88.91783983050532
 20
121.5713750924641
 30
0.0
 10
89.24828916638104
 20
121.6030810951258
 30
0.0
 10
89.58264214993378
 20
121.6414046003953
 30
0.0
 10
89.90800687407761
 20
121.7137252381714
 30
0.0
 10
90.23337159822147
 20
121.7860458759481
 30
0.0
 10
90.55281165926633
 20
121.8726734558267
 30
0.0
 10
90.86464971456483
 20
121.9710531743621
 30
0.0
 10
91.17648776986302
 20
122.0694328928982
 30
0.0
 10
91.56064354810857
 20
122.0699009758496
 30
0.0
 10
91.85265280094585
 20
122.2118903897822
 30
0.0
  0
ENDBLK
  5
161
330
15E
100
AcDbEntity
  8
0
100
AcDbBlockEnd
  0
BLOCK
  5
165
330
163
100
AcDbEntity
  8
0
100
AcDbBlockBegin
  2
block 51
 70
     0
 10
0.0
 20
0.0
 30
0.0
  3
block 51
  1

  0
SPLINE
  5
167
330
163
100
AcDbEntity
  8
0
 62
     7
420
 16777215
370
     9
100
AcDbSpline
210
0.0
220
0.0
230
1.0
 70
     8
 71
     3
 72
    35
 73
    31
 74
     0
 42
0.0000000001
 43
0.0000000001
 12
1.0
 22
0.0
 32
0.0
 13
1.0
 23
0.0
 33
0.0
 40
0.0
 40
0.0
 40
0.0
 40
0.0
 40
1.0
 40
1.0
 40
1.0
 40
2.0
 40
2.0
 40
2.0
 40
3.0
 40
3.0
 40
3.0
 40
4.0
 40
4.0
 40
4.0
 40
5.0
 40
5.0
 40
5.0
 40
6.0
 40
6.0
 40
6.0
 40
7.0
 40
7.0
 40
7.0
 40
8.0
 40
8.0
 40
8.0
 40
9.0
 40
9.0
 40
9.0
 40
10.0
 40
10.0
 40
10.0
 40
10.0
 10
69.93868598009371
 20
121.5266690197655
 30
0.0
 10
70.68769830218488
 20
121.4700435001304
 30
0.0
 10
71.43691158209467
 20
121.4148134532045
 30
0.0
 10
72.18651289346072
 20
121.3622779384226
 30
0.0
 10
72.93611420482708
 20
121.3097424236408
 30
0.0
 10
73.68609134137925
 20
121.2598166793927
 30
0.0
 10
74.43685918575882
 20
121.2153816953166
 30
0.0
 10
75.1876270301387
 20
121.1709467112404
 30
0.0
 10
75.93918000721015
 20
121.1319637730293
 30
0.0
 10
76.69233515936394
 20
121.1041065108792
 30
0.0
 10
77.06891273544099
 20
121.0901778798035
 30
0.0
 10
77.44617201075062
 20
121.0790904194935
 30
0.0
 10
77.82297953108609
 20
121.0716288491327
 30
0.0
 10
78.19978705142125
 20
121.0641672787726
 30
0.0
 10
78.57622639037213
 20
121.0603506767871
 30
0.0
 10
78.95226790277944
 20
121.060472528032
 30
0.0
 10
79.32830941518675
 20
121.0605943792769
 30
0.0
 10
79.70395329107909
 20
121.0646528025032
 30
0.0
 10
80.07923539879825
 20
121.0722927037837
 30
0.0
 10
80.45451750651709
 20
121.079932605065
 30
0.0
 10
80.82944060637642
 20
121.0911266574936
 30
0.0
 10
81.20408096759064
 20
121.1051198015191
 30
0.0
 10
81.9533616900194
 20
121.1331060895701
 30
0.0
 10
82.70153593092509
 20
121.1720464625614
 30
0.0
 10
83.44916529081932
 20
121.2163811170942
 30
0.0
 10
84.19679465071293
 20
121.2607157716262
 30
0.0
 10
84.94387537910775
 20
121.3104818372776
 30
0.0
 10
85.69069403654612
 20
121.3628423859424
 30
0.0
 10
86.43751269398416
 20
121.4152029346073
 30
0.0
 10
87.18406095302791
 20
121.47024040728
 30
0.0
 10
87.93046869184607
 20
121.5266690197655
 30
0.0
  0
ENDBLK
  5
166
330
163
100
AcDbEntity
  8
0
100
AcDbBlockEnd
  0
BLOCK
  5
16A
330
168
100
AcDbEntity
  8
0
100
AcDbBlockBegin
  2
block 52
 70
     0
 10
0.0
 20
0.0
 30
0.0
  3
block 52
  1

  0
SPLINE
  5
16C
330
168
100
AcDbEntity
  8
0
 62
     7
420
 16777215
370
     9
100
AcDbSpline
210
0.0
220
0.0
230
1.0
 70
     8
 71
     3
 72
    17
 73
    13
 74
     0
 42
0.0000000001
 43
0.0000000001
 12
1.0
 22
0.0
 32
0.0
 13
1.0
 23
0.0
 33
0.0
 40
0.0
 40
0.0
 40
0.0
 40
0.0
 40
1.0
 40
1.0
 40
1.0
 40
2.0
 40
2.0
 40
2.0
 40
3.0
 40
3.0
 40
3.0
 40
4.0
 40
4.0
 40
4.0
 40
4.0
 10
66.01650187099362
 20
122.2118903897822
 30
0.0
 10
66.31061863059212
 20
122.0688762013008
 30
0.0
 10
66.69743085601579
 20
122.067265813055
 30
0.0
 10
67.01289133745941
 20
121.9677575168887
 30
0.0
 10
67.3283518189027
 20
121.8682492207229
 30
0.0
 10
67.64746338486839
 20
121.7823837655712
 30
0.0
 10
67.9697417083686
 20
121.7112530222052
 30
0.0
 10
68.29202003186849
 20
121.6401222788385
 30
0.0
 10
68.62406319597986
 20
121.6024282151532
 30
0.0
 10
68.9531683555137
 20
121.5710344978592
 30
0.0
 10
69.28227351504722
 20
121.5396407805652
 30
0.0
 10
69.61776827676717
 20
121.5509304784705
 30
0.0
 10
69.93868598009371
 20
121.5266690197655
 30
0.0
  0
ENDBLK
  5
16B
330
168
100
AcDbEntity
  8
0
100
AcDbBlockEnd
  0
BLOCK
  5
16F
330
16D
100
AcDbEntity
  8
0
100
AcDbBlockBegin
  2
block 53
 70
     0
 10
0.0
 20
0.0
 30
0.0
  3
block 53
  1

  0
SPLINE
  5
171
330
16D
100
AcDbEntity
  8
0
 62
     7
420
 16777215
370
     9
100
AcDbSpline
210
0.0
220
0.0
230
1.0
 70
     8
 71
     3
 72
    17
 73
    13
 74
     0
 42
0.0000000001
 43
0.0000000001
 12
1.0
 22
0.0
 32
0.0
 13
1.0
 23
0.0
 33
0.0
 40
0.0
 40
0.0
 40
0.0
 40
0.0
 40
1.0
 40
1.0
 40
1.0
 40
2.0
 40
2.0
 40
2.0
 40
3.0
 40
3.0
 40
3.0
 40
4.0
 40
4.0
 40
4.0
 40
4.0
 10
69.94066056673759
 20
98.90880733976122
 30
0.0
 10
69.62168312381249
 20
98.88640569070164
 30
0.0
 10
69.28787499908027
 20
98.90131992360546
 30
0.0
 10
68.9588627256829
 20
98.87431933895645
 30
0.0
 10
68.62985045228587
 20
98.84731875430745
 30
0.0
 10
68.29658571739704
 20
98.81490744739943
 30
0.0
 10
67.97208471163177
 20
98.74951241087581
 30
0.0
 10
67.64758370586615
 20
98.68411737435218
 30
0.0
 10
67.32816760009582
 20
98.6052014853863
 30
0.0
 10
67.01621070806517
 20
98.51517570995782
 30
0.0
 10
66.70425381603546
 20
98.42514993452933
 30
0.0
 10
66.31909059515519
 20
98.43327705405014
 30
0.0
 10
66.02640016483285
 20
98.30079509351268
 30
0.0
  0
ENDBLK
  5
170
330
16D
100
AcDbEntity
  8
0
100
AcDbBlockEnd
  0
BLOCK
  5
174
330
172
100
AcDbEntity
  8
0
100
AcDbBlockBegin
  2
block 54
 70
     0
 10
0.0
 20
0.0
 30
0.0
  3
block 54
  1

  0
SPLINE
  5
176
330
172
100
AcDbEntity
  8
0
 62
     7
420
 16777215
370
     9
100
AcDbSpline
210
0.0
220
0.0
230
1.0
 70
     8
 71
     3
 72
    35
 73
    31
 74
     0
 42
0.0000000001
 43
0.0000000001
 12
1.0
 22
0.0
 32
0.0
 13
1.0
 23
0.0
 33
0.0
 40
0.0
 40
0.0
 40
0.0
 40
0.0
 40
1.0
 40
1.0
 40
1.0
 40
2.0
 40
2.0
 40
2.0
 40
3.0
 40
3.0
 40
3.0
 40
4.0
 40
4.0
 40
4.0
 40
5.0
 40
5.0
 40
5.0
 40
6.0
 40
6.0
 40
6.0
 40
7.0
 40
7.0
 40
7.0
 40
8.0
 40
8.0
 40
8.0
 40
9.0
 40
9.0
 40
9.0
 40
10.0
 40
10.0
 40
10.0
 40
10.0
 10
87.92849410520219
 20
98.90880733976059
 30
0.0
 10
87.18204605299489
 20
98.96123006692808
 30
0.0
 10
86.43546404149193
 20
99.01234358316465
 30
0.0
 10
85.68862492711972
 20
99.06094438175244
 30
0.0
 10
84.94178581274753
 20
99.10954518034022
 30
0.0
 10
84.19469731561398
 20
99.15570871142256
 30
0.0
 10
83.44708927264868
 20
99.19679461741762
 30
0.0
 10
82.6994812296837
 20
99.23788052341268
 30
0.0
 10
81.9513567088308
 20
99.27391878792756
 30
0.0
 10
81.20219140038147
 20
99.29978522756862
 30
0.0
 10
80.82760874615695
 20
99.31271844738947
 30
0.0
 10
80.45276029853024
 20
99.32305401525015
 30
0.0
 10
80.07757553846474
 20
99.33010273452369
 30
0.0
 10
79.70239077839955
 20
99.3371514537966
 30
0.0
 10
79.32686718879644
 20
99.34088872438373
 30
0.0
 10
78.95097186854375
 20
99.34099299714657
 30
0.0
 10
78.57507654829105
 20
99.34109726990943
 30
0.0
 10
78.19880933466321
 20
99.33756695447457
 30
0.0
 10
77.8221977154084
 20
99.33067069413808
 30
0.0
 10
77.44558609615358
 20
99.32377443380224
 30
0.0
 10
77.06856636521262
 20
99.3135300189603
 30
0.0
 10
76.69218839861648
 20
99.30065224478109
 30
0.0
 10
75.93943246542419
 20
99.27489669642206
 30
0.0
 10
75.18817717189702
 20
99.23882260967179
 30
0.0
 10
74.43766321116422
 20
99.19765104945472
 30
0.0
 10
73.6871492504314
 20
99.15647948923701
 30
0.0
 10
72.93738116662053
 20
99.11017920970866
 30
0.0
 10
72.18796946147451
 20
99.06142843721018
 30
0.0
 10
71.43855775632913
 20
99.0126776647117
 30
0.0
 10
70.68951368991011
 20
98.9613989740329
 30
0.0
 10
69.94066056673631
 20
98.90880733976059
 30
0.0
  0
ENDBLK
  5
175
330
172
100
AcDbEntity
  8
0
100
AcDbBlockEnd
  0
BLOCK
  5
179
330
177
100
AcDbEntity
  8
0
100
AcDbBlockBegin
  2
block 55
 70
     0
 10
0.0
 20
0.0
 30
0.0
  3
block 55
  1

  0
SPLINE
  5
17B
330
177
100
AcDbEntity
  8
0
 62
     7
420
 16777215
370
     9
100
AcDbSpline
210
0.0
220
0.0
230
1.0
 70
     8
 71
     3
 72
    17
 73
    13
 74
     0
 42
0.0000000001
 43
0.0000000001
 12
1.0
 22
0.0
 32
0.0
 13
1.0
 23
0.0
 33
0.0
 40
0.0
 40
0.0
 40
0.0
 40
0.0
 40
1.0
 40
1.0
 40
1.0
 40
2.0
 40
2.0
 40
2.0
 40
3.0
 40
3.0
 40
3.0
 40
4.0
 40
4.0
 40
4.0
 40
4.0
 10
91.84275450710695
 20
98.30079509351268
 30
0.0
 10
91.54774948855523
 20
98.43432471799659
 30
0.0
 10
91.1569164219208
 20
98.42840565698734
 30
0.0
 10
90.84251977514671
 20
98.51897885714631
 30
0.0
 10
90.52812312837261
 20
98.60955205730592
 30
0.0
 10
90.21031652314213
 20
98.68737397095508
 30
0.0
 10
89.88925279980282
 20
98.75159693719702
 30
0.0
 10
89.56818907646351
 20
98.81581990343895
 30
0.0
 10
89.23736590636854
 20
98.84767168364363
 30
0.0
 10
88.9095873550409
 20
98.8744392727219
 30
0.0
 10
88.58180880371326
 20
98.90120686180082
 30
0.0
 10
88.24778888663981
 20
98.88638340417764
 30
0.0
 10
87.92849410520219
 20
98.90880733976122
 30
0.0
  0
ENDBLK
  5
17A
330
177
100
AcDbEntity
  8
0
100
AcDbBlockEnd
  0
BLOCK
  5
17E
330
17C
100
AcDbEntity
  8
0
100
AcDbBlockBegin
  2
block 56
 70
     0
 10
0.0
 20
0.0
 30
0.0
  3
block 56
  1

  0
SPLINE
  5
180
330
17C
100
AcDbEntity
  8
0
 62
     7
420
 16777215
370
     9
100
AcDbSpline
210
0.0
220
0.0
230
1.0
 70
     8
 71
     3
 72
    17
 73
    13
 74
     0
 42
0.0000000001
 43
0.0000000001
 12
1.0
 22
0.0
 32
0.0
 13
1.0
 23
0.0
 33
0.0
 40
0.0
 40
0.0
 40
0.0
 40
0.0
 40
1.0
 40
1.0
 40
1.0
 40
2.0
 40
2.0
 40
2.0
 40
3.0
 40
3.0
 40
3.0
 40
4.0
 40
4.0
 40
4.0
 40
4.0
 10
62.91283364217927
 20
103.2032047520888
 30
0.0
 10
63.39105075568222
 20
103.3005294424709
 30
0.0
 10
63.70716079658033
 20
103.6011034160332
 30
0.0
 10
64.20938956611063
 20
103.7085098825581
 30
0.0
 10
64.71161833564094
 20
103.8159163490837
 30
0.0
 10
65.24046057604045
 20
103.9117718746288
 30
0.0
 10
65.79358603868455
 20
103.9939883747326
 30
0.0
 10
66.34671150132897
 20
104.0762048748357
 30
0.0
 10
66.89669796144766
 20
104.1759338254509
 30
0.0
 10
67.48238177926403
 20
104.2443526091619
 30
0.0
 10
68.06806559708072
 20
104.3127713928724
 30
0.0
 10
68.65744316809531
 20
104.4121829705014
 30
0.0
 10
69.30228362481962
 20
104.401662657932
 30
0.0
  0
ENDBLK
  5
17F
330
17C
100
AcDbEntity
  8
0
100
AcDbBlockEnd
  0
BLOCK
  5
183
330
181
100
AcDbEntity
  8
0
100
AcDbBlockBegin
  2
block 57
 70
     0
 10
0.0
 20
0.0
 30
0.0
  3
block 57
  1

  0
SPLINE
  5
185
330
181
100
AcDbEntity
  8
0
 62
     7
420
 16777215
370
     9
100
AcDbSpline
210
0.0
220
0.0
230
1.0
 70
     8
 71
     3
 72
     8
 73
     4
 74
     0
 42
0.0000000001
 43
0.0000000001
 12
1.0
 22
0.0
 32
0.0
 13
1.0
 23
0.0
 33
0.0
 40
0.0
 40
0.0
 40
0.0
 40
0.0
 40
1.0
 40
1.0
 40
1.0
 40
1.0
 10
69.30228358651628
 20
104.4016624492546
 30
0.0
 10
69.42416040113945
 20
102.5612879558338
 30
0.0
 10
69.63721422358856
 20
100.7280861771676
 30
0.0
 10
69.94066056452277
 20
98.90880717875638
 30
0.0
  0
ENDBLK
  5
184
330
181
100
AcDbEntity
  8
0
100
AcDbBlockEnd
  0
BLOCK
  5
188
330
186
100
AcDbEntity
  8
0
100
AcDbBlockBegin
  2
block 58
 70
     0
 10
0.0
 20
0.0
 30
0.0
  3
block 58
  1

  0
SPLINE
  5
18A
330
186
100
AcDbEntity
  8
0
 62
     7
420
 16777215
370
     9
100
AcDbSpline
210
0.0
220
0.0
230
1.0
 70
     8
 71
     3
 72
     8
 73
     4
 74
     0
 42
0.0000000001
 43
0.0000000001
 12
1.0
 22
0.0
 32
0.0
 13
1.0
 23
0.0
 33
0.0
 40
0.0
 40
0.0
 40
0.0
 40
0.0
 40
1.0
 40
1.0
 40
1.0
 40
1.0
 10
87.92849410741702
 20
98.90880717875572
 30
0.0
 10
88.23194044835124
 20
100.7280861771676
 30
0.0
 10
88.44499427080066
 20
102.5612879558338
 30
0.0
 10
88.56687108542351
 20
104.4016624492546
 30
0.0
  0
ENDBLK
  5
189
330
186
100
AcDbEntity
  8
0
100
AcDbBlockEnd
  0
BLOCK
  5
18D
330
18B
100
AcDbEntity
  8
0
100
AcDbBlockBegin
  2
block 59
 70
     0
 10
0.0
 20
0.0
 30
0.0
  3
block 59
  1

  0
SPLINE
  5
18F
330
18B
100
AcDbEntity
  8
0
 62
     7
420
 16777215
370
     9
100
AcDbSpline
210
0.0
220
0.0
230
1.0
 70
     8
 71
     3
 72
    17
 73
    13
 74
     0
 42
0.0000000001
 43
0.0000000001
 12
1.0
 22
0.0
 32
0.0
 13
1.0
 23
0.0
 33
0.0
 40
0.0
 40
0.0
 40
0.0
 40
0.0
 40
1.0
 40
1.0
 40
1.0
 40
2.0
 40
2.0
 40
2.0
 40
3.0
 40
3.0
 40
3.0
 40
4.0
 40
4.0
 40
4.0
 40
4.0
 10
88.5668710471189
 20
104.4016626579326
 30
0.0
 10
89.21236513924485
 20
104.4121936307754
 30
0.0
 10
89.8020792658919
 20
104.3127139509172
 30
0.0
 10
90.38542838808398
 20
104.2443993203633
 30
0.0
 10
90.96877751027606
 20
104.1760846898094
 30
0.0
 10
91.51429063114126
 20
104.0766645431747
 30
0.0
 10
92.0612785873509
 20
103.9952322100905
 30
0.0
 10
92.60826654356053
 20
103.9137998770063
 30
0.0
 10
93.13454069053266
 20
103.8188135185028
 30
0.0
 10
93.64128318550503
 20
103.7111128261509
 30
0.0
 10
94.14802568047709
 20
103.6034121337996
 30
0.0
 10
94.47452680445952
 20
103.3012574409229
 30
0.0
 10
94.95632102976053
 20
103.2032047520888
 30
0.0
  0
ENDBLK
  5
18E
330
18B
100
AcDbEntity
  8
0
100
AcDbBlockEnd
  0
BLOCK
  5
192
330
190
100
AcDbEntity
  8
0
100
AcDbBlockBegin
  2
block 60
 70
     0
 10
0.0
 20
0.0
 30
0.0
  3
block 60
  1

  0
SPLINE
  5
194
330
190
100
AcDbEntity
  8
0
 62
     7
420
 16777215
370
     9
100
AcDbSpline
210
0.0
220
0.0
230
1.0
 70
     8
 71
     3
 72
    17
 73
    13
 74
     0
 42
0.0000000001
 43
0.0000000001
 12
1.0
 22
0.0
 32
0.0
 13
1.0
 23
0.0
 33
0.0
 40
0.0
 40
0.0
 40
0.0
 40
0.0
 40
1.0
 40
1.0
 40
1.0
 40
2.0
 40
2.0
 40
2.0
 40
3.0
 40
3.0
 40
3.0
 40
4.0
 40
4.0
 40
4.0
 40
4.0
 10
94.96621932359847
 20
117.4474694539233
 30
0.0
 10
94.48986626387868
 20
117.3406918796079
 30
0.0
 10
94.1761121028866
 20
117.0405506593542
 30
0.0
 10
93.6749508781333
 20
116.9262181525667
 30
0.0
 10
93.17378965338001
 20
116.8118856457793
 30
0.0
 10
92.64571729844793
 20
116.7097567605101
 30
0.0
 10
92.0917009731356
 20
116.6221314148083
 30
0.0
 10
91.53768464782293
 20
116.5345060691066
 30
0.0
 10
90.98621599696544
 20
116.4318528619241
 30
0.0
 10
90.39818516752281
 20
116.3610518930365
 30
0.0
 10
89.81015433808018
 20
116.290250924149
 30
0.0
 10
89.21733976796963
 20
116.1918852277302
 30
0.0
 10
88.5680169211885
 20
116.2007528934424
 30
0.0
  0
ENDBLK
  5
193
330
190
100
AcDbEntity
  8
0
100
AcDbBlockEnd
  0
BLOCK
  5
197
330
195
100
AcDbEntity
  8
0
100
AcDbBlockBegin
  2
block 61
 70
     0
 10
0.0
 20
0.0
 30
0.0
  3
block 61
  1

  0
SPLINE
  5
199
330
195
100
AcDbEntity
  8
0
 62
     7
420
 16777215
370
     9
100
AcDbSpline
210
0.0
220
0.0
230
1.0
 70
     8
 71
     3
 72
     8
 73
     4
 74
     0
 42
0.0000000001
 43
0.0000000001
 12
1.0
 22
0.0
 32
0.0
 13
1.0
 23
0.0
 33
0.0
 40
0.0
 40
0.0
 40
0.0
 40
0.0
 40
1.0
 40
1.0
 40
1.0
 40
1.0
 10
88.56801661576927
 20
116.2007528604866
 30
0.0
 10
88.43840128933758
 20
117.985000399594
 30
0.0
 10
88.22565429424334
 20
119.7622354303826
 30
0.0
 10
87.93046859296923
 20
121.5266691180982
 30
0.0
  0
ENDBLK
  5
198
330
195
100
AcDbEntity
  8
0
100
AcDbBlockEnd
  0
BLOCK
  5
19C
330
19A
100
AcDbEntity
  8
0
100
AcDbBlockBegin
  2
block 62
 70
     0
 10
0.0
 20
0.0
 30
0.0
  3
block 62
  1

  0
SPLINE
  5
19E
330
19A
100
AcDbEntity
  8
0
 62
     7
420
 16777215
370
     9
100
AcDbSpline
210
0.0
220
0.0
230
1.0
 70
     8
 71
     3
 72
     8
 73
     4
 74
     0
 42
0.0000000001
 43
0.0000000001
 12
1.0
 22
0.0
 32
0.0
 13
1.0
 23
0.0
 33
0.0
 40
0.0
 40
0.0
 40
0.0
 40
0.0
 40
1.0
 40
1.0
 40
1.0
 40
1.0
 10
69.93868607897087
 20
121.5266691180982
 30
0.0
 10
69.64350037769645
 20
119.7622354303826
 30
0.0
 10
69.43075338260222
 20
117.985000399594
 30
0.0
 10
69.30113805617084
 20
116.2007528604873
 30
0.0
  0
ENDBLK
  5
19D
330
19A
100
AcDbEntity
  8
0
100
AcDbBlockEnd
  0
BLOCK
  5
1A1
330
19F
100
AcDbEntity
  8
0
100
AcDbBlockBegin
  2
block 63
 70
     0
 10
0.0
 20
0.0
 30
0.0
  3
block 63
  1

  0
SPLINE
  5
1A3
330
19F
100
AcDbEntity
  8
0
 62
     7
420
 16777215
370
     9
100
AcDbSpline
210
0.0
220
0.0
230
1.0
 70
     8
 71
     3
 72
    17
 73
    13
 74
     0
 42
0.0000000001
 43
0.0000000001
 12
1.0
 22
0.0
 32
0.0
 13
1.0
 23
0.0
 33
0.0
 40
0.0
 40
0.0
 40
0.0
 40
0.0
 40
1.0
 40
1.0
 40
1.0
 40
2.0
 40
2.0
 40
2.0
 40
3.0
 40
3.0
 40
3.0
 40
4.0
 40
4.0
 40
4.0
 40
4.0
 10
69.3011377507513
 20
116.2007528934404
 30
0.0
 10
68.65258339280435
 20
116.1918957355944
 30
0.0
 10
68.06002329648388
 20
116.2902738710236
 30
0.0
 10
67.47450360757058
 20
116.3609036827747
 30
0.0
 10
66.8889839186576
 20
116.4315334945251
 30
0.0
 10
66.34168825584158
 20
116.5337951454428
 30
0.0
 10
65.79314408573863
 20
116.620582669192
 30
0.0
 10
65.24459991563567
 20
116.7073701929405
 30
0.0
 10
64.71677286375551
 20
116.8088220606526
 30
0.0
 10
64.20904675593549
 20
116.9238884798012
 30
0.0
 10
63.70132064811516
 20
117.0389548989499
 30
0.0
 10
63.38266629931846
 20
117.3399347038848
 30
0.0
 10
62.90293534834132
 20
117.4474694539233
 30
0.0
  0
ENDBLK
  5
1A2
330
19F
100
AcDbEntity
  8
0
100
AcDbBlockEnd
  0
BLOCK
  5
1A6
330
1A4
100
AcDbEntity
  8
0
100
AcDbBlockBegin
  2
block 64
 70
     0
 10
0.0
 20
0.0
 30
0.0
  3
block 64
  1

  0
SPLINE
  5
1A8
330
1A4
100
AcDbEntity
  8
0
 62
     7
420
 16777215
370
     9
100
AcDbSpline
210
0.0
220
0.0
230
1.0
 70
     8
 71
     3
 72
    41
 73
    37
 74
     0
 42
0.0000000001
 43
0.0000000001
 12
1.0
 22
0.0
 32
0.0
 13
1.0
 23
0.0
 33
0.0
 40
0.0
 40
0.0
 40
0.0
 40
0.0
 40
1.0
 40
1.0
 40
1.0
 40
2.0
 40
2.0
 40
2.0
 40
3.0
 40
3.0
 40
3.0
 40
4.0
 40
4.0
 40
4.0
 40
5.0
 40
5.0
 40
5.0
 40
6.0
 40
6.0
 40
6.0
 40
7.0
 40
7.0
 40
7.0
 40
8.0
 40
8.0
 40
8.0
 40
9.0
 40
9.0
 40
9.0
 40
10.0
 40
10.0
 40
10.0
 40
11.0
 40
11.0
 40
11.0
 40
12.0
 40
12.0
 40
12.0
 40
12.0
 10
88.5668710471189
 20
104.4016626579326
 30
0.0
 10
87.7661079335556
 20
104.4349528937276
 30
0.0
 10
86.96520299164496
 20
104.4628134583375
 30
0.0
 10
86.1640420504639
 20
104.482494953042
 30
0.0
 10
85.36288110928318
 20
104.5021764477471
 30
0.0
 10
84.5614639200588
 20
104.5133406025171
 30
0.0
 10
83.75960247053769
 20
104.5148471937108
 30
0.0
 10
83.35867174577696
 20
104.5156004893076
 30
0.0
 10
82.95762860810953
 20
104.5139964983258
 30
0.0
 10
82.55644786493805
 20
104.5106822492731
 30
0.0
 10
82.1552671217669
 20
104.5073680002204
 30
0.0
 10
81.75394833117986
 20
104.5023492994503
 30
0.0
 10
81.3524731817247
 20
104.4970624663595
 30
0.0
 10
80.95099803226955
 20
104.4917756332692
 30
0.0
 10
80.54936655159935
 20
104.4862852018828
 30
0.0
 10
80.14757085578397
 20
104.4822955618433
 30
0.0
 10
79.74577515996891
 20
104.4783059218039
 30
0.0
 10
79.34381568657524
 20
104.4758967995546
 30
0.0
 10
78.94169086625125
 20
104.4758701938666
 30
0.0
 10
78.53956604592759
 20
104.4758435881781
 30
0.0
 10
78.13727588072481
 20
104.4782009505433
 30
0.0
 10
77.73482109773413
 20
104.4821646551456
 30
0.0
 10
77.33236631474345
 20
104.4861283597479
 30
0.0
 10
76.929656561775
 20
104.4916205096006
 30
0.0
 10
76.5272820035946
 20
104.496922824789
 30
0.0
 10
76.12490744541421
 20
104.5022251399774
 30
0.0
 10
75.72276140239799
 20
104.5072723374262
 30
0.0
 10
75.32081698820936
 20
104.5106150257179
 30
0.0
 10
74.91887257402104
 20
104.5139577140102
 30
0.0
 10
74.51712914043581
 20
104.5155898925124
 30
0.0
 10
74.11554975951789
 20
104.5148582912059
 30
0.0
 10
73.31239099768268
 20
104.5133950885935
 30
0.0
 10
72.50988050768727
 20
104.502247054692
 30
0.0
 10
71.70774325201651
 20
104.4825595482178
 30
0.0
 10
70.90560599634608
 20
104.4628720417431
 30
0.0
 10
70.10384165549867
 20
104.4349859409265
 30
0.0
 10
69.30228362481962
 20
104.4016626579326
 30
0.0
  0
ENDBLK
  5
1A7
330
1A4
100
AcDbEntity
  8
0
100
AcDbBlockEnd
  0
BLOCK
  5
1AB
330
1A9
100
AcDbEntity
  8
0
100
AcDbBlockBegin
  2
block 65
 70
     0
 10
0.0
 20
0.0
 30
0.0
  3
block 65
  1

  0
SPLINE
  5
1AD
330
1A9
100
AcDbEntity
  8
0
 62
     7
420
 16777215
370
     9
100
AcDbSpline
210
0.0
220
0.0
230
1.0
 70
     8
 71
     3
 72
    41
 73
    37
 74
     0
 42
0.0000000001
 43
0.0000000001
 12
1.0
 22
0.0
 32
0.0
 13
1.0
 23
0.0
 33
0.0
 40
0.0
 40
0.0
 40
0.0
 40
0.0
 40
1.0
 40
1.0
 40
1.0
 40
2.0
 40
2.0
 40
2.0
 40
3.0
 40
3.0
 40
3.0
 40
4.0
 40
4.0
 40
4.0
 40
5.0
 40
5.0
 40
5.0
 40
6.0
 40
6.0
 40
6.0
 40
7.0
 40
7.0
 40
7.0
 40
8.0
 40
8.0
 40
8.0
 40
9.0
 40
9.0
 40
9.0
 40
10.0
 40
10.0
 40
10.0
 40
11.0
 40
11.0
 40
11.0
 40
12.0
 40
12.0
 40
12.0
 40
12.0
 10
69.3011377507513
 20
116.2007528934404
 30
0.0
 10
70.1026337550492
 20
116.1630073955224
 30
0.0
 10
70.90436019494679
 20
116.1307829512129
 30
0.0
 10
71.70649787329765
 20
116.1069721228869
 30
0.0
 10
72.50863555164818
 20
116.0831612945608
 30
0.0
 10
73.31118596805386
 20
116.0680985549751
 30
0.0
 10
74.11443629720601
 20
116.063240820469
 30
0.0
 10
74.51606146178209
 20
116.0608119532153
 30
0.0
 10
74.91786346518973
 20
116.0608811426252
 30
0.0
 10
75.31987797332849
 20
116.0628477946075
 30
0.0
 10
75.72189248146692
 20
116.0648144465905
 30
0.0
 10
76.12412015622883
 20
116.0686740265238
 30
0.0
 10
76.5265832283736
 20
116.0730182126749
 30
0.0
 10
76.92904630051835
 20
116.077362398826
 30
0.0
 10
77.33184655904594
 20
116.0821259684989
 30
0.0
 10
77.7343843665272
 20
116.0856063494249
 30
0.0
 10
78.13692217400843
 20
116.0890867303502
 30
0.0
 10
78.53929596979295
 20
116.0912043639924
 30
0.0
 10
78.94150713254575
 20
116.0911812424241
 30
0.0
 10
79.34371829529888
 20
116.0911581208559
 30
0.0
 10
79.74576681784643
 20
116.088995668703
 30
0.0
 10
80.14765211058699
 20
116.0854945484189
 30
0.0
 10
80.54953740332722
 20
116.0819934281349
 30
0.0
 10
80.95125878989717
 20
116.0772347708151
 30
0.0
 10
81.35281979392623
 20
116.0729076854339
 30
0.0
 10
81.75438079795498
 20
116.0685806000533
 30
0.0
 10
82.1557812223405
 20
116.064749467087
 30
0.0
 10
82.55703614558661
 20
116.0628100628445
 30
0.0
 10
82.95829106883305
 20
116.0608706586021
 30
0.0
 10
83.3594009405417
 20
116.0608273617947
 30
0.0
 10
83.7603900071805
 20
116.0632752821549
 30
0.0
 10
84.56236814045714
 20
116.0681711228752
 30
0.0
 10
85.363868083129
 20
116.0832436947039
 30
0.0
 10
86.16508550828685
 20
116.1070442430531
 30
0.0
 10
86.9663029334447
 20
116.1308447914016
 30
0.0
 10
87.76723889733286
 20
116.1630412079545
 30
0.0
 10
88.5680169211885
 20
116.2007528934404
 30
0.0
  0
ENDBLK
  5
1AC
330
1A9
100
AcDbEntity
  8
0
100
AcDbBlockEnd
  0
BLOCK
  5
1B0
330
1AE
100
AcDbEntity
  8
0
100
AcDbBlockBegin
  2
block 66
 70
     0
 10
0.0
 20
0.0
 30
0.0
  3
block 66
  1

  0
SPLINE
  5
1B2
330
1AE
100
AcDbEntity
  8
0
 62
     7
420
 16777215
370
     9
100
AcDbSpline
210
0.0
220
0.0
230
1.0
 70
     8
 71
     3
 72
    29
 73
    25
 74
     0
 42
0.0000000001
 43
0.0000000001
 12
1.0
 22
0.0
 32
0.0
 13
1.0
 23
0.0
 33
0.0
 40
0.0
 40
0.0
 40
0.0
 40
0.0
 40
1.0
 40
1.0
 40
1.0
 40
2.0
 40
2.0
 40
2.0
 40
3.0
 40
3.0
 40
3.0
 40
4.0
 40
4.0
 40
4.0
 40
5.0
 40
5.0
 40
5.0
 40
6.0
 40
6.0
 40
6.0
 40
7.0
 40
7.0
 40
7.0
 40
8.0
 40
8.0
 40
8.0
 40
8.0
 10
69.30228362481962
 20
104.4016626579326
 30
0.0
 10
69.32173149850696
 20
104.8923543005709
 30
0.0
 10
69.33696207602935
 20
105.3832906885114
 30
0.0
 10
69.3486247445149
 20
105.8744740230218
 30
0.0
 10
69.36028741300076
 20
106.3656573575321
 30
0.0
 10
69.36840121755141
 20
106.8570872883794
 30
0.0
 10
69.37408308897464
 20
107.3487477359776
 30
0.0
 10
69.37976496039819
 20
107.8404081835758
 30
0.0
 10
69.38305745731908
 20
108.33229795964
 30
0.0
 10
69.385068060115
 20
108.824394621186
 30
0.0
 10
69.38707866291126
 20
109.3164912827313
 30
0.0
 10
69.38784476747641
 20
109.8088241058056
 30
0.0
 10
69.38782791651322
 20
110.3012897049585
 30
0.0
 10
69.38781106555003
 20
110.7937553041109
 30
0.0
 10
69.3870109233408
 20
111.286029461807
 30
0.0
 10
69.3849485786935
 20
111.7781020466112
 30
0.0
 10
69.38288623404618
 20
112.2701746314161
 30
0.0
 10
69.37952383723074
 20
112.7620445237984
 30
0.0
 10
69.37374733996846
 20
113.253690040258
 30
0.0
 10
69.3679708427065
 20
113.7453355567175
 30
0.0
 10
69.3597379513831
 20
114.2367555576315
 30
0.0
 10
69.3479372520205
 20
114.7279349238109
 30
0.0
 10
69.33613655265759
 20
115.2191142899895
 30
0.0
 10
69.32074954662126
 20
115.7100527019297
 30
0.0
 10
69.3011377507513
 20
116.2007528934404
 30
0.0
  0
ENDBLK
  5
1B1
330
1AE
100
AcDbEntity
  8
0
100
AcDbBlockEnd
  0
BLOCK
  5
1B5
330
1B3
100
AcDbEntity
  8
0
100
AcDbBlockBegin
  2
block 67
 70
     0
 10
0.0
 20
0.0
 30
0.0
  3
block 67
  1

  0
SPLINE
  5
1B7
330
1B3
100
AcDbEntity
  8
0
 62
     7
420
 16777215
370
     9
100
AcDbSpline
210
0.0
220
0.0
230
1.0
 70
     8
 71
     3
 72
    29
 73
    25
 74
     0
 42
0.0000000001
 43
0.0000000001
 12
1.0
 22
0.0
 32
0.0
 13
1.0
 23
0.0
 33
0.0
 40
0.0
 40
0.0
 40
0.0
 40
0.0
 40
1.0
 40
1.0
 40
1.0
 40
2.0
 40
2.0
 40
2.0
 40
3.0
 40
3.0
 40
3.0
 40
4.0
 40
4.0
 40
4.0
 40
5.0
 40
5.0
 40
5.0
 40
6.0
 40
6.0
 40
6.0
 40
7.0
 40
7.0
 40
7.0
 40
8.0
 40
8.0
 40
8.0
 40
8.0
 10
88.5680169211885
 20
116.2007528934424
 30
0.0
 10
88.54840495658667
 20
115.7100484801371
 30
0.0
 10
88.53301779541381
 20
115.2191042871535
 30
0.0
 10
88.52121700269876
 20
114.7279175578281
 30
0.0
 10
88.50941620998405
 20
114.2367308285033
 30
0.0
 10
88.50118328780134
 20
113.7453018843459
 30
0.0
 10
88.49540681382439
 20
113.2536459396416
 30
0.0
 10
88.48963033984744
 20
112.761989994938
 30
0.0
 10
88.48626801547148
 20
112.2701081968555
 30
0.0
 10
88.48420575931382
 20
111.778022368132
 30
0.0
 10
88.48214350315617
 20
111.2859365394091
 30
0.0
 10
88.48134345915642
 20
110.7936478070741
 30
0.0
 10
88.48132675122312
 20
110.3011663652048
 30
0.0
 10
88.48131004328984
 20
109.8086849233361
 30
0.0
 10
88.48207625076105
 20
109.3163966632794
 30
0.0
 10
88.48408694363485
 20
108.8243134131586
 30
0.0
 10
88.48609763650863
 20
108.3322301630385
 30
0.0
 10
88.4893902077463
 20
107.8403524644375
 30
0.0
 10
88.4950721043729
 20
107.3487026184415
 30
0.0
 10
88.50075400099885
 20
106.857052772445
 30
0.0
 10
88.50886777648887
 20
106.3656319596084
 30
0.0
 10
88.52053035157962
 20
105.8744561594065
 30
0.0
 10
88.53219292667069
 20
105.3832803592052
 30
0.0
 10
88.54742334706279
 20
104.8923499196986
 30
0.0
 10
88.5668710471189
 20
104.4016626579326
 30
0.0
  0
ENDBLK
  5
1B6
330
1B3
100
AcDbEntity
  8
0
100
AcDbBlockEnd
  0
BLOCK
  5
1BA
330
1B8
100
AcDbEntity
  8
0
100
AcDbBlockBegin
  2
block 68
 70
     0
 10
0.0
 20
0.0
 30
0.0
  3
block 68
  1

  0
SPLINE
  5
1BC
330
1B8
100
AcDbEntity
  8
0
 62
     7
420
 16777215
370
     9
100
AcDbSpline
210
0.0
220
0.0
230
1.0
 70
    11
 71
     3
 72
    20
 73
    16
 74
     0
 42
0.0000000001
 43
0.0000000001
 12
1.0
 22
0.0
 32
0.0
 13
1.0
 23
0.0
 33
0.0
 40
0.0
 40
0.0
 40
0.0
 40
0.0
 40
1.0
 40
1.0
 40
1.0
 40
2.0
 40
2.0
 40
2.0
 40
3.0
 40
3.0
 40
3.0
 40
4.0
 40
4.0
 40
4.0
 40
5.0
 40
5.0
 40
5.0
 40
5.0
 10
82.9140250200323
 20
110.2868124563847
 30
0.0
 10
82.9140250200323
 20
108.0893589215255
 30
0.0
 10
81.1323656046266
 20
106.3079708614786
 30
0.0
 10
78.93457733596925
 20
106.3079708614786
 30
0.0
 10
76.73678906731159
 20
106.3079708614786
 30
0.0
 10
74.95512965190653
 20
108.0893589215255
 30
0.0
 10
74.95512965190653
 20
110.2868124563847
 30
0.0
 10
74.95512965190653
 20
112.4842659912438
 30
0.0
 10
76.73678906731159
 20
114.2656540512907
 30
0.0
 10
78.93457733596925
 20
114.2656540512907
 30
0.0
 10
81.1323656046266
 20
114.2656540512907
 30
0.0
 10
82.9140250200323
 20
112.4842659912438
 30
0.0
 10
82.9140250200323
 20
110.2868124563847
 30
0.0
 10
82.9140250200323
 20
110.2868124563847
 30
0.0
 10
82.9140250200323
 20
110.2868124563847
 30
0.0
 10
82.9140250200323
 20
110.2868124563847
 30
0.0
  0
ENDBLK
  5
1BB
330
1B8
100
AcDbEntity
  8
0
100
AcDbBlockEnd
  0
BLOCK
  5
1BF
330
1BD
100
AcDbEntity
  8
0
100
AcDbBlockBegin
  2
block 69
 70
     0
 10
0.0
 20
0.0
 30
0.0
  3
block 69
  1

  0
SPLINE
  5
1C1
330
1BD
100
AcDbEntity
  8
0
 62
     7
420
 16777215
370
     9
100
AcDbSpline
210
0.0
220
0.0
230
1.0
 70
    11
 71
     3
 72
    20
 73
    16
 74
     0
 42
0.0000000001
 43
0.0000000001
 12
1.0
 22
0.0
 32
0.0
 13
1.0
 23
0.0
 33
0.0
 40
0.0
 40
0.0
 40
0.0
 40
0.0
 40
1.0
 40
1.0
 40
1.0
 40
2.0
 40
2.0
 40
2.0
 40
3.0
 40
3.0
 40
3.0
 40
4.0
 40
4.0
 40
4.0
 40
5.0
 40
5.0
 40
5.0
 40
5.0
 10
82.80990292925078
 20
110.2868124563847
 30
0.0
 10
82.80990292925078
 20
108.1468552060886
 30
0.0
 10
81.07486056176745
 20
106.4120770939614
 30
0.0
 10
78.93457733596925
 20
106.4120770939614
 30
0.0
 10
76.79429411017074
 20
106.4120770939614
 30
0.0
 10
75.05925174268774
 20
108.1468552060886
 30
0.0
 10
75.05925174268774
 20
110.2868124563847
 30
0.0
 10
75.05925174268774
 20
112.4267697066814
 30
0.0
 10
76.79429411017074
 20
114.1615478188079
 30
0.0
 10
78.93457733596925
 20
114.1615478188079
 30
0.0
 10
81.07486056176745
 20
114.1615478188079
 30
0.0
 10
82.80990292925078
 20
112.4267697066814
 30
0.0
 10
82.80990292925078
 20
110.2868124563847
 30
0.0
 10
82.80990292925078
 20
110.2868124563847
 30
0.0
 10
82.80990292925078
 20
110.2868124563847
 30
0.0
 10
82.80990292925078
 20
110.2868124563847
 30
0.0
  0
ENDBLK
  5
1C0
330
1BD
100
AcDbEntity
  8
0
100
AcDbBlockEnd
  0
BLOCK
  5
1C4
330
1C2
100
AcDbEntity
  8
0
100
AcDbBlockBegin
  2
block 70
 70
     0
 10
0.0
 20
0.0
 30
0.0
  3
block 70
  1

  0
SPLINE
  5
1C6
330
1C2
100
AcDbEntity
  8
0
 62
     7
420
 16777215
370
     9
100
AcDbSpline
210
0.0
220
0.0
230
1.0
 70
    11
 71
     3
 72
    20
 73
    16
 74
     0
 42
0.0000000001
 43
0.0000000001
 12
1.0
 22
0.0
 32
0.0
 13
1.0
 23
0.0
 33
0.0
 40
0.0
 40
0.0
 40
0.0
 40
0.0
 40
1.0
 40
1.0
 40
1.0
 40
2.0
 40
2.0
 40
2.0
 40
3.0
 40
3.0
 40
3.0
 40
4.0
 40
4.0
 40
4.0
 40
5.0
 40
5.0
 40
5.0
 40
5.0
 10
81.14060419181217
 20
110.2868124563847
 30
0.0
 10
81.14060419181217
 20
109.0686430275516
 30
0.0
 10
80.15293232616838
 20
108.0811215891173
 30
0.0
 10
78.93457733596925
 20
108.0811215891173
 30
0.0
 10
77.71622234577045
 20
108.0811215891173
 30
0.0
 10
76.72855048012634
 20
109.0686430275516
 30
0.0
 10
76.72855048012634
 20
110.2868124563847
 30
0.0
 10
76.72855048012634
 20
111.5049818852177
 30
0.0
 10
77.71622234577045
 20
112.492503323652
 30
0.0
 10
78.93457733596925
 20
112.492503323652
 30
0.0
 10
80.15293232616838
 20
112.492503323652
 30
0.0
 10
81.14060419181217
 20
111.5049818852177
 30
0.0
 10
81.14060419181217
 20
110.2868124563847
 30
0.0
 10
81.14060419181217
 20
110.2868124563847
 30
0.0
 10
81.14060419181217
 20
110.2868124563847
 30
0.0
 10
81.14060419181217
 20
110.2868124563847
 30
0.0
  0
ENDBLK
  5
1C5
330
1C2
100
AcDbEntity
  8
0
100
AcDbBlockEnd
  0
BLOCK
  5
1C9
330
1C7
100
AcDbEntity
  8
0
100
AcDbBlockBegin
  2
block 71
 70
     0
 10
0.0
 20
0.0
 30
0.0
  3
block 71
  1

  0
SPLINE
  5
1CB
330
1C7
100
AcDbEntity
  8
0
 62
     7
420
 16777215
370
     9
100
AcDbSpline
210
0.0
220
0.0
230
1.0
 70
     8
 71
     3
 72
     8
 73
     4
 74
     0
 42
0.0000000001
 43
0.0000000001
 12
1.0
 22
0.0
 32
0.0
 13
1.0
 23
0.0
 33
0.0
 40
0.0
 40
0.0
 40
0.0
 40
0.0
 40
1.0
 40
1.0
 40
1.0
 40
1.0
 10
50.15423287565221
 20
184.8537723302152
 30
0.0
 10
50.15697217323884
 20
184.6968619784256
 30
0.0
 10
50.28497352530189
 20
184.5710945579833
 30
0.0
 10
50.44193168442617
 20
184.5710945579833
 30
0.0
  0
ENDBLK
  5
1CA
330
1C7
100
AcDbEntity
  8
0
100
AcDbBlockEnd
  0
BLOCK
  5
1CE
330
1CC
100
AcDbEntity
  8
0
100
AcDbBlockBegin
  2
block 72
 70
     0
 10
0.0
 20
0.0
 30
0.0
  3
block 72
  1

  0
POLYLINE
  5
1D0
330
1CC
100
AcDbEntity
  8
0
 62
     7
420
 16777215
370
     9
100
AcDb2dPolyline
 66
     1
 10
0.0
 20
0.0
 30
0.0
  0
VERTEX
  5
1D1
330
1D0
100
AcDbEntity
  8
0
 62
     7
420
 16777215
370
     9
100
AcDbVertex
100
AcDb2dVertex
 10
50.15423289780719
 20
184.8537723225491
 30
0.0
  0
VERTEX
  5
1D2
330
1D0
100
AcDbEntity
  8
0
 62
     7
420
 16777215
370
     9
100
AcDbVertex
100
AcDb2dVertex
 10
49.96848690297053
 20
196.4773255048764
 30
0.0
  0
SEQEND
  5
1D3
330
1D0
100
AcDbEntity
  8
0
 62
     7
420
 16777215
370
     9
  0
ENDBLK
  5
1CF
330
1CC
100
AcDbEntity
  8
0
100
AcDbBlockEnd
  0
BLOCK
  5
1D6
330
1D4
100
AcDbEntity
  8
0
100
AcDbBlockBegin
  2
block 73
 70
     0
 10
0.0
 20
0.0
 30
0.0
  3
block 73
  1

  0
SPLINE
  5
1D8
330
1D4
100
AcDbEntity
  8
0
 62
     7
420
 16777215
370
     9
100
AcDbSpline
210
0.0
220
0.0
230
1.0
 70
     8
 71
     3
 72
    11
 73
     7
 74
     0
 42
0.0000000001
 43
0.0000000001
 12
1.0
 22
0.0
 32
0.0
 13
1.0
 23
0.0
 33
0.0
 40
0.0
 40
0.0
 40
0.0
 40
0.0
 40
1.0
 40
1.0
 40
1.0
 40
2.0
 40
2.0
 40
2.0
 40
2.0
 10
50.54388319418845
 20
197.0627655227247
 30
0.0
 10
50.22605145761496
 20
197.0627655227243
 30
0.0
 10
49.96839792744682
 20
196.8051512344372
 30
0.0
 10
49.96839792744682
 20
196.4873679051765
 30
0.0
 10
49.96839792744682
 20
196.4840203562873
 30
0.0
 10
49.968427144957
 20
196.4806728711329
 30
0.0
 10
49.96848557664023
 20
196.4773258320922
 30
0.0
  0
ENDBLK
  5
1D7
330
1D4
100
AcDbEntity
  8
0
100
AcDbBlockEnd
  0
BLOCK
  5
1DB
330
1D9
100
AcDbEntity
  8
0
100
AcDbBlockBegin
  2
block 74
 70
     0
 10
0.0
 20
0.0
 30
0.0
  3
block 74
  1

  0
SPLINE
  5
1DD
330
1D9
100
AcDbEntity
  8
0
 62
     7
420
 16777215
370
     9
100
AcDbSpline
210
0.0
220
0.0
230
1.0
 70
     8
 71
     3
 72
    11
 73
     7
 74
     0
 42
0.0000000001
 43
0.0000000001
 12
1.0
 22
0.0
 32
0.0
 13
1.0
 23
0.0
 33
0.0
 40
0.0
 40
0.0
 40
0.0
 40
0.0
 40
1.0
 40
1.0
 40
1.0
 40
2.0
 40
2.0
 40
2.0
 40
2.0
 10
107.9006690952964
 20
196.4773258320922
 30
0.0
 10
107.9062160239422
 20
196.7950607614125
 30
0.0
 10
107.6530984097833
 20
197.0571318030591
 30
0.0
 10
107.3353150805225
 20
197.0626778868805
 30
0.0
 10
107.3319675316333
 20
197.0627363096643
 30
0.0
 10
107.3286195365631
 20
197.0627655227247
 30
0.0
 10
107.3252714777485
 20
197.0627655227247
 30
0.0
  0
ENDBLK
  5
1DC
330
1D9
100
AcDbEntity
  8
0
100
AcDbBlockEnd
  0
BLOCK
  5
1E0
330
1DE
100
AcDbEntity
  8
0
100
AcDbBlockBegin
  2
block 75
 70
     0
 10
0.0
 20
0.0
 30
0.0
  3
block 75
  1

  0
POLYLINE
  5
1E2
330
1DE
100
AcDbEntity
  8
0
 62
     7
420
 16777215
370
     9
100
AcDb2dPolyline
 66
     1
 10
0.0
 20
0.0
 30
0.0
  0
VERTEX
  5
1E3
330
1E2
100
AcDbEntity
  8
0
 62
     7
420
 16777215
370
     9
100
AcDbVertex
100
AcDb2dVertex
 10
107.7149217741326
 20
184.8537723225491
 30
0.0
  0
VERTEX
  5
1E4
330
1E2
100
AcDbEntity
  8
0
 62
     7
420
 16777215
370
     9
100
AcDbVertex
100
AcDb2dVertex
 10
107.9006677689693
 20
196.4773255048764
 30
0.0
  0
SEQEND
  5
1E5
330
1E2
100
AcDbEntity
  8
0
 62
     7
420
 16777215
370
     9
  0
ENDBLK
  5
1E1
330
1DE
100
AcDbEntity
  8
0
100
AcDbBlockEnd
  0
BLOCK
  5
1E8
330
1E6
100
AcDbEntity
  8
0
100
AcDbBlockBegin
  2
block 76
 70
     0
 10
0.0
 20
0.0
 30
0.0
  3
block 76
  1

  0
SPLINE
  5
1EA
330
1E6
100
AcDbEntity
  8
0
 62
     7
420
 16777215
370
     9
100
AcDbSpline
210
0.0
220
0.0
230
1.0
 70
     8
 71
     3
 72
     8
 73
     4
 74
     0
 42
0.0000000001
 43
0.0000000001
 12
1.0
 22
0.0
 32
0.0
 13
1.0
 23
0.0
 33
0.0
 40
0.0
 40
0.0
 40
0.0
 40
0.0
 40
1.0
 40
1.0
 40
1.0
 40
1.0
 10
107.427222987514
 20
184.5710945579833
 30
0.0
 10
107.5841811466382
 20
184.5710945579833
 30
0.0
 10
107.712182498701
 20
184.6968619784262
 30
0.0
 10
107.7149217962879
 20
184.8537723302152
 30
0.0
  0
ENDBLK
  5
1E9
330
1E6
100
AcDbEntity
  8
0
100
AcDbBlockEnd
  0
BLOCK
  5
1ED
330
1EB
100
AcDbEntity
  8
0
100
AcDbBlockBegin
  2
block 77
 70
     0
 10
0.0
 20
0.0
 30
0.0
  3
block 77
  1

  0
POLYLINE
  5
1EF
330
1EB
100
AcDbEntity
  8
0
 62
     7
420
 16777215
370
     9
100
AcDb2dPolyline
 66
     1
 10
0.0
 20
0.0
 30
0.0
  0
VERTEX
  5
1F0
330
1EF
100
AcDbEntity
  8
0
 62
     7
420
 16777215
370
     9
100
AcDbVertex
100
AcDb2dVertex
 10
50.54388319418845
 20
197.0627655227247
 30
0.0
  0
VERTEX
  5
1F1
330
1EF
100
AcDbEntity
  8
0
 62
     7
420
 16777215
370
     9
100
AcDbVertex
100
AcDb2dVertex
 10
107.3252714777485
 20
197.0627655227247
 30
0.0
  0
SEQEND
  5
1F2
330
1EF
100
AcDbEntity
  8
0
 62
     7
420
 16777215
370
     9
  0
ENDBLK
  5
1EE
330
1EB
100
AcDbEntity
  8
0
100
AcDbBlockEnd
  0
BLOCK
  5
1F5
330
1F3
100
AcDbEntity
  8
0
100
AcDbBlockBegin
  2
block 78
 70
     0
 10
0.0
 20
0.0
 30
0.0
  3
block 78
  1

  0
POLYLINE
  5
1F7
330
1F3
100
AcDbEntity
  8
0
 62
     7
420
 16777215
370
     9
100
AcDb2dPolyline
 66
     1
 10
0.0
 20
0.0
 30
0.0
  0
VERTEX
  5
1F8
330
1F7
100
AcDbEntity
  8
0
 62
     7
420
 16777215
370
     9
100
AcDbVertex
100
AcDb2dVertex
 10
107.4272229875133
 20
184.5710945579836
 30
0.0
  0
VERTEX
  5
1F9
330
1F7
100
AcDbEntity
  8
0
 62
     7
420
 16777215
370
     9
100
AcDbVertex
100
AcDb2dVertex
 10
50.44193168442617
 20
184.5710945579836
 30
0.0
  0
SEQEND
  5
1FA
330
1F7
100
AcDbEntity
  8
0
 62
     7
420
 16777215
370
     9
  0
ENDBLK
  5
1F6
330
1F3
100
AcDbEntity
  8
0
100
AcDbBlockEnd
  0
BLOCK
  5
1FE
330
1FC
100
AcDbEntity
  8
0
100
AcDbBlockBegin
  2
block 79
 70
     0
 10
0.0
 20
0.0
 30
0.0
  3
block 79
  1

  0
SPLINE
  5
200
330
1FC
100
AcDbEntity
  8
PIEZA
 62
     7
420
 16777215
370
     9
100
AcDbSpline
210
0.0
220
0.0
230
1.0
 70
     8
 71
     3
 72
    11
 73
     7
 74
     0
 42
0.0000000001
 43
0.0000000001
 12
1.0
 22
0.0
 32
0.0
 13
1.0
 23
0.0
 33
0.0
 40
0.0
 40
0.0
 40
0.0
 40
0.0
 40
1.0
 40
1.0
 40
1.0
 40
2.0
 40
2.0
 40
2.0
 40
2.0
 10
145.3747694476476
 20
189.2997937678991
 30
0.0
 10
145.445353019443
 20
189.2233967424532
 30
0.0
 10
145.5159365912436
 20
189.1469997170071
 30
0.0
 10
145.5968888237267
 20
189.0687534364613
 30
0.0
 10
145.6088642979254
 20
189.0571782607672
 30
0.0
 10
145.6210666804556
 20
189.0455626158747
 30
0.0
 10
145.6332690629852
 20
189.0339469709815
 30
0.0
  0
ENDBLK
  5
1FF
330
1FC
100
AcDbEntity
  8
0
100
AcDbBlockEnd
  0
BLOCK
  5
203
330
201
100
AcDbEntity
  8
0
100
AcDbBlockBegin
  2
block 80
 70
     0
 10
0.0
 20
0.0
 30
0.0
  3
block 80
  1

  0
POLYLINE
  5
205
330
201
100
AcDbEntity
  8
PIEZA
 62
     7
420
 16777215
370
     9
100
AcDb2dPolyline
 66
     1
 10
0.0
 20
0.0
 30
0.0
  0
VERTEX
  5
206
330
205
100
AcDbEntity
  8
PIEZA
 62
     7
420
 16777215
370
     9
100
AcDbVertex
100
AcDb2dVertex
 10
150.2208982884691
 20
186.7059686019515
 30
0.0
  0
VERTEX
  5
207
330
205
100
AcDbEntity
  8
PIEZA
 62
     7
420
 16777215
370
     9
100
AcDbVertex
100
AcDb2dVertex
 10
150.7845485455211
 20
186.6188331473118
 30
0.0
  0
SEQEND
  5
208
330
205
100
AcDbEntity
  8
PIEZA
 62
     7
420
 16777215
370
     9
  0
ENDBLK
  5
204
330
201
100
AcDbEntity
  8
0
100
AcDbBlockEnd
  0
BLOCK
  5
20B
330
209
100
AcDbEntity
  8
0
100
AcDbBlockBegin
  2
block 81
 70
     0
 10
0.0
 20
0.0
 30
0.0
  3
block 81
  1

  0
POLYLINE
  5
20D
330
209
100
AcDbEntity
  8
PIEZA
 62
     7
420
 16777215
370
     9
100
AcDb2dPolyline
 66
     1
 10
0.0
 20
0.0
 30
0.0
  0
VERTEX
  5
20E
330
20D
100
AcDbEntity
  8
PIEZA
 62
     7
420
 16777215
370
     9
100
AcDbVertex
100
AcDb2dVertex
 10
153.4217822200521
 20
185.5548131717631
 30
0.0
  0
VERTEX
  5
20F
330
20D
100
AcDbEntity
  8
PIEZA
 62
     7
420
 16777215
370
     9
100
AcDbVertex
100
AcDb2dVertex
 10
152.5727538753491
 20
186.2671240782109
 30
0.0
  0
SEQEND
  5
210
330
20D
100
AcDbEntity
  8
PIEZA
 62
     7
420
 16777215
370
     9
  0
ENDBLK
  5
20C
330
209
100
AcDbEntity
  8
0
100
AcDbBlockEnd
  0
BLOCK
  5
213
330
211
100
AcDbEntity
  8
0
100
AcDbBlockBegin
  2
block 82
 70
     0
 10
0.0
 20
0.0
 30
0.0
  3
block 82
  1

  0
SPLINE
  5
215
330
211
100
AcDbEntity
  8
PIEZA
 62
     7
420
 16777215
370
     9
100
AcDbSpline
210
0.0
220
0.0
230
1.0
 70
     8
 71
     3
 72
     8
 73
     4
 74
     0
 42
0.0000000001
 43
0.0000000001
 12
1.0
 22
0.0
 32
0.0
 13
1.0
 23
0.0
 33
0.0
 40
0.0
 40
0.0
 40
0.0
 40
0.0
 40
1.0
 40
1.0
 40
1.0
 40
1.0
 10
152.5727535723523
 20
186.2671240984309
 30
0.0
 10
152.4249096734386
 20
186.3911609651878
 30
0.0
 10
152.2431398179931
 20
186.4678181991109
 30
0.0
 10
152.0511107217787
 20
186.487114910013
 30
0.0
  0
ENDBLK
  5
214
330
211
100
AcDbEntity
  8
0
100
AcDbBlockEnd
  0
BLOCK
  5
218
330
216
100
AcDbEntity
  8
0
100
AcDbBlockBegin
  2
block 83
 70
     0
 10
0.0
 20
0.0
 30
0.0
  3
block 83
  1

  0
POLYLINE
  5
21A
330
216
100
AcDbEntity
  8
PIEZA
 62
     7
420
 16777215
370
     9
100
AcDb2dPolyline
 66
     1
 10
0.0
 20
0.0
 30
0.0
  0
VERTEX
  5
21B
330
21A
100
AcDbEntity
  8
PIEZA
 62
     7
420
 16777215
370
     9
100
AcDbVertex
100
AcDb2dVertex
 10
152.05111045022
 20
186.4871149184696
 30
0.0
  0
VERTEX
  5
21C
330
21A
100
AcDbEntity
  8
PIEZA
 62
     7
420
 16777215
370
     9
100
AcDbVertex
100
AcDb2dVertex
 10
150.7816700901239
 20
186.6146789946725
 30
0.0
  0
SEQEND
  5
21D
330
21A
100
AcDbEntity
  8
PIEZA
 62
     7
420
 16777215
370
     9
  0
ENDBLK
  5
219
330
216
100
AcDbEntity
  8
0
100
AcDbBlockEnd
  0
BLOCK
  5
220
330
21E
100
AcDbEntity
  8
0
100
AcDbBlockBegin
  2
block 84
 70
     0
 10
0.0
 20
0.0
 30
0.0
  3
block 84
  1

  0
SPLINE
  5
222
330
21E
100
AcDbEntity
  8
PIEZA
 62
     7
420
 16777215
370
     9
100
AcDbSpline
210
0.0
220
0.0
230
1.0
 70
     8
 71
     3
 72
    29
 73
    25
 74
     0
 42
0.0000000001
 43
0.0000000001
 12
1.0
 22
0.0
 32
0.0
 13
1.0
 23
0.0
 33
0.0
 40
0.0
 40
0.0
 40
0.0
 40
0.0
 40
1.0
 40
1.0
 40
1.0
 40
2.0
 40
2.0
 40
2.0
 40
3.0
 40
3.0
 40
3.0
 40
4.0
 40
4.0
 40
4.0
 40
5.0
 40
5.0
 40
5.0
 40
6.0
 40
6.0
 40
6.0
 40
7.0
 40
7.0
 40
7.0
 40
8.0
 40
8.0
 40
8.0
 40
8.0
 10
145.0994759021189
 20
189.6092453626486
 30
0.0
 10
145.2775406569326
 20
189.3982133293418
 30
0.0
 10
145.4649858280102
 20
189.1967509964052
 30
0.0
 10
145.6616860270668
 20
189.0047304453844
 30
0.0
 10
145.7600361265951
 20
188.9087201698736
 30
0.0
 10
145.8607040905254
 20
188.815074530133
 30
0.0
 10
145.9636986634451
 20
188.7238024471994
 30
0.0
 10
146.0666932363649
 20
188.6325303642655
 30
0.0
 10
146.1721104881552
 20
188.5435549286682
 30
0.0
 10
146.2796745046398
 20
188.4571428397394
 30
0.0
 10
146.7099305705765
 20
188.1114944840252
 30
0.0
 10
147.1664700951299
 20
187.8126095201283
 30
0.0
 10
147.6482653843121
 20
187.5586594802907
 30
0.0
 10
147.8891630289035
 20
187.4316844603715
 30
0.0
 10
148.1364193887192
 20
187.3160228332503
 30
0.0
 10
148.3901728562023
 20
187.2119208260454
 30
0.0
 10
148.5170495899441
 20
187.1598698224428
 30
0.0
 10
148.6456314194978
 20
187.1106860831172
 30
0.0
 10
148.775713743224
 20
187.0645170490549
 30
0.0
 10
148.9057960669507
 20
187.0183480149926
 30
0.0
 10
149.0366180626726
 20
186.9754594920891
 30
0.0
 10
149.1681695635763
 20
186.9358063896406
 30
0.0
 10
149.6943755671905
 20
186.7771939798471
 30
0.0
 10
150.2321524089279
 20
186.6698992675284
 30
0.0
 10
150.7816707194016
 20
186.6146790146803
 30
0.0
  0
ENDBLK
  5
221
330
21E
100
AcDbEntity
  8
0
100
AcDbBlockEnd
  0
BLOCK
  5
225
330
223
100
AcDbEntity
  8
0
100
AcDbBlockBegin
  2
block 85
 70
     0
 10
0.0
 20
0.0
 30
0.0
  3
block 85
  1

  0
POLYLINE
  5
227
330
223
100
AcDbEntity
  8
PIEZA
370
     0
100
AcDb2dPolyline
 66
     1
 10
0.0
 20
0.0
 30
0.0
  0
VERTEX
  5
228
330
227
100
AcDbEntity
  8
PIEZA
370
     0
100
AcDbVertex
100
AcDb2dVertex
 10
135.1287098361995
 20
197.085586112253
 30
0.0
  0
VERTEX
  5
229
330
227
100
AcDbEntity
  8
PIEZA
370
     0
100
AcDbVertex
100
AcDb2dVertex
 10
135.1287098361995
 20
196.0285985748097
 30
0.0
  0
VERTEX
  5
22A
330
227
100
AcDbEntity
  8
PIEZA
370
     0
100
AcDbVertex
100
AcDb2dVertex
 10
138.492364692222
 20
196.0285985748097
 30
0.0
  0
VERTEX
  5
22B
330
227
100
AcDbEntity
  8
PIEZA
370
     0
100
AcDbVertex
100
AcDb2dVertex
 10
138.492364692222
 20
197.085586112253
 30
0.0
  0
VERTEX
  5
22C
330
227
100
AcDbEntity
  8
PIEZA
370
     0
100
AcDbVertex
100
AcDb2dVertex
 10
135.1287098361995
 20
197.085586112253
 30
0.0
  0
SEQEND
  5
22D
330
227
100
AcDbEntity
  8
PIEZA
370
     0
  0
POLYLINE
  5
22E
330
223
100
AcDbEntity
  8
PIEZA
370
     0
100
AcDb2dPolyline
 66
     1
 10
0.0
 20
0.0
 30
0.0
  0
VERTEX
  5
22F
330
22E
100
AcDbEntity
  8
PIEZA
370
     0
100
AcDbVertex
100
AcDb2dVertex
 10
141.9447053318579
 20
194.9872761840971
 30
0.0
  0
VERTEX
  5
230
330
22E
100
AcDbEntity
  8
PIEZA
370
     0
100
AcDbVertex
100
AcDb2dVertex
 10
141.6724429401469
 20
195.3099450468491
 30
0.0
  0
VERTEX
  5
231
330
22E
100
AcDbEntity
  8
PIEZA
370
     0
100
AcDbVertex
100
AcDb2dVertex
 10
140.8644349328569
 20
194.628371257508
 30
0.0
  0
VERTEX
  5
232
330
22E
100
AcDbEntity
  8
PIEZA
370
     0
100
AcDbVertex
100
AcDb2dVertex
 10
140.9657505276579
 20
194.5082968363614
 30
0.0
  0
VERTEX
  5
233
330
22E
100
AcDbEntity
  8
PIEZA
370
     0
100
AcDbVertex
100
AcDb2dVertex
 10
141.0419651526512
 20
194.4179722059869
 30
0.0
  0
VERTEX
  5
234
330
22E
100
AcDbEntity
  8
PIEZA
370
     0
100
AcDbVertex
100
AcDb2dVertex
 10
141.1366971246659
 20
194.305701622143
 30
0.0
  0
VERTEX
  5
235
330
22E
100
AcDbEntity
  8
PIEZA
370
     0
100
AcDbVertex
100
AcDb2dVertex
 10
141.247613605969
 20
194.1742492698085
 30
0.0
  0
VERTEX
  5
236
330
22E
100
AcDbEntity
  8
PIEZA
370
     0
100
AcDbVertex
100
AcDb2dVertex
 10
141.3719836441027
 20
194.0268532760643
 30
0.0
  0
VERTEX
  5
237
330
22E
100
AcDbEntity
  8
PIEZA
370
     0
100
AcDbVertex
100
AcDb2dVertex
 10
141.5067454790467
 20
193.8671412309879
 30
0.0
  0
VERTEX
  5
238
330
22E
100
AcDbEntity
  8
PIEZA
370
     0
100
AcDbVertex
100
AcDb2dVertex
 10
141.6485802946908
 20
193.699046424472
 30
0.0
  0
VERTEX
  5
239
330
22E
100
AcDbEntity
  8
PIEZA
370
     0
100
AcDbVertex
100
AcDb2dVertex
 10
141.7939959947733
 20
193.5267090486249
 30
0.0
  0
VERTEX
  5
23A
330
22E
100
AcDbEntity
  8
PIEZA
370
     0
100
AcDbVertex
100
AcDb2dVertex
 10
141.9394109788211
 20
193.3543709568538
 30
0.0
  0
VERTEX
  5
23B
330
22E
100
AcDbEntity
  8
PIEZA
370
     0
100
AcDbVertex
100
AcDb2dVertex
 10
142.0812457944652
 20
193.1862768662622
 30
0.0
  0
VERTEX
  5
23C
330
22E
100
AcDbEntity
  8
PIEZA
370
     0
100
AcDbVertex
100
AcDb2dVertex
 10
142.2160076294098
 20
193.0265648211859
 30
0.0
  0
VERTEX
  5
23D
330
22E
100
AcDbEntity
  8
PIEZA
370
     0
100
AcDbVertex
100
AcDb2dVertex
 10
142.340378383577
 20
192.879168111517
 30
0.0
  0
VERTEX
  5
23E
330
22E
100
AcDbEntity
  8
PIEZA
370
     0
100
AcDbVertex
100
AcDb2dVertex
 10
142.4512948648801
 20
192.7477157591825
 30
0.0
  0
VERTEX
  5
23F
330
22E
100
AcDbEntity
  8
PIEZA
370
     0
100
AcDbVertex
100
AcDb2dVertex
 10
142.5460268368948
 20
192.6354451753386
 30
0.0
  0
VERTEX
  5
240
330
22E
100
AcDbEntity
  8
PIEZA
370
     0
100
AcDbVertex
100
AcDb2dVertex
 10
142.7235579190164
 20
192.4250468512109
 30
0.0
  0
VERTEX
  5
241
330
22E
100
AcDbEntity
  8
PIEZA
370
     0
100
AcDbVertex
100
AcDb2dVertex
 10
143.5315649775935
 20
193.1066204442807
 30
0.0
  0
VERTEX
  5
242
330
22E
100
AcDbEntity
  8
PIEZA
370
     0
100
AcDbVertex
100
AcDb2dVertex
 10
143.2593037881062
 20
193.4292903211372
 30
0.0
  0
VERTEX
  5
243
330
22E
100
AcDbEntity
  8
PIEZA
370
     0
100
AcDbVertex
100
AcDb2dVertex
 10
143.1483873068031
 20
193.5607426734714
 30
0.0
  0
VERTEX
  5
244
330
22E
100
AcDbEntity
  8
PIEZA
370
     0
100
AcDbVertex
100
AcDb2dVertex
 10
143.0240165526353
 20
193.70813938314
 30
0.0
  0
VERTEX
  5
245
330
22E
100
AcDbEntity
  8
PIEZA
370
     0
100
AcDbVertex
100
AcDb2dVertex
 10
142.8892547176914
 20
193.8678507122916
 30
0.0
  0
VERTEX
  5
246
330
22E
100
AcDbEntity
  8
PIEZA
370
     0
100
AcDbVertex
100
AcDb2dVertex
 10
142.7474199020473
 20
194.0359455188079
 30
0.0
  0
VERTEX
  5
247
330
22E
100
AcDbEntity
  8
PIEZA
370
     0
100
AcDbVertex
100
AcDb2dVertex
 10
142.6020049179988
 20
194.2082828946547
 30
0.0
  0
VERTEX
  5
248
330
22E
100
AcDbEntity
  8
PIEZA
370
     0
100
AcDbVertex
100
AcDb2dVertex
 10
142.4565892179169
 20
194.3806209864261
 30
0.0
  0
VERTEX
  5
249
330
22E
100
AcDbEntity
  8
PIEZA
370
     0
100
AcDbVertex
100
AcDb2dVertex
 10
142.3147544022728
 20
194.5487157929424
 30
0.0
  0
VERTEX
  5
24A
330
22E
100
AcDbEntity
  8
PIEZA
370
     0
100
AcDbVertex
100
AcDb2dVertex
 10
142.1799925673288
 20
194.708427122094
 30
0.0
  0
VERTEX
  5
24B
330
22E
100
AcDbEntity
  8
PIEZA
370
     0
100
AcDbVertex
100
AcDb2dVertex
 10
142.0556218131617
 20
194.8558238317626
 30
0.0
  0
VERTEX
  5
24C
330
22E
100
AcDbEntity
  8
PIEZA
370
     0
100
AcDbVertex
100
AcDb2dVertex
 10
141.9447053318579
 20
194.9872761840971
 30
0.0
  0
SEQEND
  5
24D
330
22E
100
AcDbEntity
  8
PIEZA
370
     0
  0
HATCH
  5
24E
330
223
100
AcDbEntity
  8
PIEZA
 62
     7
420
 16777215
100
AcDbHatch
 10
0.0
 20
0.0
 30
0.0
210
0.0
220
0.0
230
1.0
  2
SOLID
 70
     1
 71
     0
 91
        2
 92
        1
 93
        4
 72
     1
 10
135.1287098361995
 20
197.085586112253
 11
135.1287098361995
 21
196.0285985748097
 72
     1
 10
135.1287098361995
 20
196.0285985748097
 11
138.492364692222
 21
196.0285985748097
 72
     1
 10
138.492364692222
 20
196.0285985748097
 11
138.492364692222
 21
197.085586112253
 72
     1
 10
138.492364692222
 20
197.085586112253
 11
135.1287098361995
 21
197.085586112253
 97
        0
 92
        1
 93
       29
 72
     1
 10
141.9447053318579
 20
194.9872761840971
 11
141.6724429401469
 21
195.3099450468491
 72
     1
 10
141.6724429401469
 20
195.3099450468491
 11
140.8644349328569
 21
194.628371257508
 72
     1
 10
140.8644349328569
 20
194.628371257508
 11
140.9657505276579
 21
194.5082968363614
 72
     1
 10
140.9657505276579
 20
194.5082968363614
 11
141.0419651526512
 21
194.4179722059869
 72
     1
 10
141.0419651526512
 20
194.4179722059869
 11
141.1366971246659
 21
194.305701622143
 72
     1
 10
141.1366971246659
 20
194.305701622143
 11
141.247613605969
 21
194.1742492698085
 72
     1
 10
141.247613605969
 20
194.1742492698085
 11
141.3719836441027
 21
194.0268532760643
 72
     1
 10
141.3719836441027
 20
194.0268532760643
 11
141.5067454790467
 21
193.8671412309879
 72
     1
 10
141.5067454790467
 20
193.8671412309879
 11
141.6485802946908
 21
193.699046424472
 72
     1
 10
141.6485802946908
 20
193.699046424472
 11
141.7939959947733
 21
193.5267090486249
 72
     1
 10
141.7939959947733
 20
193.5267090486249
 11
141.9394109788211
 21
193.3543709568538
 72
     1
 10
141.9394109788211
 20
193.3543709568538
 11
142.0812457944652
 21
193.1862768662622
 72
     1
 10
142.0812457944652
 20
193.1862768662622
 11
142.2160076294098
 21
193.0265648211859
 72
     1
 10
142.2160076294098
 20
193.0265648211859
 11
142.340378383577
 21
192.879168111517
 72
     1
 10
142.340378383577
 20
192.879168111517
 11
142.4512948648801
 21
192.7477157591825
 72
     1
 10
142.4512948648801
 20
192.7477157591825
 11
142.5460268368948
 21
192.6354451753386
 72
     1
 10
142.5460268368948
 20
192.6354451753386
 11
142.7235579190164
 21
192.4250468512109
 72
     1
 10
142.7235579190164
 20
192.4250468512109
 11
143.5315649775935
 21
193.1066204442807
 72
     1
 10
143.5315649775935
 20
193.1066204442807
 11
143.2593037881062
 21
193.4292903211372
 72
     1
 10
143.2593037881062
 20
193.4292903211372
 11
143.1483873068031
 21
193.5607426734714
 72
     1
 10
143.1483873068031
 20
193.5607426734714
 11
143.0240165526353
 21
193.70813938314
 72
     1
 10
143.0240165526353
 20
193.70813938314
 11
142.8892547176914
 21
193.8678507122916
 72
     1
 10
142.8892547176914
 20
193.8678507122916
 11
142.7474199020473
 21
194.0359455188079
 72
     1
 10
142.7474199020473
 20
194.0359455188079
 11
142.6020049179988
 21
194.2082828946547
 72
     1
 10
142.6020049179988
 20
194.2082828946547
 11
142.4565892179169
 21
194.3806209864261
 72
     1
 10
142.4565892179169
 20
194.3806209864261
 11
142.3147544022728
 21
194.5487157929424
 72
     1
 10
142.3147544022728
 20
194.5487157929424
 11
142.1799925673288
 21
194.708427122094
 72
     1
 10
142.1799925673288
 20
194.708427122094
 11
142.0556218131617
 21
194.8558238317626
 72
     1
 10
142.0556218131617
 20
194.8558238317626
 11
141.9447053318579
 21
194.9872761840971
 97
        0
 75
     0
 76
     1
 98
        0
  0
ENDBLK
  5
226
330
223
100
AcDbEntity
  8
0
100
AcDbBlockEnd
  0
BLOCK
  5
251
330
24F
100
AcDbEntity
  8
0
100
AcDbBlockBegin
  2
block 86
 70
     0
 10
0.0
 20
0.0
 30
0.0
  3
block 86
  1

  0
POLYLINE
  5
253
330
24F
100
AcDbEntity
  8
PIEZA
 62
     7
420
 16777215
370
     9
100
AcDb2dPolyline
 66
     1
 10
0.0
 20
0.0
 30
0.0
  0
VERTEX
  5
254
330
253
100
AcDbEntity
  8
PIEZA
 62
     7
420
 16777215
370
     9
100
AcDbVertex
100
AcDb2dVertex
 10
143.5315655707903
 20
193.1066209446571
 30
0.0
  0
VERTEX
  5
255
330
253
100
AcDbEntity
  8
PIEZA
 62
     7
420
 16777215
370
     9
100
AcDbVertex
100
AcDb2dVertex
 10
142.7235573635983
 20
192.4250463827026
 30
0.0
  0
SEQEND
  5
256
330
253
100
AcDbEntity
  8
PIEZA
 62
     7
420
 16777215
370
     9
  0
ENDBLK
  5
252
330
24F
100
AcDbEntity
  8
0
100
AcDbBlockEnd
  0
BLOCK
  5
259
330
257
100
AcDbEntity
  8
0
100
AcDbBlockBegin
  2
block 87
 70
     0
 10
0.0
 20
0.0
 30
0.0
  3
block 87
  1

  0
POLYLINE
  5
25B
330
257
100
AcDbEntity
  8
PIEZA
 62
     7
420
 16777215
370
     9
100
AcDb2dPolyline
 66
     1
 10
0.0
 20
0.0
 30
0.0
  0
VERTEX
  5
25C
330
25B
100
AcDbEntity
  8
PIEZA
 62
     7
420
 16777215
370
     9
100
AcDbVertex
100
AcDb2dVertex
 10
143.5315655707903
 20
193.1066209446571
 30
0.0
  0
VERTEX
  5
25D
330
25B
100
AcDbEntity
  8
PIEZA
 62
     7
420
 16777215
370
     9
100
AcDbVertex
100
AcDb2dVertex
 10
145.9074841855505
 20
190.2908199479353
 30
0.0
  0
SEQEND
  5
25E
330
25B
100
AcDbEntity
  8
PIEZA
 62
     7
420
 16777215
370
     9
  0
ENDBLK
  5
25A
330
257
100
AcDbEntity
  8
0
100
AcDbBlockEnd
  0
BLOCK
  5
261
330
25F
100
AcDbEntity
  8
0
100
AcDbBlockBegin
  2
block 88
 70
     0
 10
0.0
 20
0.0
 30
0.0
  3
block 88
  1

  0
SPLINE
  5
263
330
25F
100
AcDbEntity
  8
PIEZA
 62
     7
420
 16777215
370
     9
100
AcDbSpline
210
0.0
220
0.0
230
1.0
 70
     8
 71
     3
 72
    17
 73
    13
 74
     0
 42
0.0000000001
 43
0.0000000001
 12
1.0
 22
0.0
 32
0.0
 13
1.0
 23
0.0
 33
0.0
 40
0.0
 40
0.0
 40
0.0
 40
0.0
 40
1.0
 40
1.0
 40
1.0
 40
2.0
 40
2.0
 40
2.0
 40
3.0
 40
3.0
 40
3.0
 40
4.0
 40
4.0
 40
4.0
 40
4.0
 10
145.9074844925015
 20
190.2908197474871
 30
0.0
 10
146.2099794804489
 20
189.9323202092756
 30
0.0
 10
146.5520667054917
 20
189.595784114104
 30
0.0
 10
146.927325169736
 20
189.2927827005178
 30
0.0
 10
147.3025836339802
 20
188.9897812869313
 30
0.0
 10
147.710932059859
 20
188.720461024696
 30
0.0
 10
148.1416828236677
 20
188.4934516061427
 30
0.0
 10
148.5724335874757
 20
188.2664421875898
 30
0.0
 10
149.0254343057872
 20
188.0818239201184
 30
0.0
 10
149.4875243312551
 20
187.9435353587446
 30
0.0
 10
149.9496143567223
 20
187.8052467973706
 30
0.0
 10
150.4206269013392
 20
187.713272205056
 30
0.0
 10
150.8873855674641
 20
187.666368342036
 30
0.0
  0
ENDBLK
  5
262
330
25F
100
AcDbEntity
  8
0
100
AcDbBlockEnd
  0
BLOCK
  5
266
330
264
100
AcDbEntity
  8
0
100
AcDbBlockBegin
  2
block 89
 70
     0
 10
0.0
 20
0.0
 30
0.0
  3
block 89
  1

  0
POLYLINE
  5
268
330
264
100
AcDbEntity
  8
PIEZA
 62
     7
420
 16777215
370
     9
100
AcDb2dPolyline
 66
     1
 10
0.0
 20
0.0
 30
0.0
  0
VERTEX
  5
269
330
268
100
AcDbEntity
  8
PIEZA
 62
     7
420
 16777215
370
     9
100
AcDbVertex
100
AcDb2dVertex
 10
152.7168112595386
 20
187.4825320432151
 30
0.0
  0
VERTEX
  5
26A
330
268
100
AcDbEntity
  8
PIEZA
 62
     7
420
 16777215
370
     9
100
AcDbVertex
100
AcDb2dVertex
 10
150.887385302769
 20
187.6663682424341
 30
0.0
  0
SEQEND
  5
26B
330
268
100
AcDbEntity
  8
PIEZA
 62
     7
420
 16777215
370
     9
  0
ENDBLK
  5
267
330
264
100
AcDbEntity
  8
0
100
AcDbBlockEnd
  0
BLOCK
  5
26E
330
26C
100
AcDbEntity
  8
0
100
AcDbBlockBegin
  2
block 90
 70
     0
 10
0.0
 20
0.0
 30
0.0
  3
block 90
  1

  0
SPLINE
  5
270
330
26C
100
AcDbEntity
  8
PIEZA
 62
     7
420
 16777215
370
     9
100
AcDbSpline
210
0.0
220
0.0
230
1.0
 70
     8
 71
     3
 72
     8
 73
     4
 74
     0
 42
0.0000000001
 43
0.0000000001
 12
1.0
 22
0.0
 32
0.0
 13
1.0
 23
0.0
 33
0.0
 40
0.0
 40
0.0
 40
0.0
 40
0.0
 40
1.0
 40
1.0
 40
1.0
 40
1.0
 10
152.8211402374844
 20
187.4385339264695
 30
0.0
 10
152.7915714577013
 20
187.4633412998209
 30
0.0
 10
152.7552174866124
 20
187.4786727466056
 30
0.0
 10
152.7168116673691
 20
187.4825320887863
 30
0.0
  0
ENDBLK
  5
26F
330
26C
100
AcDbEntity
  8
0
100
AcDbBlockEnd
  0
BLOCK
  5
273
330
271
100
AcDbEntity
  8
0
100
AcDbBlockBegin
  2
block 91
 70
     0
 10
0.0
 20
0.0
 30
0.0
  3
block 91
  1

  0
POLYLINE
  5
275
330
271
100
AcDbEntity
  8
PIEZA
 62
     7
420
 16777215
370
     9
100
AcDb2dPolyline
 66
     1
 10
0.0
 20
0.0
 30
0.0
  0
VERTEX
  5
276
330
275
100
AcDbEntity
  8
PIEZA
 62
     7
420
 16777215
370
     9
100
AcDbVertex
100
AcDb2dVertex
 10
154.4937490833648
 20
186.0352620442835
 30
0.0
  0
VERTEX
  5
277
330
275
100
AcDbEntity
  8
PIEZA
 62
     7
420
 16777215
370
     9
100
AcDbVertex
100
AcDb2dVertex
 10
152.8211402309782
 20
187.43853400045
 30
0.0
  0
SEQEND
  5
278
330
275
100
AcDbEntity
  8
PIEZA
 62
     7
420
 16777215
370
     9
  0
ENDBLK
  5
274
330
271
100
AcDbEntity
  8
0
100
AcDbBlockEnd
  0
BLOCK
  5
27B
330
279
100
AcDbEntity
  8
0
100
AcDbBlockBegin
  2
block 92
 70
     0
 10
0.0
 20
0.0
 30
0.0
  3
block 92
  1

  0
POLYLINE
  5
27D
330
279
100
AcDbEntity
  8
PIEZA
 62
     7
420
 16777215
370
     9
100
AcDb2dPolyline
 66
     1
 10
0.0
 20
0.0
 30
0.0
  0
VERTEX
  5
27E
330
27D
100
AcDbEntity
  8
PIEZA
 62
     7
420
 16777215
370
     9
100
AcDbVertex
100
AcDb2dVertex
 10
154.4937490833648
 20
185.5548131717631
 30
0.0
  0
VERTEX
  5
27F
330
27D
100
AcDbEntity
  8
PIEZA
 62
     7
420
 16777215
370
     9
100
AcDbVertex
100
AcDb2dVertex
 10
154.4937490833648
 20
186.0352620442835
 30
0.0
  0
SEQEND
  5
280
330
27D
100
AcDbEntity
  8
PIEZA
 62
     7
420
 16777215
370
     9
  0
ENDBLK
  5
27C
330
279
100
AcDbEntity
  8
0
100
AcDbBlockEnd
  0
BLOCK
  5
283
330
281
100
AcDbEntity
  8
0
100
AcDbBlockBegin
  2
block 93
 70
     0
 10
0.0
 20
0.0
 30
0.0
  3
block 93
  1

  0
POLYLINE
  5
285
330
281
100
AcDbEntity
  8
PIEZA
 62
     7
420
 16777215
370
     9
100
AcDb2dPolyline
 66
     1
 10
0.0
 20
0.0
 30
0.0
  0
VERTEX
  5
286
330
285
100
AcDbEntity
  8
PIEZA
 62
     7
420
 16777215
370
     9
100
AcDbVertex
100
AcDb2dVertex
 10
154.4937490833648
 20
185.5548131717631
 30
0.0
  0
VERTEX
  5
287
330
285
100
AcDbEntity
  8
PIEZA
 62
     7
420
 16777215
370
     9
100
AcDbVertex
100
AcDb2dVertex
 10
153.4217822200521
 20
185.5548131717631
 30
0.0
  0
SEQEND
  5
288
330
285
100
AcDbEntity
  8
PIEZA
 62
     7
420
 16777215
370
     9
  0
ENDBLK
  5
284
330
281
100
AcDbEntity
  8
0
100
AcDbBlockEnd
  0
BLOCK
  5
28B
330
289
100
AcDbEntity
  8
0
100
AcDbBlockBegin
  2
block 94
 70
     0
 10
0.0
 20
0.0
 30
0.0
  3
block 94
  1

  0
POLYLINE
  5
28D
330
289
100
AcDbEntity
  8
PIEZA
 62
     7
420
 16777215
370
     9
100
AcDb2dPolyline
 66
     1
 10
0.0
 20
0.0
 30
0.0
  0
VERTEX
  5
28E
330
28D
100
AcDbEntity
  8
PIEZA
 62
     7
420
 16777215
370
     9
100
AcDbVertex
100
AcDb2dVertex
 10
142.7235573635983
 20
192.4250463827026
 30
0.0
  0
VERTEX
  5
28F
330
28D
100
AcDbEntity
  8
PIEZA
 62
     7
420
 16777215
370
     9
100
AcDbVertex
100
AcDb2dVertex
 10
145.0994759783585
 20
189.6092457439433
 30
0.0
  0
SEQEND
  5
290
330
28D
100
AcDbEntity
  8
PIEZA
 62
     7
420
 16777215
370
     9
  0
ENDBLK
  5
28C
330
289
100
AcDbEntity
  8
0
100
AcDbBlockEnd
  0
BLOCK
  5
293
330
291
100
AcDbEntity
  8
0
100
AcDbBlockBegin
  2
block 95
 70
     0
 10
0.0
 20
0.0
 30
0.0
  3
block 95
  1

  0
POLYLINE
  5
295
330
291
100
AcDbEntity
  8
PIEZA
 62
     7
420
 16777215
370
     9
100
AcDb2dPolyline
 66
     1
 10
0.0
 20
0.0
 30
0.0
  0
VERTEX
  5
296
330
295
100
AcDbEntity
  8
PIEZA
 62
     7
420
 16777215
370
     9
100
AcDbVertex
100
AcDb2dVertex
 10
150.7816700901239
 20
186.6146789946725
 30
0.0
  0
VERTEX
  5
297
330
295
100
AcDbEntity
  8
PIEZA
 62
     7
420
 16777215
370
     9
100
AcDbVertex
100
AcDb2dVertex
 10
150.787945409303
 20
186.6211682249684
 30
0.0
  0
SEQEND
  5
298
330
295
100
AcDbEntity
  8
PIEZA
 62
     7
420
 16777215
370
     9
  0
ENDBLK
  5
294
330
291
100
AcDbEntity
  8
0
100
AcDbBlockEnd
  0
BLOCK
  5
29B
330
299
100
AcDbEntity
  8
0
100
AcDbBlockBegin
  2
block 96
 70
     0
 10
0.0
 20
0.0
 30
0.0
  3
block 96
  1

  0
SPLINE
  5
29D
330
299
100
AcDbEntity
  8
PIEZA
370
     0
100
AcDbSpline
210
0.0
220
0.0
230
1.0
 70
    11
 71
     3
 72
    11
 73
     7
 74
     0
 42
0.0000000001
 43
0.0000000001
 12
1.0
 22
0.0
 32
0.0
 13
1.0
 23
0.0
 33
0.0
 40
0.0
 40
0.0
 40
0.0
 40
0.0
 40
1.0
 40
1.0
 40
1.0
 40
2.0
 40
2.0
 40
2.0
 40
2.0
 10
162.6332183822098
 20
186.61534100319
 30
0.0
 10
162.8623297483745
 20
186.6383640515958
 30
0.0
 10
163.0887112700011
 20
186.6704306355772
 30
0.0
 10
163.3124551818833
 20
186.7112351961219
 30
0.0
 10
163.3124551818833
 20
186.7112351961219
 30
0.0
 10
162.6332183822098
 20
186.61534100319
 30
0.0
 10
162.6332183822098
 20
186.61534100319
 30
0.0
  0
HATCH
  5
29E
330
299
100
AcDbEntity
  8
PIEZA
 62
     7
420
 16777215
100
AcDbHatch
 10
0.0
 20
0.0
 30
0.0
210
0.0
220
0.0
230
1.0
  2
SOLID
 70
     1
 71
     0
 91
        1
 92
        1
 93
        1
 72
     4
 94
        3
 73
     0
 74
     1
 95
       11
 96
        7
 40
0.0
 40
0.0
 40
0.0
 40
0.0
 40
1.0
 40
1.0
 40
1.0
 40
2.0
 40
2.0
 40
2.0
 40
2.0
 10
162.6332183822098
 20
186.61534100319
 10
162.8623297483745
 20
186.6383640515958
 10
163.0887112700011
 20
186.6704306355772
 10
163.3124551818833
 20
186.7112351961219
 10
163.3124551818833
 20
186.7112351961219
 10
162.6332183822098
 20
186.61534100319
 10
162.6332183822098
 20
186.61534100319
 97
        0
 97
        0
 75
     0
 76
     1
 98
        0
  0
ENDBLK
  5
29C
330
299
100
AcDbEntity
  8
0
100
AcDbBlockEnd
  0
BLOCK
  5
2A1
330
29F
100
AcDbEntity
  8
0
100
AcDbBlockBegin
  2
block 97
 70
     0
 10
0.0
 20
0.0
 30
0.0
  3
block 97
  1

  0
POLYLINE
  5
2A3
330
29F
100
AcDbEntity
  8
PIEZA
 62
     7
420
 16777215
370
     9
100
AcDb2dPolyline
 66
     1
 10
0.0
 20
0.0
 30
0.0
  0
VERTEX
  5
2A4
330
2A3
100
AcDbEntity
  8
PIEZA
 62
     7
420
 16777215
370
     9
100
AcDbVertex
100
AcDb2dVertex
 10
162.6332175567121
 20
186.6153408669887
 30
0.0
  0
VERTEX
  5
2A5
330
2A3
100
AcDbEntity
  8
PIEZA
 62
     7
420
 16777215
370
     9
100
AcDbVertex
100
AcDb2dVertex
 10
161.3571911188195
 20
186.4871149184696
 30
0.0
  0
SEQEND
  5
2A6
330
2A3
100
AcDbEntity
  8
PIEZA
 62
     7
420
 16777215
370
     9
  0
ENDBLK
  5
2A2
330
29F
100
AcDbEntity
  8
0
100
AcDbBlockEnd
  0
BLOCK
  5
2A9
330
2A7
100
AcDbEntity
  8
0
100
AcDbBlockBegin
  2
block 98
 70
     0
 10
0.0
 20
0.0
 30
0.0
  3
block 98
  1

  0
POLYLINE
  5
2AB
330
2A7
100
AcDbEntity
  8
PIEZA
 62
     7
420
 16777215
370
     9
100
AcDb2dPolyline
 66
     1
 10
0.0
 20
0.0
 30
0.0
  0
VERTEX
  5
2AC
330
2AB
100
AcDbEntity
  8
PIEZA
 62
     7
420
 16777215
370
     9
100
AcDbVertex
100
AcDb2dVertex
 10
162.527502344067
 20
187.6670302937315
 30
0.0
  0
VERTEX
  5
2AD
330
2AB
100
AcDbEntity
  8
PIEZA
 62
     7
420
 16777215
370
     9
100
AcDbVertex
100
AcDb2dVertex
 10
160.6914888774332
 20
187.4825320432151
 30
0.0
  0
SEQEND
  5
2AE
330
2AB
100
AcDbEntity
  8
PIEZA
 62
     7
420
 16777215
370
     9
  0
ENDBLK
  5
2AA
330
2A7
100
AcDbEntity
  8
0
100
AcDbBlockEnd
  0
BLOCK
  5
2B1
330
2AF
100
AcDbEntity
  8
0
100
AcDbBlockBegin
  2
block 99
 70
     0
 10
0.0
 20
0.0
 30
0.0
  3
block 99
  1

  0
POLYLINE
  5
2B3
330
2AF
100
AcDbEntity
  8
PIEZA
 62
     7
420
 16777215
370
     9
100
AcDb2dPolyline
 66
     1
 10
0.0
 20
0.0
 30
0.0
  0
VERTEX
  5
2B4
330
2B3
100
AcDbEntity
  8
PIEZA
 62
     7
420
 16777215
370
     9
100
AcDbVertex
100
AcDb2dVertex
 10
152.7168112595386
 20
187.4825320432151
 30
0.0
  0
VERTEX
  5
2B5
330
2B3
100
AcDbEntity
  8
PIEZA
 62
     7
420
 16777215
370
     9
100
AcDbVertex
100
AcDb2dVertex
 10
160.6914888774332
 20
187.4825320432151
 30
0.0
  0
SEQEND
  5
2B6
330
2B3
100
AcDbEntity
  8
PIEZA
 62
     7
420
 16777215
370
     9
  0
ENDBLK
  5
2B2
330
2AF
100
AcDbEntity
  8
0
100
AcDbBlockEnd
  0
BLOCK
  5
2B9
330
2B7
100
AcDbEntity
  8
0
100
AcDbBlockBegin
  2
block 100
 70
     0
 10
0.0
 20
0.0
 30
0.0
  3
block 100
  1

  0
POLYLINE
  5
2BB
330
2B7
100
AcDbEntity
  8
PIEZA
 62
     7
420
 16777215
370
     9
100
AcDb2dPolyline
 66
     1
 10
0.0
 20
0.0
 30
0.0
  0
VERTEX
  5
2BC
330
2BB
100
AcDbEntity
  8
PIEZA
 62
     7
420
 16777215
370
     9
100
AcDbVertex
100
AcDb2dVertex
 10
159.9865193489873
 20
185.5548131717631
 30
0.0
  0
VERTEX
  5
2BD
330
2BB
100
AcDbEntity
  8
PIEZA
 62
     7
420
 16777215
370
     9
100
AcDbVertex
100
AcDb2dVertex
 10
158.914551053607
 20
185.5548131717631
 30
0.0
  0
SEQEND
  5
2BE
330
2BB
100
AcDbEntity
  8
PIEZA
 62
     7
420
 16777215
370
     9
  0
ENDBLK
  5
2BA
330
2B7
100
AcDbEntity
  8
0
100
AcDbBlockEnd
  0
BLOCK
  5
2C1
330
2BF
100
AcDbEntity
  8
0
100
AcDbBlockBegin
  2
block 101
 70
     0
 10
0.0
 20
0.0
 30
0.0
  3
block 101
  1

  0
POLYLINE
  5
2C3
330
2BF
100
AcDbEntity
  8
PIEZA
 62
     7
420
 16777215
370
     9
100
AcDb2dPolyline
 66
     1
 10
0.0
 20
0.0
 30
0.0
  0
VERTEX
  5
2C4
330
2C3
100
AcDbEntity
  8
PIEZA
 62
     7
420
 16777215
370
     9
100
AcDbVertex
100
AcDb2dVertex
 10
158.914551053607
 20
186.0352620442835
 30
0.0
  0
VERTEX
  5
2C5
330
2C3
100
AcDbEntity
  8
PIEZA
 62
     7
420
 16777215
370
     9
100
AcDbVertex
100
AcDb2dVertex
 10
158.914551053607
 20
185.5548131717631
 30
0.0
  0
SEQEND
  5
2C6
330
2C3
100
AcDbEntity
  8
PIEZA
 62
     7
420
 16777215
370
     9
  0
ENDBLK
  5
2C2
330
2BF
100
AcDbEntity
  8
0
100
AcDbBlockEnd
  0
BLOCK
  5
2C9
330
2C7
100
AcDbEntity
  8
0
100
AcDbBlockBegin
  2
block 102
 70
     0
 10
0.0
 20
0.0
 30
0.0
  3
block 102
  1

  0
POLYLINE
  5
2CB
330
2C7
100
AcDbEntity
  8
PIEZA
 62
     7
420
 16777215
370
     9
100
AcDb2dPolyline
 66
     1
 10
0.0
 20
0.0
 30
0.0
  0
VERTEX
  5
2CC
330
2CB
100
AcDbEntity
  8
PIEZA
 62
     7
420
 16777215
370
     9
100
AcDbVertex
100
AcDb2dVertex
 10
160.5871627701287
 20
187.43853400045
 30
0.0
  0
VERTEX
  5
2CD
330
2CB
100
AcDbEntity
  8
PIEZA
 62
     7
420
 16777215
370
     9
100
AcDbVertex
100
AcDb2dVertex
 10
158.914551053607
 20
186.0352620442835
 30
0.0
  0
SEQEND
  5
2CE
330
2CB
100
AcDbEntity
  8
PIEZA
 62
     7
420
 16777215
370
     9
  0
ENDBLK
  5
2CA
330
2C7
100
AcDbEntity
  8
0
100
AcDbBlockEnd
  0
BLOCK
  5
2D1
330
2CF
100
AcDbEntity
  8
0
100
AcDbBlockBegin
  2
block 103
 70
     0
 10
0.0
 20
0.0
 30
0.0
  3
block 103
  1

  0
SPLINE
  5
2D3
330
2CF
100
AcDbEntity
  8
PIEZA
 62
     7
420
 16777215
370
     9
100
AcDbSpline
210
0.0
220
0.0
230
1.0
 70
     8
 71
     3
 72
     8
 73
     4
 74
     0
 42
0.0000000001
 43
0.0000000001
 12
1.0
 22
0.0
 32
0.0
 13
1.0
 23
0.0
 33
0.0
 40
0.0
 40
0.0
 40
0.0
 40
0.0
 40
1.0
 40
1.0
 40
1.0
 40
1.0
 10
160.6914899245802
 20
187.4825320887863
 30
0.0
 10
160.6530841053376
 20
187.4786727466056
 30
0.0
 10
160.6167301342481
 20
187.4633412998209
 30
0.0
 10
160.5871613544656
 20
187.4385339264698
 30
0.0
  0
ENDBLK
  5
2D2
330
2CF
100
AcDbEntity
  8
0
100
AcDbBlockEnd
  0
BLOCK
  5
2D6
330
2D4
100
AcDbEntity
  8
0
100
AcDbBlockBegin
  2
block 104
 70
     0
 10
0.0
 20
0.0
 30
0.0
  3
block 104
  1

  0
SPLINE
  5
2D8
330
2D4
100
AcDbEntity
  8
PIEZA
 62
     7
420
 16777215
370
     9
100
AcDbSpline
210
0.0
220
0.0
230
1.0
 70
     8
 71
     3
 72
     8
 73
     4
 74
     0
 42
0.0000000001
 43
0.0000000001
 12
1.0
 22
0.0
 32
0.0
 13
1.0
 23
0.0
 33
0.0
 40
0.0
 40
0.0
 40
0.0
 40
0.0
 40
1.0
 40
1.0
 40
1.0
 40
1.0
 10
162.527502344067
 20
187.6670302937315
 30
0.0
 10
162.6127529988298
 20
187.6783706921069
 30
0.0
 10
162.6980036535971
 20
187.6897110904816
 30
0.0
 10
162.7831465041417
 20
187.7016217727752
 30
0.0
  0
ENDBLK
  5
2D7
330
2D4
100
AcDbEntity
  8
0
100
AcDbBlockEnd
  0
BLOCK
  5
2DB
330
2D9
100
AcDbEntity
  8
0
100
AcDbBlockBegin
  2
block 105
 70
     0
 10
0.0
 20
0.0
 30
0.0
  3
block 105
  1

  0
POLYLINE
  5
2DD
330
2D9
100
AcDbEntity
  8
PIEZA
 62
     7
420
 16777215
370
     9
100
AcDb2dPolyline
 66
     1
 10
0.0
 20
0.0
 30
0.0
  0
VERTEX
  5
2DE
330
2DD
100
AcDbEntity
  8
PIEZA
 62
     7
420
 16777215
370
     9
100
AcDbVertex
100
AcDb2dVertex
 10
173.1300364594074
 20
197.085586112253
 30
0.0
  0
VERTEX
  5
2DF
330
2DD
100
AcDbEntity
  8
PIEZA
 62
     7
420
 16777215
370
     9
100
AcDbVertex
100
AcDb2dVertex
 10
173.4161663824229
 20
197.085586112253
 30
0.0
  0
SEQEND
  5
2E0
330
2DD
100
AcDbEntity
  8
PIEZA
 62
     7
420
 16777215
370
     9
  0
ENDBLK
  5
2DC
330
2D9
100
AcDbEntity
  8
0
100
AcDbBlockEnd
  0
BLOCK
  5
2E3
330
2E1
100
AcDbEntity
  8
0
100
AcDbBlockBegin
  2
block 106
 70
     0
 10
0.0
 20
0.0
 30
0.0
  3
block 106
  1

  0
SPLINE
  5
2E5
330
2E1
100
AcDbEntity
  8
PIEZA
 62
     7
420
 16777215
370
     9
100
AcDbSpline
210
0.0
220
0.0
230
1.0
 70
     8
 71
     3
 72
    11
 73
     7
 74
     0
 42
0.0000000001
 43
0.0000000001
 12
1.0
 22
0.0
 32
0.0
 13
1.0
 23
0.0
 33
0.0
 40
0.0
 40
0.0
 40
0.0
 40
0.0
 40
1.0
 40
1.0
 40
1.0
 40
2.0
 40
2.0
 40
2.0
 40
2.0
 10
173.9927045714091
 20
196.4989857230554
 30
0.0
 10
173.9982624998924
 20
196.8173507366923
 30
0.0
 10
173.7446429407974
 20
197.0799414783719
 30
0.0
 10
173.4262294312408
 20
197.0854985603559
 30
0.0
 10
173.4228752439943
 20
197.085557098995
 30
0.0
 10
173.4195206096812
 20
197.0855863699863
 30
0.0
 10
173.4161659114979
 20
197.0855863699863
 30
0.0
  0
ENDBLK
  5
2E4
330
2E1
100
AcDbEntity
  8
0
100
AcDbBlockEnd
  0
BLOCK
  5
2E8
330
2E6
100
AcDbEntity
  8
0
100
AcDbBlockBegin
  2
block 107
 70
     0
 10
0.0
 20
0.0
 30
0.0
  3
block 107
  1

  0
POLYLINE
  5
2EA
330
2E6
100
AcDbEntity
  8
PIEZA
 62
     7
420
 16777215
370
     9
100
AcDb2dPolyline
 66
     1
 10
0.0
 20
0.0
 30
0.0
  0
VERTEX
  5
2EB
330
2EA
100
AcDbEntity
  8
PIEZA
 62
     7
420
 16777215
370
     9
100
AcDbVertex
100
AcDb2dVertex
 10
173.9927052457309
 20
196.4989853951909
 30
0.0
  0
VERTEX
  5
2EC
330
2EA
100
AcDbEntity
  8
PIEZA
 62
     7
420
 16777215
370
     9
100
AcDbVertex
100
AcDb2dVertex
 10
173.8065880431267
 20
184.8543328867476
 30
0.0
  0
SEQEND
  5
2ED
330
2EA
100
AcDbEntity
  8
PIEZA
 62
     7
420
 16777215
370
     9
  0
ENDBLK
  5
2E9
330
2E6
100
AcDbEntity
  8
0
100
AcDbBlockEnd
  0
BLOCK
  5
2F0
330
2EE
100
AcDbEntity
  8
0
100
AcDbBlockBegin
  2
block 108
 70
     0
 10
0.0
 20
0.0
 30
0.0
  3
block 108
  1

  0
SPLINE
  5
2F2
330
2EE
100
AcDbEntity
  8
PIEZA
 62
     7
420
 16777215
370
     9
100
AcDbSpline
210
0.0
220
0.0
230
1.0
 70
     8
 71
     3
 72
     8
 73
     4
 74
     0
 42
0.0000000001
 43
0.0000000001
 12
1.0
 22
0.0
 32
0.0
 13
1.0
 23
0.0
 33
0.0
 40
0.0
 40
0.0
 40
0.0
 40
0.0
 40
1.0
 40
1.0
 40
1.0
 40
1.0
 10
173.5183195962243
 20
184.5710945579836
 30
0.0
 10
173.6755890112578
 20
184.5710945579836
 30
0.0
 10
173.8038441964287
 20
184.6971113815349
 30
0.0
 10
173.8065889261796
 20
184.8543328944291
 30
0.0
  0
ENDBLK
  5
2F1
330
2EE
100
AcDbEntity
  8
0
100
AcDbBlockEnd
  0
BLOCK
  5
2F5
330
2F3
100
AcDbEntity
  8
0
100
AcDbBlockBegin
  2
block 109
 70
     0
 10
0.0
 20
0.0
 30
0.0
  3
block 109
  1

  0
SPLINE
  5
2F7
330
2F3
100
AcDbEntity
  8
PIEZA
 62
     7
420
 16777215
370
     9
100
AcDbSpline
210
0.0
220
0.0
230
1.0
 70
     8
 71
     3
 72
     8
 73
     4
 74
     0
 42
0.0000000001
 43
0.0000000001
 12
1.0
 22
0.0
 32
0.0
 13
1.0
 23
0.0
 33
0.0
 40
0.0
 40
0.0
 40
0.0
 40
0.0
 40
1.0
 40
1.0
 40
1.0
 40
1.0
 10
162.6332183822098
 20
186.61534100319
 30
0.0
 10
162.8623297483745
 20
186.6383640515958
 30
0.0
 10
163.0887112700011
 20
186.6704306355772
 30
0.0
 10
163.3124551818833
 20
186.7112351961219
 30
0.0
  0
ENDBLK
  5
2F6
330
2F3
100
AcDbEntity
  8
0
100
AcDbBlockEnd
  0
BLOCK
  5
2FA
330
2F8
100
AcDbEntity
  8
0
100
AcDbBlockBegin
  2
block 110
 70
     0
 10
0.0
 20
0.0
 30
0.0
  3
block 110
  1

  0
SPLINE
  5
2FC
330
2F8
100
AcDbEntity
  8
PIEZA
 62
     7
420
 16777215
370
     9
100
AcDbSpline
210
0.0
220
0.0
230
1.0
 70
     8
 71
     3
 72
     8
 73
     4
 74
     0
 42
0.0000000001
 43
0.0000000001
 12
1.0
 22
0.0
 32
0.0
 13
1.0
 23
0.0
 33
0.0
 40
0.0
 40
0.0
 40
0.0
 40
0.0
 40
1.0
 40
1.0
 40
1.0
 40
1.0
 10
161.3571908701707
 20
186.4871149100133
 30
0.0
 10
161.1651617739563
 20
186.4678181991109
 30
0.0
 10
160.9833919185107
 20
186.3911609651878
 30
0.0
 10
160.8355480195971
 20
186.2671240984309
 30
0.0
  0
ENDBLK
  5
2FB
330
2F8
100
AcDbEntity
  8
0
100
AcDbBlockEnd
  0
BLOCK
  5
2FF
330
2FD
100
AcDbEntity
  8
0
100
AcDbBlockBegin
  2
block 111
 70
     0
 10
0.0
 20
0.0
 30
0.0
  3
block 111
  1

  0
POLYLINE
  5
301
330
2FD
100
AcDbEntity
  8
PIEZA
 62
     7
420
 16777215
370
     9
100
AcDb2dPolyline
 66
     1
 10
0.0
 20
0.0
 30
0.0
  0
VERTEX
  5
302
330
301
100
AcDbEntity
  8
PIEZA
 62
     7
420
 16777215
370
     9
100
AcDbVertex
100
AcDb2dVertex
 10
160.8355491257572
 20
186.2671240782109
 30
0.0
  0
VERTEX
  5
303
330
301
100
AcDbEntity
  8
PIEZA
 62
     7
420
 16777215
370
     9
100
AcDbVertex
100
AcDb2dVertex
 10
159.9865193489873
 20
185.5548131717631
 30
0.0
  0
SEQEND
  5
304
330
301
100
AcDbEntity
  8
PIEZA
 62
     7
420
 16777215
370
     9
  0
ENDBLK
  5
300
330
2FD
100
AcDbEntity
  8
0
100
AcDbBlockEnd
  0
BLOCK
  5
307
330
305
100
AcDbEntity
  8
0
100
AcDbBlockBegin
  2
block 112
 70
     0
 10
0.0
 20
0.0
 30
0.0
  3
block 112
  1

  0
SPLINE
  5
309
330
305
100
AcDbEntity
  8
PIEZA
370
     0
100
AcDbSpline
210
0.0
220
0.0
230
1.0
 70
    11
 71
     3
 72
    50
 73
    46
 74
     0
 42
0.0000000001
 43
0.0000000001
 12
1.0
 22
0.0
 32
0.0
 13
1.0
 23
0.0
 33
0.0
 40
0.0
 40
0.0
 40
0.0
 40
0.0
 40
1.0
 40
1.0
 40
1.0
 40
2.0
 40
2.0
 40
2.0
 40
3.0
 40
3.0
 40
3.0
 40
4.0
 40
4.0
 40
4.0
 40
5.0
 40
5.0
 40
5.0
 40
6.0
 40
6.0
 40
6.0
 40
7.0
 40
7.0
 40
7.0
 40
8.0
 40
8.0
 40
8.0
 40
9.0
 40
9.0
 40
9.0
 40
10.0
 40
10.0
 40
10.0
 40
11.0
 40
11.0
 40
11.0
 40
12.0
 40
12.0
 40
12.0
 40
13.0
 40
13.0
 40
13.0
 40
14.0
 40
14.0
 40
14.0
 40
15.0
 40
15.0
 40
15.0
 40
15.0
 10
135.1287098361995
 20
197.085586112253
 30
0.0
 10
135.1287098361995
 20
197.085586112253
 30
0.0
 10
131.1398314888254
 20
197.085586112253
 30
0.0
 10
131.1398314888254
 20
197.085586112253
 30
0.0
 10
130.8215825234251
 20
197.0852852365525
 30
0.0
 10
130.5637502370512
 20
196.8272483468635
 30
0.0
 10
130.5637502370512
 20
196.5090477100751
 30
0.0
 10
130.5637502370512
 20
196.5090477100751
 30
0.0
 10
130.5637502370499
 20
194.2395344855828
 30
0.0
 10
130.5637502370499
 20
194.2395344855828
 30
0.0
 10
130.5637502370499
 20
194.2395344855828
 30
0.0
 10
131.6208987890675
 20
194.2395344855828
 30
0.0
 10
131.6208987890675
 20
194.2395344855828
 30
0.0
 10
131.6208987890675
 20
194.2395344855828
 30
0.0
 10
131.6208987890669
 20
196.0285988268165
 30
0.0
 10
131.6208987890669
 20
196.0285988268165
 30
0.0
 10
131.6208987890669
 20
196.0285988268165
 30
0.0
 10
132.4567527178695
 20
196.0285988268159
 30
0.0
 10
132.4567527178695
 20
196.0285988268159
 30
0.0
 10
132.4567527178695
 20
196.0285988268159
 30
0.0
 10
132.3718471423563
 20
194.2395344855825
 30
0.0
 10
132.3718471423563
 20
194.2395344855825
 30
0.0
 10
132.3718471423563
 20
194.2395344855825
 30
0.0
 10
133.4268071259396
 20
194.2395344855828
 30
0.0
 10
133.4268071259396
 20
194.2395344855828
 30
0.0
 10
133.4268071259396
 20
194.2395344855828
 30
0.0
 10
133.477167954455
 20
195.3001124767781
 30
0.0
 10
133.477167954455
 20
195.3001124767781
 30
0.0
 10
133.477167954455
 20
195.3001124767781
 30
0.0
 10
133.4784541111378
 20
195.3020527446139
 30
0.0
 10
133.4784541111378
 20
195.3020527446139
 30
0.0
 10
133.4776315299262
 20
195.3014229138066
 30
0.0
 10
133.4772026483545
 20
195.3007758719553
 30
0.0
 10
133.4771678623411
 20
195.3001122163708
 30
0.0
 10
133.4985595768423
 20
195.7082282772476
 30
0.0
 10
133.8355887107499
 20
196.028267660194
 30
0.0
 10
134.2443269669117
 20
196.0285985748097
 30
0.0
 10
134.2443269669117
 20
196.0285985748097
 30
0.0
 10
135.1287098361995
 20
196.0285985748097
 30
0.0
 10
135.1287098361995
 20
196.0285985748097
 30
0.0
 10
135.1287098361995
 20
196.0285985748097
 30
0.0
 10
135.1287098361995
 20
197.085586112253
 30
0.0
 10
135.1287098361995
 20
197.085586112253
 30
0.0
 10
135.1287098361995
 20
197.085586112253
 30
0.0
 10
135.1287098361995
 20
197.085586112253
 30
0.0
 10
135.1287098361995
 20
197.085586112253
 30
0.0
  0
POLYLINE
  5
30A
330
305
100
AcDbEntity
  8
PIEZA
370
     0
100
AcDb2dPolyline
 66
     1
 10
0.0
 20
0.0
 30
0.0
  0
VERTEX
  5
30B
330
30A
100
AcDbEntity
  8
PIEZA
370
     0
100
AcDbVertex
100
AcDb2dVertex
 10
133.4268071259396
 20
194.2395344855828
 30
0.0
  0
VERTEX
  5
30C
330
30A
100
AcDbEntity
  8
PIEZA
370
     0
100
AcDbVertex
100
AcDb2dVertex
 10
132.3718471423569
 20
194.2395344855828
 30
0.0
  0
VERTEX
  5
30D
330
30A
100
AcDbEntity
  8
PIEZA
370
     0
100
AcDbVertex
100
AcDb2dVertex
 10
132.238126903375
 20
191.4218854699699
 30
0.0
  0
VERTEX
  5
30E
330
30A
100
AcDbEntity
  8
PIEZA
370
     0
100
AcDbVertex
100
AcDb2dVertex
 10
133.2930129683472
 20
191.4218854699699
 30
0.0
  0
VERTEX
  5
30F
330
30A
100
AcDbEntity
  8
PIEZA
370
     0
100
AcDbVertex
100
AcDb2dVertex
 10
133.4268071259396
 20
194.2395344855828
 30
0.0
  0
SEQEND
  5
310
330
30A
100
AcDbEntity
  8
PIEZA
370
     0
  0
POLYLINE
  5
311
330
305
100
AcDbEntity
  8
PIEZA
370
     0
100
AcDb2dPolyline
 66
     1
 10
0.0
 20
0.0
 30
0.0
  0
VERTEX
  5
312
330
311
100
AcDbEntity
  8
PIEZA
370
     0
100
AcDbVertex
100
AcDb2dVertex
 10
133.2930129683472
 20
191.4218854699699
 30
0.0
  0
VERTEX
  5
313
330
311
100
AcDbEntity
  8
PIEZA
370
     0
100
AcDbVertex
100
AcDb2dVertex
 10
132.238126903375
 20
191.4218854699699
 30
0.0
  0
VERTEX
  5
314
330
311
100
AcDbEntity
  8
PIEZA
370
     0
100
AcDbVertex
100
AcDb2dVertex
 10
132.1034161718609
 20
188.5833655650384
 30
0.0
  0
VERTEX
  5
315
330
311
100
AcDbEntity
  8
PIEZA
370
     0
100
AcDbVertex
100
AcDb2dVertex
 10
133.1582277706922
 20
188.5833655650384
 30
0.0
  0
VERTEX
  5
316
330
311
100
AcDbEntity
  8
PIEZA
370
     0
100
AcDbVertex
100
AcDb2dVertex
 10
133.2930129683472
 20
191.4218854699699
 30
0.0
  0
SEQEND
  5
317
330
311
100
AcDbEntity
  8
PIEZA
370
     0
  0
POLYLINE
  5
318
330
305
100
AcDbEntity
  8
PIEZA
370
     0
100
AcDb2dPolyline
 66
     1
 10
0.0
 20
0.0
 30
0.0
  0
VERTEX
  5
319
330
318
100
AcDbEntity
  8
PIEZA
370
     0
100
AcDbVertex
100
AcDb2dVertex
 10
133.1582277706922
 20
188.5833655650384
 30
0.0
  0
VERTEX
  5
31A
330
318
100
AcDbEntity
  8
PIEZA
370
     0
100
AcDbVertex
100
AcDb2dVertex
 10
132.1034161718609
 20
188.5833655650384
 30
0.0
  0
VERTEX
  5
31B
330
318
100
AcDbEntity
  8
PIEZA
370
     0
100
AcDbVertex
100
AcDb2dVertex
 10
131.9631640649246
 20
185.6280821011541
 30
0.0
  0
VERTEX
  5
31C
330
318
100
AcDbEntity
  8
PIEZA
370
     0
100
AcDbVertex
100
AcDb2dVertex
 10
131.6208987890669
 20
185.6280821011541
 30
0.0
  0
VERTEX
  5
31D
330
318
100
AcDbEntity
  8
PIEZA
370
     0
100
AcDbVertex
100
AcDb2dVertex
 10
131.6208987890669
 20
188.5833655650384
 30
0.0
  0
VERTEX
  5
31E
330
318
100
AcDbEntity
  8
PIEZA
370
     0
100
AcDbVertex
100
AcDb2dVertex
 10
130.5637502370531
 20
188.5833655650384
 30
0.0
  0
VERTEX
  5
31F
330
318
100
AcDbEntity
  8
PIEZA
370
     0
100
AcDbVertex
100
AcDb2dVertex
 10
130.5637502370531
 20
184.8593638879392
 30
0.0
  0
VERTEX
  5
320
330
318
100
AcDbEntity
  8
PIEZA
370
     0
100
AcDbVertex
100
AcDb2dVertex
 10
130.8520634785102
 20
184.5710945579836
 30
0.0
  0
VERTEX
  5
321
330
318
100
AcDbEntity
  8
PIEZA
370
     0
100
AcDbVertex
100
AcDb2dVertex
 10
132.6927615322814
 20
184.5710945579836
 30
0.0
  0
VERTEX
  5
322
330
318
100
AcDbEntity
  8
PIEZA
370
     0
100
AcDbVertex
100
AcDb2dVertex
 10
132.9808138821444
 20
184.8471032542229
 30
0.0
  0
VERTEX
  5
323
330
318
100
AcDbEntity
  8
PIEZA
370
     0
100
AcDbVertex
100
AcDb2dVertex
 10
133.1582277706922
 20
188.5833655650384
 30
0.0
  0
SEQEND
  5
324
330
318
100
AcDbEntity
  8
PIEZA
370
     0
  0
POLYLINE
  5
325
330
305
100
AcDbEntity
  8
PIEZA
370
     0
100
AcDb2dPolyline
 66
     1
 10
0.0
 20
0.0
 30
0.0
  0
VERTEX
  5
326
330
325
100
AcDbEntity
  8
PIEZA
370
     0
100
AcDbVertex
100
AcDb2dVertex
 10
131.6208987890669
 20
191.4218854699699
 30
0.0
  0
VERTEX
  5
327
330
325
100
AcDbEntity
  8
PIEZA
370
     0
100
AcDbVertex
100
AcDb2dVertex
 10
130.5637502370531
 20
191.4218854699699
 30
0.0
  0
VERTEX
  5
328
330
325
100
AcDbEntity
  8
PIEZA
370
     0
100
AcDbVertex
100
AcDb2dVertex
 10
130.5637502370531
 20
188.5833655650384
 30
0.0
  0
VERTEX
  5
329
330
325
100
AcDbEntity
  8
PIEZA
370
     0
100
AcDbVertex
100
AcDb2dVertex
 10
131.6208987890669
 20
188.5833655650384
 30
0.0
  0
VERTEX
  5
32A
330
325
100
AcDbEntity
  8
PIEZA
370
     0
100
AcDbVertex
100
AcDb2dVertex
 10
131.6208987890669
 20
191.4218854699699
 30
0.0
  0
SEQEND
  5
32B
330
325
100
AcDbEntity
  8
PIEZA
370
     0
  0
POLYLINE
  5
32C
330
305
100
AcDbEntity
  8
PIEZA
370
     0
100
AcDb2dPolyline
 66
     1
 10
0.0
 20
0.0
 30
0.0
  0
VERTEX
  5
32D
330
32C
100
AcDbEntity
  8
PIEZA
370
     0
100
AcDbVertex
100
AcDb2dVertex
 10
131.6208987890669
 20
194.2395344855828
 30
0.0
  0
VERTEX
  5
32E
330
32C
100
AcDbEntity
  8
PIEZA
370
     0
100
AcDbVertex
100
AcDb2dVertex
 10
130.5637502370531
 20
194.2395344855828
 30
0.0
  0
VERTEX
  5
32F
330
32C
100
AcDbEntity
  8
PIEZA
370
     0
100
AcDbVertex
100
AcDb2dVertex
 10
130.5637502370531
 20
191.4218854699699
 30
0.0
  0
VERTEX
  5
330
330
32C
100
AcDbEntity
  8
PIEZA
370
     0
100
AcDbVertex
100
AcDb2dVertex
 10
131.6208987890669
 20
191.4218854699699
 30
0.0
  0
VERTEX
  5
331
330
32C
100
AcDbEntity
  8
PIEZA
370
     0
100
AcDbVertex
100
AcDb2dVertex
 10
131.6208987890669
 20
194.2395344855828
 30
0.0
  0
SEQEND
  5
332
330
32C
100
AcDbEntity
  8
PIEZA
370
     0
  0
HATCH
  5
333
330
305
100
AcDbEntity
  8
PIEZA
 62
     7
420
 16777215
100
AcDbHatch
 10
0.0
 20
0.0
 30
0.0
210
0.0
220
0.0
230
1.0
  2
SOLID
 70
     1
 71
     0
 91
        6
 92
        1
 93
        1
 72
     4
 94
        3
 73
     0
 74
     1
 95
       50
 96
       46
 40
0.0
 40
0.0
 40
0.0
 40
0.0
 40
1.0
 40
1.0
 40
1.0
 40
2.0
 40
2.0
 40
2.0
 40
3.0
 40
3.0
 40
3.0
 40
4.0
 40
4.0
 40
4.0
 40
5.0
 40
5.0
 40
5.0
 40
6.0
 40
6.0
 40
6.0
 40
7.0
 40
7.0
 40
7.0
 40
8.0
 40
8.0
 40
8.0
 40
9.0
 40
9.0
 40
9.0
 40
10.0
 40
10.0
 40
10.0
 40
11.0
 40
11.0
 40
11.0
 40
12.0
 40
12.0
 40
12.0
 40
13.0
 40
13.0
 40
13.0
 40
14.0
 40
14.0
 40
14.0
 40
15.0
 40
15.0
 40
15.0
 40
15.0
 10
135.1287098361995
 20
197.085586112253
 10
135.1287098361995
 20
197.085586112253
 10
131.1398314888254
 20
197.085586112253
 10
131.1398314888254
 20
197.085586112253
 10
130.8215825234251
 20
197.0852852365525
 10
130.5637502370512
 20
196.8272483468635
 10
130.5637502370512
 20
196.5090477100751
 10
130.5637502370512
 20
196.5090477100751
 10
130.5637502370499
 20
194.2395344855828
 10
130.5637502370499
 20
194.2395344855828
 10
130.5637502370499
 20
194.2395344855828
 10
131.6208987890675
 20
194.2395344855828
 10
131.6208987890675
 20
194.2395344855828
 10
131.6208987890675
 20
194.2395344855828
 10
131.6208987890669
 20
196.0285988268165
 10
131.6208987890669
 20
196.0285988268165
 10
131.6208987890669
 20
196.0285988268165
 10
132.4567527178695
 20
196.0285988268159
 10
132.4567527178695
 20
196.0285988268159
 10
132.4567527178695
 20
196.0285988268159
 10
132.3718471423563
 20
194.2395344855825
 10
132.3718471423563
 20
194.2395344855825
 10
132.3718471423563
 20
194.2395344855825
 10
133.4268071259396
 20
194.2395344855828
 10
133.4268071259396
 20
194.2395344855828
 10
133.4268071259396
 20
194.2395344855828
 10
133.477167954455
 20
195.3001124767781
 10
133.477167954455
 20
195.3001124767781
 10
133.477167954455
 20
195.3001124767781
 10
133.4784541111378
 20
195.3020527446139
 10
133.4784541111378
 20
195.3020527446139
 10
133.4776315299262
 20
195.3014229138066
 10
133.4772026483545
 20
195.3007758719553
 10
133.4771678623411
 20
195.3001122163708
 10
133.4985595768423
 20
195.7082282772476
 10
133.8355887107499
 20
196.028267660194
 10
134.2443269669117
 20
196.0285985748097
 10
134.2443269669117
 20
196.0285985748097
 10
135.1287098361995
 20
196.0285985748097
 10
135.1287098361995
 20
196.0285985748097
 10
135.1287098361995
 20
196.0285985748097
 10
135.1287098361995
 20
197.085586112253
 10
135.1287098361995
 20
197.085586112253
 10
135.1287098361995
 20
197.085586112253
 10
135.1287098361995
 20
197.085586112253
 10
135.1287098361995
 20
197.085586112253
 97
        0
 97
        0
 92
        1
 93
        4
 72
     1
 10
133.4268071259396
 20
194.2395344855828
 11
132.3718471423569
 21
194.2395344855828
 72
     1
 10
132.3718471423569
 20
194.2395344855828
 11
132.238126903375
 21
191.4218854699699
 72
     1
 10
132.238126903375
 20
191.4218854699699
 11
133.2930129683472
 21
191.4218854699699
 72
     1
 10
133.2930129683472
 20
191.4218854699699
 11
133.4268071259396
 21
194.2395344855828
 97
        0
 92
        1
 93
        4
 72
     1
 10
133.2930129683472
 20
191.4218854699699
 11
132.238126903375
 21
191.4218854699699
 72
     1
 10
132.238126903375
 20
191.4218854699699
 11
132.1034161718609
 21
188.5833655650384
 72
     1
 10
132.1034161718609
 20
188.5833655650384
 11
133.1582277706922
 21
188.5833655650384
 72
     1
 10
133.1582277706922
 20
188.5833655650384
 11
133.2930129683472
 21
191.4218854699699
 97
        0
 92
        1
 93
       10
 72
     1
 10
133.1582277706922
 20
188.5833655650384
 11
132.1034161718609
 21
188.5833655650384
 72
     1
 10
132.1034161718609
 20
188.5833655650384
 11
131.9631640649246
 21
185.6280821011541
 72
     1
 10
131.9631640649246
 20
185.6280821011541
 11
131.6208987890669
 21
185.6280821011541
 72
     1
 10
131.6208987890669
 20
185.6280821011541
 11
131.6208987890669
 21
188.5833655650384
 72
     1
 10
131.6208987890669
 20
188.5833655650384
 11
130.5637502370531
 21
188.5833655650384
 72
     1
 10
130.5637502370531
 20
188.5833655650384
 11
130.5637502370531
 21
184.8593638879392
 72
     1
 10
130.5637502370531
 20
184.8593638879392
 11
130.8520634785102
 21
184.5710945579836
 72
     1
 10
130.8520634785102
 20
184.5710945579836
 11
132.6927615322814
 21
184.5710945579836
 72
     1
 10
132.6927615322814
 20
184.5710945579836
 11
132.9808138821444
 21
184.8471032542229
 72
     1
 10
132.9808138821444
 20
184.8471032542229
 11
133.1582277706922
 21
188.5833655650384
 97
        0
 92
        1
 93
        4
 72
     1
 10
131.6208987890669
 20
191.4218854699699
 11
130.5637502370531
 21
191.4218854699699
 72
     1
 10
130.5637502370531
 20
191.4218854699699
 11
130.5637502370531
 21
188.5833655650384
 72
     1
 10
130.5637502370531
 20
188.5833655650384
 11
131.6208987890669
 21
188.5833655650384
 72
     1
 10
131.6208987890669
 20
188.5833655650384
 11
131.6208987890669
 21
191.4218854699699
 97
        0
 92
        1
 93
        4
 72
     1
 10
131.6208987890669
 20
194.2395344855828
 11
130.5637502370531
 21
194.2395344855828
 72
     1
 10
130.5637502370531
 20
194.2395344855828
 11
130.5637502370531
 21
191.4218854699699
 72
     1
 10
130.5637502370531
 20
191.4218854699699
 11
131.6208987890669
 21
191.4218854699699
 72
     1
 10
131.6208987890669
 20
191.4218854699699
 11
131.6208987890669
 21
194.2395344855828
 97
        0
 75
     0
 76
     1
 98
        0
  0
ENDBLK
  5
308
330
305
100
AcDbEntity
  8
0
100
AcDbBlockEnd
  0
BLOCK
  5
336
330
334
100
AcDbEntity
  8
0
100
AcDbBlockBegin
  2
block 113
 70
     0
 10
0.0
 20
0.0
 30
0.0
  3
block 113
  1

  0
POLYLINE
  5
338
330
334
100
AcDbEntity
  8
PIEZA
 62
     7
420
 16777215
370
     9
100
AcDb2dPolyline
 66
     1
 10
0.0
 20
0.0
 30
0.0
  0
VERTEX
  5
339
330
338
100
AcDbEntity
  8
PIEZA
 62
     7
420
 16777215
370
     9
100
AcDbVertex
100
AcDb2dVertex
 10
132.9806796808855
 20
184.8442770318306
 30
0.0
  0
VERTEX
  5
33A
330
338
100
AcDbEntity
  8
PIEZA
 62
     7
420
 16777215
370
     9
100
AcDbVertex
100
AcDb2dVertex
 10
133.4771679477634
 20
195.3001123358462
 30
0.0
  0
SEQEND
  5
33B
330
338
100
AcDbEntity
  8
PIEZA
 62
     7
420
 16777215
370
     9
  0
ENDBLK
  5
337
330
334
100
AcDbEntity
  8
0
100
AcDbBlockEnd
  0
BLOCK
  5
33E
330
33C
100
AcDbEntity
  8
0
100
AcDbBlockBegin
  2
block 114
 70
     0
 10
0.0
 20
0.0
 30
0.0
  3
block 114
  1

  0
SPLINE
  5
340
330
33C
100
AcDbEntity
  8
PIEZA
 62
     7
420
 16777215
370
     9
100
AcDbSpline
210
0.0
220
0.0
230
1.0
 70
     8
 71
     3
 72
     8
 73
     4
 74
     0
 42
0.0000000001
 43
0.0000000001
 12
1.0
 22
0.0
 32
0.0
 13
1.0
 23
0.0
 33
0.0
 40
0.0
 40
0.0
 40
0.0
 40
0.0
 40
1.0
 40
1.0
 40
1.0
 40
1.0
 10
132.6927615322814
 20
184.5710945579836
 30
0.0
 10
132.8461286254956
 20
184.5710945579836
 30
0.0
 10
132.9726530369832
 20
184.6911434544963
 30
0.0
 10
132.9806796504632
 20
184.8442770369003
 30
0.0
  0
ENDBLK
  5
33F
330
33C
100
AcDbEntity
  8
0
100
AcDbBlockEnd
  0
BLOCK
  5
343
330
341
100
AcDbEntity
  8
0
100
AcDbBlockBegin
  2
block 115
 70
     0
 10
0.0
 20
0.0
 30
0.0
  3
block 115
  1

  0
POLYLINE
  5
345
330
341
100
AcDbEntity
  8
PIEZA
 62
     7
420
 16777215
370
     9
100
AcDb2dPolyline
 66
     1
 10
0.0
 20
0.0
 30
0.0
  0
VERTEX
  5
346
330
345
100
AcDbEntity
  8
PIEZA
 62
     7
420
 16777215
370
     9
100
AcDbVertex
100
AcDb2dVertex
 10
130.8520634810174
 20
184.5710945579833
 30
0.0
  0
VERTEX
  5
347
330
345
100
AcDbEntity
  8
PIEZA
 62
     7
420
 16777215
370
     9
100
AcDbVertex
100
AcDb2dVertex
 10
132.6927614637518
 20
184.5710945579833
 30
0.0
  0
SEQEND
  5
348
330
345
100
AcDbEntity
  8
PIEZA
 62
     7
420
 16777215
370
     9
  0
ENDBLK
  5
344
330
341
100
AcDbEntity
  8
0
100
AcDbBlockEnd
  0
BLOCK
  5
34B
330
349
100
AcDbEntity
  8
0
100
AcDbBlockBegin
  2
block 116
 70
     0
 10
0.0
 20
0.0
 30
0.0
  3
block 116
  1

  0
SPLINE
  5
34D
330
349
100
AcDbEntity
  8
PIEZA
 62
     7
420
 16777215
370
     9
100
AcDbSpline
210
0.0
220
0.0
230
1.0
 70
     8
 71
     3
 72
     8
 73
     4
 74
     0
 42
0.0000000001
 43
0.0000000001
 12
1.0
 22
0.0
 32
0.0
 13
1.0
 23
0.0
 33
0.0
 40
0.0
 40
0.0
 40
0.0
 40
0.0
 40
1.0
 40
1.0
 40
1.0
 40
1.0
 10
130.5637502370512
 20
184.8593638879392
 30
0.0
 10
130.5637502370512
 20
184.7001571331606
 30
0.0
 10
130.692832472078
 20
184.5710945579836
 30
0.0
 10
130.8520634785102
 20
184.5710945579836
 30
0.0
  0
ENDBLK
  5
34C
330
349
100
AcDbEntity
  8
0
100
AcDbBlockEnd
  0
BLOCK
  5
350
330
34E
100
AcDbEntity
  8
0
100
AcDbBlockBegin
  2
block 117
 70
     0
 10
0.0
 20
0.0
 30
0.0
  3
block 117
  1

  0
POLYLINE
  5
352
330
34E
100
AcDbEntity
  8
PIEZA
 62
     7
420
 16777215
370
     9
100
AcDb2dPolyline
 66
     1
 10
0.0
 20
0.0
 30
0.0
  0
VERTEX
  5
353
330
352
100
AcDbEntity
  8
PIEZA
 62
     7
420
 16777215
370
     9
100
AcDbVertex
100
AcDb2dVertex
 10
130.5637502370525
 20
184.8593638904451
 30
0.0
  0
VERTEX
  5
354
330
352
100
AcDbEntity
  8
PIEZA
 62
     7
420
 16777215
370
     9
100
AcDbVertex
100
AcDb2dVertex
 10
130.5637502370525
 20
196.5090477158022
 30
0.0
  0
SEQEND
  5
355
330
352
100
AcDbEntity
  8
PIEZA
 62
     7
420
 16777215
370
     9
  0
ENDBLK
  5
351
330
34E
100
AcDbEntity
  8
0
100
AcDbBlockEnd
  0
BLOCK
  5
358
330
356
100
AcDbEntity
  8
0
100
AcDbBlockBegin
  2
block 118
 70
     0
 10
0.0
 20
0.0
 30
0.0
  3
block 118
  1

  0
SPLINE
  5
35A
330
356
100
AcDbEntity
  8
PIEZA
 62
     7
420
 16777215
370
     9
100
AcDbSpline
210
0.0
220
0.0
230
1.0
 70
     8
 71
     3
 72
     8
 73
     4
 74
     0
 42
0.0000000001
 43
0.0000000001
 12
1.0
 22
0.0
 32
0.0
 13
1.0
 23
0.0
 33
0.0
 40
0.0
 40
0.0
 40
0.0
 40
0.0
 40
1.0
 40
1.0
 40
1.0
 40
1.0
 10
131.1403767199687
 20
197.0855863699863
 30
0.0
 10
130.8219147071049
 20
197.0855863699863
 30
0.0
 10
130.5637502370512
 20
196.8274612196321
 30
0.0
 10
130.5637502370512
 20
196.5090477100751
 30
0.0
  0
ENDBLK
  5
359
330
356
100
AcDbEntity
  8
0
100
AcDbBlockEnd
  0
BLOCK
  5
35D
330
35B
100
AcDbEntity
  8
0
100
AcDbBlockBegin
  2
block 119
 70
     0
 10
0.0
 20
0.0
 30
0.0
  3
block 119
  1

  0
POLYLINE
  5
35F
330
35B
100
AcDbEntity
  8
PIEZA
 62
     7
420
 16777215
370
     9
100
AcDb2dPolyline
 66
     1
 10
0.0
 20
0.0
 30
0.0
  0
VERTEX
  5
360
330
35F
100
AcDbEntity
  8
PIEZA
 62
     7
420
 16777215
370
     9
100
AcDbVertex
100
AcDb2dVertex
 10
131.1403767249822
 20
197.085586112253
 30
0.0
  0
VERTEX
  5
361
330
35F
100
AcDbEntity
  8
PIEZA
 62
     7
420
 16777215
370
     9
100
AcDbVertex
100
AcDb2dVertex
 10
135.1287098361995
 20
197.085586112253
 30
0.0
  0
SEQEND
  5
362
330
35F
100
AcDbEntity
  8
PIEZA
 62
     7
420
 16777215
370
     9
  0
ENDBLK
  5
35E
330
35B
100
AcDbEntity
  8
0
100
AcDbBlockEnd
  0
BLOCK
  5
365
330
363
100
AcDbEntity
  8
0
100
AcDbBlockBegin
  2
block 120
 70
     0
 10
0.0
 20
0.0
 30
0.0
  3
block 120
  1

  0
POLYLINE
  5
367
330
363
100
AcDbEntity
  8
PIEZA
 62
     7
420
 16777215
370
     9
100
AcDb2dPolyline
 66
     1
 10
0.0
 20
0.0
 30
0.0
  0
VERTEX
  5
368
330
367
100
AcDbEntity
  8
PIEZA
 62
     7
420
 16777215
370
     9
100
AcDbVertex
100
AcDb2dVertex
 10
135.1287098361995
 20
197.085586112253
 30
0.0
  0
VERTEX
  5
369
330
367
100
AcDbEntity
  8
PIEZA
 62
     7
420
 16777215
370
     9
100
AcDbVertex
100
AcDb2dVertex
 10
135.1287098361995
 20
196.0285985748097
 30
0.0
  0
SEQEND
  5
36A
330
367
100
AcDbEntity
  8
PIEZA
 62
     7
420
 16777215
370
     9
  0
ENDBLK
  5
366
330
363
100
AcDbEntity
  8
0
100
AcDbBlockEnd
  0
BLOCK
  5
36D
330
36B
100
AcDbEntity
  8
0
100
AcDbBlockBegin
  2
block 121
 70
     0
 10
0.0
 20
0.0
 30
0.0
  3
block 121
  1

  0
POLYLINE
  5
36F
330
36B
100
AcDbEntity
  8
PIEZA
 62
     7
420
 16777215
370
     9
100
AcDb2dPolyline
 66
     1
 10
0.0
 20
0.0
 30
0.0
  0
VERTEX
  5
370
330
36F
100
AcDbEntity
  8
PIEZA
 62
     7
420
 16777215
370
     9
100
AcDbVertex
100
AcDb2dVertex
 10
134.2449495617718
 20
196.0285985748097
 30
0.0
  0
VERTEX
  5
371
330
36F
100
AcDbEntity
  8
PIEZA
 62
     7
420
 16777215
370
     9
100
AcDbVertex
100
AcDb2dVertex
 10
135.1287098361995
 20
196.0285985748097
 30
0.0
  0
SEQEND
  5
372
330
36F
100
AcDbEntity
  8
PIEZA
 62
     7
420
 16777215
370
     9
  0
ENDBLK
  5
36E
330
36B
100
AcDbEntity
  8
0
100
AcDbBlockEnd
  0
BLOCK
  5
375
330
373
100
AcDbEntity
  8
0
100
AcDbBlockBegin
  2
block 122
 70
     0
 10
0.0
 20
0.0
 30
0.0
  3
block 122
  1

  0
SPLINE
  5
377
330
373
100
AcDbEntity
  8
PIEZA
 62
     7
420
 16777215
370
     9
100
AcDbSpline
210
0.0
220
0.0
230
1.0
 70
     8
 71
     3
 72
     8
 73
     4
 74
     0
 42
0.0000000001
 43
0.0000000001
 12
1.0
 22
0.0
 32
0.0
 13
1.0
 23
0.0
 33
0.0
 40
0.0
 40
0.0
 40
0.0
 40
0.0
 40
1.0
 40
1.0
 40
1.0
 40
1.0
 10
134.2449495108248
 20
196.0285988268159
 30
0.0
 10
133.8359705955867
 20
196.0285988268159
 30
0.0
 10
133.4985721649529
 20
195.708468436115
 30
0.0
 10
133.4771678623405
 20
195.3001122163714
 30
0.0
  0
ENDBLK
  5
376
330
373
100
AcDbEntity
  8
0
100
AcDbBlockEnd
  0
BLOCK
  5
37A
330
378
100
AcDbEntity
  8
0
100
AcDbBlockBegin
  2
block 123
 70
     0
 10
0.0
 20
0.0
 30
0.0
  3
block 123
  1

  0
POLYLINE
  5
37C
330
378
100
AcDbEntity
  8
PIEZA
 62
     7
420
 16777215
370
     9
100
AcDb2dPolyline
 66
     1
 10
0.0
 20
0.0
 30
0.0
  0
VERTEX
  5
37D
330
37C
100
AcDbEntity
  8
PIEZA
 62
     7
420
 16777215
370
     9
100
AcDbVertex
100
AcDb2dVertex
 10
138.492364692222
 20
196.0285985748097
 30
0.0
  0
VERTEX
  5
37E
330
37C
100
AcDbEntity
  8
PIEZA
 62
     7
420
 16777215
370
     9
100
AcDbVertex
100
AcDb2dVertex
 10
138.492364692222
 20
197.085586112253
 30
0.0
  0
SEQEND
  5
37F
330
37C
100
AcDbEntity
  8
PIEZA
 62
     7
420
 16777215
370
     9
  0
ENDBLK
  5
37B
330
378
100
AcDbEntity
  8
0
100
AcDbBlockEnd
  0
BLOCK
  5
382
330
380
100
AcDbEntity
  8
0
100
AcDbBlockBegin
  2
block 124
 70
     0
 10
0.0
 20
0.0
 30
0.0
  3
block 124
  1

  0
POLYLINE
  5
384
330
380
100
AcDbEntity
  8
PIEZA
 62
     7
420
 16777215
370
     9
100
AcDb2dPolyline
 66
     1
 10
0.0
 20
0.0
 30
0.0
  0
VERTEX
  5
385
330
384
100
AcDbEntity
  8
PIEZA
 62
     7
420
 16777215
370
     9
100
AcDbVertex
100
AcDb2dVertex
 10
138.492364692222
 20
196.0285985748097
 30
0.0
  0
VERTEX
  5
386
330
384
100
AcDbEntity
  8
PIEZA
 62
     7
420
 16777215
370
     9
100
AcDbVertex
100
AcDb2dVertex
 10
135.1287098361995
 20
196.0285985748097
 30
0.0
  0
SEQEND
  5
387
330
384
100
AcDbEntity
  8
PIEZA
 62
     7
420
 16777215
370
     9
  0
ENDBLK
  5
383
330
380
100
AcDbEntity
  8
0
100
AcDbBlockEnd
  0
BLOCK
  5
38A
330
388
100
AcDbEntity
  8
0
100
AcDbBlockBegin
  2
block 125
 70
     0
 10
0.0
 20
0.0
 30
0.0
  3
block 125
  1

  0
POLYLINE
  5
38C
330
388
100
AcDbEntity
  8
PIEZA
 62
     7
420
 16777215
370
     9
100
AcDb2dPolyline
 66
     1
 10
0.0
 20
0.0
 30
0.0
  0
VERTEX
  5
38D
330
38C
100
AcDbEntity
  8
PIEZA
 62
     7
420
 16777215
370
     9
100
AcDbVertex
100
AcDb2dVertex
 10
138.492364692222
 20
197.085586112253
 30
0.0
  0
VERTEX
  5
38E
330
38C
100
AcDbEntity
  8
PIEZA
 62
     7
420
 16777215
370
     9
100
AcDbVertex
100
AcDb2dVertex
 10
135.1287098361995
 20
197.085586112253
 30
0.0
  0
SEQEND
  5
38F
330
38C
100
AcDbEntity
  8
PIEZA
 62
     7
420
 16777215
370
     9
  0
ENDBLK
  5
38B
330
388
100
AcDbEntity
  8
0
100
AcDbBlockEnd
  0
BLOCK
  5
392
330
390
100
AcDbEntity
  8
0
100
AcDbBlockBegin
  2
block 126
 70
     0
 10
0.0
 20
0.0
 30
0.0
  3
block 126
  1

  0
SPLINE
  5
394
330
390
100
AcDbEntity
  8
PIEZA
 62
     7
420
 16777215
370
     9
100
AcDbSpline
210
0.0
220
0.0
230
1.0
 70
     8
 71
     3
 72
     8
 73
     4
 74
     0
 42
0.0000000001
 43
0.0000000001
 12
1.0
 22
0.0
 32
0.0
 13
1.0
 23
0.0
 33
0.0
 40
0.0
 40
0.0
 40
0.0
 40
0.0
 40
1.0
 40
1.0
 40
1.0
 40
1.0
 10
140.3469732775624
 20
196.8808155563503
 30
0.0
 10
140.2374111683381
 20
197.0106622220053
 30
0.0
 10
140.0761505575897
 20
197.0855863699863
 30
0.0
 10
139.9062413191708
 20
197.0855863699863
 30
0.0
  0
ENDBLK
  5
393
330
390
100
AcDbEntity
  8
0
100
AcDbBlockEnd
  0
BLOCK
  5
397
330
395
100
AcDbEntity
  8
0
100
AcDbBlockBegin
  2
block 127
 70
     0
 10
0.0
 20
0.0
 30
0.0
  3
block 127
  1

  0
POLYLINE
  5
399
330
395
100
AcDbEntity
  8
PIEZA
 62
     7
420
 16777215
370
     9
100
AcDb2dPolyline
 66
     1
 10
0.0
 20
0.0
 30
0.0
  0
VERTEX
  5
39A
330
399
100
AcDbEntity
  8
PIEZA
 62
     7
420
 16777215
370
     9
100
AcDbVertex
100
AcDb2dVertex
 10
140.8644346259477
 20
194.6283709986228
 30
0.0
  0
VERTEX
  5
39B
330
399
100
AcDbEntity
  8
PIEZA
 62
     7
420
 16777215
370
     9
100
AcDbVertex
100
AcDb2dVertex
 10
141.6724435491738
 20
195.3099455605773
 30
0.0
  0
SEQEND
  5
39C
330
399
100
AcDbEntity
  8
PIEZA
 62
     7
420
 16777215
370
     9
  0
ENDBLK
  5
398
330
395
100
AcDbEntity
  8
0
100
AcDbBlockEnd
  0
BLOCK
  5
39F
330
39D
100
AcDbEntity
  8
0
100
AcDbBlockBegin
  2
block 128
 70
     0
 10
0.0
 20
0.0
 30
0.0
  3
block 128
  1

  0
SPLINE
  5
3A1
330
39D
100
AcDbEntity
  8
PIEZA
 62
     7
420
 16777215
370
     9
100
AcDbSpline
210
0.0
220
0.0
230
1.0
 70
     8
 71
     3
 72
     8
 73
     4
 74
     0
 42
0.0000000001
 43
0.0000000001
 12
1.0
 22
0.0
 32
0.0
 13
1.0
 23
0.0
 33
0.0
 40
0.0
 40
0.0
 40
0.0
 40
0.0
 40
1.0
 40
1.0
 40
1.0
 40
1.0
 10
139.8269341180995
 20
195.8579564821195
 30
0.0
 10
139.7356323604128
 20
195.9661620368318
 30
0.0
 10
139.6012485181224
 20
196.0285988268165
 30
0.0
 10
139.4596574861066
 20
196.0285988268165
 30
0.0
  0
ENDBLK
  5
3A0
330
39D
100
AcDbEntity
  8
0
100
AcDbBlockEnd
  0
BLOCK
  5
3A4
330
3A2
100
AcDbEntity
  8
0
100
AcDbBlockBegin
  2
block 129
 70
     0
 10
0.0
 20
0.0
 30
0.0
  3
block 129
  1

  0
POLYLINE
  5
3A6
330
3A2
100
AcDbEntity
  8
PIEZA
 62
     7
420
 16777215
370
     9
100
AcDb2dPolyline
 66
     1
 10
0.0
 20
0.0
 30
0.0
  0
VERTEX
  5
3A7
330
3A6
100
AcDbEntity
  8
PIEZA
 62
     7
420
 16777215
370
     9
100
AcDbVertex
100
AcDb2dVertex
 10
138.492364692222
 20
196.0285985748097
 30
0.0
  0
VERTEX
  5
3A8
330
3A6
100
AcDbEntity
  8
PIEZA
 62
     7
420
 16777215
370
     9
100
AcDbVertex
100
AcDb2dVertex
 10
139.4596574558614
 20
196.0285985748097
 30
0.0
  0
SEQEND
  5
3A9
330
3A6
100
AcDbEntity
  8
PIEZA
 62
     7
420
 16777215
370
     9
  0
ENDBLK
  5
3A5
330
3A2
100
AcDbEntity
  8
0
100
AcDbBlockEnd
  0
BLOCK
  5
3AC
330
3AA
100
AcDbEntity
  8
0
100
AcDbBlockBegin
  2
block 130
 70
     0
 10
0.0
 20
0.0
 30
0.0
  3
block 130
  1

  0
POLYLINE
  5
3AE
330
3AA
100
AcDbEntity
  8
PIEZA
 62
     7
420
 16777215
370
     9
100
AcDb2dPolyline
 66
     1
 10
0.0
 20
0.0
 30
0.0
  0
VERTEX
  5
3AF
330
3AE
100
AcDbEntity
  8
PIEZA
 62
     7
420
 16777215
370
     9
100
AcDbVertex
100
AcDb2dVertex
 10
138.492364692222
 20
197.085586112253
 30
0.0
  0
VERTEX
  5
3B0
330
3AE
100
AcDbEntity
  8
PIEZA
 62
     7
420
 16777215
370
     9
100
AcDbVertex
100
AcDb2dVertex
 10
139.9062412183252
 20
197.085586112253
 30
0.0
  0
SEQEND
  5
3B1
330
3AE
100
AcDbEntity
  8
PIEZA
 62
     7
420
 16777215
370
     9
  0
ENDBLK
  5
3AD
330
3AA
100
AcDbEntity
  8
0
100
AcDbBlockEnd
  0
BLOCK
  5
3B4
330
3B2
100
AcDbEntity
  8
0
100
AcDbBlockBegin
  2
block 131
 70
     0
 10
0.0
 20
0.0
 30
0.0
  3
block 131
  1

  0
POLYLINE
  5
3B6
330
3B2
100
AcDbEntity
  8
PIEZA
 62
     7
420
 16777215
370
     9
100
AcDb2dPolyline
 66
     1
 10
0.0
 20
0.0
 30
0.0
  0
VERTEX
  5
3B7
330
3B6
100
AcDbEntity
  8
PIEZA
 62
     7
420
 16777215
370
     9
100
AcDbVertex
100
AcDb2dVertex
 10
140.3469735535482
 20
196.8808152030979
 30
0.0
  0
VERTEX
  5
3B8
330
3B6
100
AcDbEntity
  8
PIEZA
 62
     7
420
 16777215
370
     9
100
AcDbVertex
100
AcDb2dVertex
 10
141.6724435491738
 20
195.3099455605773
 30
0.0
  0
SEQEND
  5
3B9
330
3B6
100
AcDbEntity
  8
PIEZA
 62
     7
420
 16777215
370
     9
  0
ENDBLK
  5
3B5
330
3B2
100
AcDbEntity
  8
0
100
AcDbBlockEnd
  0
BLOCK
  5
3BC
330
3BA
100
AcDbEntity
  8
0
100
AcDbBlockBegin
  2
block 132
 70
     0
 10
0.0
 20
0.0
 30
0.0
  3
block 132
  1

  0
POLYLINE
  5
3BE
330
3BA
100
AcDbEntity
  8
PIEZA
 62
     7
420
 16777215
370
     9
100
AcDb2dPolyline
 66
     1
 10
0.0
 20
0.0
 30
0.0
  0
VERTEX
  5
3BF
330
3BE
100
AcDbEntity
  8
PIEZA
 62
     7
420
 16777215
370
     9
100
AcDbVertex
100
AcDb2dVertex
 10
139.8269340438639
 20
195.8579565084763
 30
0.0
  0
VERTEX
  5
3C0
330
3BE
100
AcDbEntity
  8
PIEZA
 62
     7
420
 16777215
370
     9
100
AcDbVertex
100
AcDb2dVertex
 10
140.8644346259477
 20
194.6283709986228
 30
0.0
  0
SEQEND
  5
3C1
330
3BE
100
AcDbEntity
  8
PIEZA
 62
     7
420
 16777215
370
     9
  0
ENDBLK
  5
3BD
330
3BA
100
AcDbEntity
  8
0
100
AcDbBlockEnd
  0
BLOCK
  5
3C4
330
3C2
100
AcDbEntity
  8
0
100
AcDbBlockBegin
  2
block 133
 70
     0
 10
0.0
 20
0.0
 30
0.0
  3
block 133
  1

  0
POLYLINE
  5
3C6
330
3C2
100
AcDbEntity
  8
PIEZA
 62
     7
420
 16777215
370
     9
100
AcDb2dPolyline
 66
     1
 10
0.0
 20
0.0
 30
0.0
  0
VERTEX
  5
3C7
330
3C6
100
AcDbEntity
  8
PIEZA
 62
     7
420
 16777215
370
     9
100
AcDbVertex
100
AcDb2dVertex
 10
141.6724435491738
 20
195.3099455605773
 30
0.0
  0
VERTEX
  5
3C8
330
3C6
100
AcDbEntity
  8
PIEZA
 62
     7
420
 16777215
370
     9
100
AcDbVertex
100
AcDb2dVertex
 10
141.683887915495
 20
195.2963816526228
 30
0.0
  0
VERTEX
  5
3C9
330
3C6
100
AcDbEntity
  8
PIEZA
 62
     7
420
 16777215
370
     9
100
AcDbVertex
100
AcDb2dVertex
 10
141.7179388971898
 20
195.2560264133336
 30
0.0
  0
VERTEX
  5
3CA
330
3C6
100
AcDbEntity
  8
PIEZA
 62
     7
420
 16777215
370
     9
100
AcDbVertex
100
AcDb2dVertex
 10
141.773759450884
 20
195.1898713983155
 30
0.0
  0
VERTEX
  5
3CB
330
3C6
100
AcDbEntity
  8
PIEZA
 62
     7
420
 16777215
370
     9
100
AcDbVertex
100
AcDb2dVertex
 10
141.8499733598432
 20
195.099546767941
 30
0.0
  0
VERTEX
  5
3CC
330
3C6
100
AcDbEntity
  8
PIEZA
 62
     7
420
 16777215
370
     9
100
AcDbVertex
100
AcDb2dVertex
 10
141.9447053318579
 20
194.9872761840971
 30
0.0
  0
VERTEX
  5
3CD
330
3C6
100
AcDbEntity
  8
PIEZA
 62
     7
420
 16777215
370
     9
100
AcDbVertex
100
AcDb2dVertex
 10
142.055621813161
 20
194.8558238317626
 30
0.0
  0
VERTEX
  5
3CE
330
3C6
100
AcDbEntity
  8
PIEZA
 62
     7
420
 16777215
370
     9
100
AcDbVertex
100
AcDb2dVertex
 10
142.1799925673288
 20
194.708427122094
 30
0.0
  0
VERTEX
  5
3CF
330
3C6
100
AcDbEntity
  8
PIEZA
 62
     7
420
 16777215
370
     9
100
AcDbVertex
100
AcDb2dVertex
 10
142.3147544022728
 20
194.5487157929424
 30
0.0
  0
VERTEX
  5
3D0
330
3C6
100
AcDbEntity
  8
PIEZA
 62
     7
420
 16777215
370
     9
100
AcDbVertex
100
AcDb2dVertex
 10
142.4565892179169
 20
194.3806209864261
 30
0.0
  0
VERTEX
  5
3D1
330
3C6
100
AcDbEntity
  8
PIEZA
 62
     7
420
 16777215
370
     9
100
AcDbVertex
100
AcDb2dVertex
 10
142.6020049179988
 20
194.2082828946547
 30
0.0
  0
VERTEX
  5
3D2
330
3C6
100
AcDbEntity
  8
PIEZA
 62
     7
420
 16777215
370
     9
100
AcDbVertex
100
AcDb2dVertex
 10
142.7474199020473
 20
194.0359455188079
 30
0.0
  0
VERTEX
  5
3D3
330
3C6
100
AcDbEntity
  8
PIEZA
 62
     7
420
 16777215
370
     9
100
AcDbVertex
100
AcDb2dVertex
 10
142.8892547176914
 20
193.867850712292
 30
0.0
  0
VERTEX
  5
3D4
330
3C6
100
AcDbEntity
  8
PIEZA
 62
     7
420
 16777215
370
     9
100
AcDbVertex
100
AcDb2dVertex
 10
143.0240165526353
 20
193.70813938314
 30
0.0
  0
VERTEX
  5
3D5
330
3C6
100
AcDbEntity
  8
PIEZA
 62
     7
420
 16777215
370
     9
100
AcDbVertex
100
AcDb2dVertex
 10
143.1483873068025
 20
193.5607426734714
 30
0.0
  0
VERTEX
  5
3D6
330
3C6
100
AcDbEntity
  8
PIEZA
 62
     7
420
 16777215
370
     9
100
AcDbVertex
100
AcDb2dVertex
 10
143.2593037881062
 20
193.4292903211372
 30
0.0
  0
VERTEX
  5
3D7
330
3C6
100
AcDbEntity
  8
PIEZA
 62
     7
420
 16777215
370
     9
100
AcDbVertex
100
AcDb2dVertex
 10
143.3540350440868
 20
193.3170197372927
 30
0.0
  0
VERTEX
  5
3D8
330
3C6
100
AcDbEntity
  8
PIEZA
 62
     7
420
 16777215
370
     9
100
AcDbVertex
100
AcDb2dVertex
 10
143.4302496690801
 20
193.2266951069185
 30
0.0
  0
VERTEX
  5
3D9
330
3C6
100
AcDbEntity
  8
PIEZA
 62
     7
420
 16777215
370
     9
100
AcDbVertex
100
AcDb2dVertex
 10
143.4860702227744
 20
193.1605400919004
 30
0.0
  0
VERTEX
  5
3DA
330
3C6
100
AcDbEntity
  8
PIEZA
 62
     7
420
 16777215
370
     9
100
AcDbVertex
100
AcDb2dVertex
 10
143.5201219205026
 20
193.1201841366865
 30
0.0
  0
VERTEX
  5
3DB
330
3C6
100
AcDbEntity
  8
PIEZA
 62
     7
420
 16777215
370
     9
100
AcDbVertex
100
AcDb2dVertex
 10
143.5315655707903
 20
193.1066209446571
 30
0.0
  0
SEQEND
  5
3DC
330
3C6
100
AcDbEntity
  8
PIEZA
 62
     7
420
 16777215
370
     9
  0
ENDBLK
  5
3C5
330
3C2
100
AcDbEntity
  8
0
100
AcDbBlockEnd
  0
BLOCK
  5
3DF
330
3DD
100
AcDbEntity
  8
0
100
AcDbBlockBegin
  2
block 134
 70
     0
 10
0.0
 20
0.0
 30
0.0
  3
block 134
  1

  0
POLYLINE
  5
3E1
330
3DD
100
AcDbEntity
  8
PIEZA
 62
     7
420
 16777215
370
     9
100
AcDb2dPolyline
 66
     1
 10
0.0
 20
0.0
 30
0.0
  0
VERTEX
  5
3E2
330
3E1
100
AcDbEntity
  8
PIEZA
 62
     7
420
 16777215
370
     9
100
AcDbVertex
100
AcDb2dVertex
 10
140.8644346259477
 20
194.6283709986228
 30
0.0
  0
VERTEX
  5
3E3
330
3E1
100
AcDbEntity
  8
PIEZA
 62
     7
420
 16777215
370
     9
100
AcDbVertex
100
AcDb2dVertex
 10
140.8758789922695
 20
194.614807806593
 30
0.0
  0
VERTEX
  5
3E4
330
3E1
100
AcDbEntity
  8
PIEZA
 62
     7
420
 16777215
370
     9
100
AcDbVertex
100
AcDb2dVertex
 10
140.9099306899971
 20
194.5744518513791
 30
0.0
  0
VERTEX
  5
3E5
330
3E1
100
AcDbEntity
  8
PIEZA
 62
     7
420
 16777215
370
     9
100
AcDbVertex
100
AcDb2dVertex
 10
140.9657505276579
 20
194.5082968363614
 30
0.0
  0
VERTEX
  5
3E6
330
3E1
100
AcDbEntity
  8
PIEZA
 62
     7
420
 16777215
370
     9
100
AcDbVertex
100
AcDb2dVertex
 10
141.0419651526512
 20
194.4179722059869
 30
0.0
  0
VERTEX
  5
3E7
330
3E1
100
AcDbEntity
  8
PIEZA
 62
     7
420
 16777215
370
     9
100
AcDbVertex
100
AcDb2dVertex
 10
141.1366971246652
 20
194.305701622143
 30
0.0
  0
VERTEX
  5
3E8
330
3E1
100
AcDbEntity
  8
PIEZA
 62
     7
420
 16777215
370
     9
100
AcDbVertex
100
AcDb2dVertex
 10
141.247613605969
 20
194.1742492698085
 30
0.0
  0
VERTEX
  5
3E9
330
3E1
100
AcDbEntity
  8
PIEZA
 62
     7
420
 16777215
370
     9
100
AcDbVertex
100
AcDb2dVertex
 10
141.3719836441027
 20
194.0268532760643
 30
0.0
  0
VERTEX
  5
3EA
330
3E1
100
AcDbEntity
  8
PIEZA
 62
     7
420
 16777215
370
     9
100
AcDbVertex
100
AcDb2dVertex
 10
141.5067454790467
 20
193.8671412309879
 30
0.0
  0
VERTEX
  5
3EB
330
3E1
100
AcDbEntity
  8
PIEZA
 62
     7
420
 16777215
370
     9
100
AcDbVertex
100
AcDb2dVertex
 10
141.6485802946908
 20
193.699046424472
 30
0.0
  0
VERTEX
  5
3EC
330
3E1
100
AcDbEntity
  8
PIEZA
 62
     7
420
 16777215
370
     9
100
AcDbVertex
100
AcDb2dVertex
 10
141.7939959947727
 20
193.5267090486249
 30
0.0
  0
VERTEX
  5
3ED
330
3E1
100
AcDbEntity
  8
PIEZA
 62
     7
420
 16777215
370
     9
100
AcDbVertex
100
AcDb2dVertex
 10
141.9394109788211
 20
193.3543709568538
 30
0.0
  0
VERTEX
  5
3EE
330
3E1
100
AcDbEntity
  8
PIEZA
 62
     7
420
 16777215
370
     9
100
AcDbVertex
100
AcDb2dVertex
 10
142.0812457944652
 20
193.1862768662622
 30
0.0
  0
VERTEX
  5
3EF
330
3E1
100
AcDbEntity
  8
PIEZA
 62
     7
420
 16777215
370
     9
100
AcDbVertex
100
AcDb2dVertex
 10
142.2160076294098
 20
193.0265648211859
 30
0.0
  0
VERTEX
  5
3F0
330
3E1
100
AcDbEntity
  8
PIEZA
 62
     7
420
 16777215
370
     9
100
AcDbVertex
100
AcDb2dVertex
 10
142.340378383577
 20
192.879168111517
 30
0.0
  0
VERTEX
  5
3F1
330
3E1
100
AcDbEntity
  8
PIEZA
 62
     7
420
 16777215
370
     9
100
AcDbVertex
100
AcDb2dVertex
 10
142.4512948648801
 20
192.7477157591825
 30
0.0
  0
VERTEX
  5
3F2
330
3E1
100
AcDbEntity
  8
PIEZA
 62
     7
420
 16777215
370
     9
100
AcDbVertex
100
AcDb2dVertex
 10
142.5460268368948
 20
192.6354451753386
 30
0.0
  0
VERTEX
  5
3F3
330
3E1
100
AcDbEntity
  8
PIEZA
 62
     7
420
 16777215
370
     9
100
AcDbVertex
100
AcDb2dVertex
 10
142.6222414618881
 20
192.5451205449641
 30
0.0
  0
VERTEX
  5
3F4
330
3E1
100
AcDbEntity
  8
PIEZA
 62
     7
420
 16777215
370
     9
100
AcDbVertex
100
AcDb2dVertex
 10
142.6780605835148
 20
192.478966245871
 30
0.0
  0
VERTEX
  5
3F5
330
3E1
100
AcDbEntity
  8
PIEZA
 62
     7
420
 16777215
370
     9
100
AcDbVertex
100
AcDb2dVertex
 10
142.712112281243
 20
192.4386102906568
 30
0.0
  0
VERTEX
  5
3F6
330
3E1
100
AcDbEntity
  8
PIEZA
 62
     7
420
 16777215
370
     9
100
AcDbVertex
100
AcDb2dVertex
 10
142.7235573635983
 20
192.4250463827026
 30
0.0
  0
SEQEND
  5
3F7
330
3E1
100
AcDbEntity
  8
PIEZA
 62
     7
420
 16777215
370
     9
  0
ENDBLK
  5
3E0
330
3DD
100
AcDbEntity
  8
0
100
AcDbBlockEnd
  0
BLOCK
  5
3FA
330
3F8
100
AcDbEntity
  8
0
100
AcDbBlockBegin
  2
block 135
 70
     0
 10
0.0
 20
0.0
 30
0.0
  3
block 135
  1

  0
POLYLINE
  5
3FC
330
3F8
100
AcDbEntity
  8
PIEZA
 62
     7
420
 16777215
370
     9
100
AcDb2dPolyline
 66
     1
 10
0.0
 20
0.0
 30
0.0
  0
VERTEX
  5
3FD
330
3FC
100
AcDbEntity
  8
PIEZA
 62
     7
420
 16777215
370
     9
100
AcDbVertex
100
AcDb2dVertex
 10
154.4937490833648
 20
186.0352620442835
 30
0.0
  0
VERTEX
  5
3FE
330
3FC
100
AcDbEntity
  8
PIEZA
 62
     7
420
 16777215
370
     9
100
AcDbVertex
100
AcDb2dVertex
 10
158.914551053607
 20
186.0352620442835
 30
0.0
  0
SEQEND
  5
3FF
330
3FC
100
AcDbEntity
  8
PIEZA
 62
     7
420
 16777215
370
     9
  0
ENDBLK
  5
3FB
330
3F8
100
AcDbEntity
  8
0
100
AcDbBlockEnd
  0
BLOCK
  5
402
330
400
100
AcDbEntity
  8
0
100
AcDbBlockBegin
  2
block 136
 70
     0
 10
0.0
 20
0.0
 30
0.0
  3
block 136
  1

  0
POLYLINE
  5
404
330
400
100
AcDbEntity
  8
PIEZA
 62
     7
420
 16777215
370
     9
100
AcDb2dPolyline
 66
     1
 10
0.0
 20
0.0
 30
0.0
  0
VERTEX
  5
405
330
404
100
AcDbEntity
  8
PIEZA
 62
     7
420
 16777215
370
     9
100
AcDbVertex
100
AcDb2dVertex
 10
154.4937490833648
 20
185.5548131717631
 30
0.0
  0
VERTEX
  5
406
330
404
100
AcDbEntity
  8
PIEZA
 62
     7
420
 16777215
370
     9
100
AcDbVertex
100
AcDb2dVertex
 10
158.914551053607
 20
185.5548131717631
 30
0.0
  0
SEQEND
  5
407
330
404
100
AcDbEntity
  8
PIEZA
 62
     7
420
 16777215
370
     9
  0
ENDBLK
  5
403
330
400
100
AcDbEntity
  8
0
100
AcDbBlockEnd
  0
BLOCK
  5
40A
330
408
100
AcDbEntity
  8
0
100
AcDbBlockBegin
  2
block 137
 70
     0
 10
0.0
 20
0.0
 30
0.0
  3
block 137
  1

  0
SPLINE
  5
40C
330
408
100
AcDbEntity
  8
PIEZA
 62
     7
420
 16777215
370
     9
100
AcDbSpline
210
0.0
220
0.0
230
1.0
 70
     8
 71
     3
 72
     8
 73
     4
 74
     0
 42
0.0000000001
 43
0.0000000001
 12
1.0
 22
0.0
 32
0.0
 13
1.0
 23
0.0
 33
0.0
 40
0.0
 40
0.0
 40
0.0
 40
0.0
 40
1.0
 40
1.0
 40
1.0
 40
1.0
 10
133.4784541111365
 20
195.3020527446139
 30
0.0
 10
133.4776315299256
 20
195.3014229138072
 30
0.0
 10
133.4772026483538
 20
195.3007758719553
 30
0.0
 10
133.4771678623411
 20
195.3001122163708
 30
0.0
  0
ENDBLK
  5
40B
330
408
100
AcDbEntity
  8
0
100
AcDbBlockEnd
  0
BLOCK
  5
40F
330
40D
100
AcDbEntity
  8
0
100
AcDbBlockBegin
  2
block 138
 70
     0
 10
0.0
 20
0.0
 30
0.0
  3
block 138
  1

  0
POLYLINE
  5
411
330
40D
100
AcDbEntity
  8
PIEZA
 62
     7
420
 16777215
370
     9
100
AcDb2dPolyline
 66
     1
 10
0.0
 20
0.0
 30
0.0
  0
VERTEX
  5
412
330
411
100
AcDbEntity
  8
PIEZA
 62
     7
420
 16777215
370
     9
100
AcDbVertex
100
AcDb2dVertex
 10
139.8269341181002
 20
195.8579564821195
 30
0.0
  0
VERTEX
  5
5B8
330
411
100
AcDbEntity
  8
0
100
AcDbVertex
100
AcDb2dVertex
 10
139.8269341181002
 20
195.8579564821195
 30
0.0
  0
SEQEND
  5
413
330
411
100
AcDbEntity
  8
PIEZA
 62
     7
420
 16777215
370
     9
  0
ENDBLK
  5
410
330
40D
100
AcDbEntity
  8
0
100
AcDbBlockEnd
  0
BLOCK
  5
416
330
414
100
AcDbEntity
  8
0
100
AcDbBlockBegin
  2
block 139
 70
     0
 10
0.0
 20
0.0
 30
0.0
  3
block 139
  1

  0
SPLINE
  5
418
330
414
100
AcDbEntity
  8
PIEZA
 62
     7
420
 16777215
370
     9
100
AcDbSpline
210
0.0
220
0.0
230
1.0
 70
     8
 71
     3
 72
     8
 73
     4
 74
     0
 42
0.0000000001
 43
0.0000000001
 12
1.0
 22
0.0
 32
0.0
 13
1.0
 23
0.0
 33
0.0
 40
0.0
 40
0.0
 40
0.0
 40
0.0
 40
1.0
 40
1.0
 40
1.0
 40
1.0
 10
139.8265309168998
 20
195.8581762973366
 30
0.0
 10
139.7352710305752
 20
195.966243821418
 30
0.0
 10
139.6010071455943
 20
196.0285943957527
 30
0.0
 10
139.4595486187388
 20
196.0285985748104
 30
0.0
  0
ENDBLK
  5
417
330
414
100
AcDbEntity
  8
0
100
AcDbBlockEnd
  0
BLOCK
  5
41B
330
419
100
AcDbEntity
  8
0
100
AcDbBlockBegin
  2
block 140
 70
     0
 10
0.0
 20
0.0
 30
0.0
  3
block 140
  1

  0
POLYLINE
  5
41D
330
419
100
AcDbEntity
  8
PIEZA
 62
     7
420
 16777215
370
     9
100
AcDb2dPolyline
 66
     1
 10
0.0
 20
0.0
 30
0.0
  0
VERTEX
  5
41E
330
41D
100
AcDbEntity
  8
PIEZA
 62
     7
420
 16777215
370
     9
100
AcDbVertex
100
AcDb2dVertex
 10
173.5183195962243
 20
184.5710945579833
 30
0.0
  0
VERTEX
  5
41F
330
41D
100
AcDbEntity
  8
PIEZA
 62
     7
420
 16777215
370
     9
100
AcDbVertex
100
AcDb2dVertex
 10
132.6927614637518
 20
184.5710945579833
 30
0.0
  0
SEQEND
  5
420
330
41D
100
AcDbEntity
  8
PIEZA
 62
     7
420
 16777215
370
     9
  0
ENDBLK
  5
41C
330
419
100
AcDbEntity
  8
0
100
AcDbBlockEnd
  0
BLOCK
  5
423
330
421
100
AcDbEntity
  8
0
100
AcDbBlockBegin
  2
block 141
 70
     0
 10
0.0
 20
0.0
 30
0.0
  3
block 141
  1

  0
SPLINE
  5
425
330
421
100
AcDbEntity
  8
PIEZA
 62
     7
420
 16777215
370
     9
100
AcDbSpline
210
0.0
220
0.0
230
1.0
 70
    24
 71
     3
 72
    50
 73
    46
 74
     0
 42
0.0000000001
 43
0.0000000001
 12
1.0
 22
0.0
 32
0.0
 13
1.0
 23
0.0
 33
0.0
 40
0.0
 40
0.0
 40
0.0
 40
0.0
 40
1.0
 40
1.0
 40
1.0
 40
2.0
 40
2.0
 40
2.0
 40
3.0
 40
3.0
 40
3.0
 40
4.0
 40
4.0
 40
4.0
 40
5.0
 40
5.0
 40
5.0
 40
6.0
 40
6.0
 40
6.0
 40
7.0
 40
7.0
 40
7.0
 40
8.0
 40
8.0
 40
8.0
 40
9.0
 40
9.0
 40
9.0
 40
10.0
 40
10.0
 40
10.0
 40
11.0
 40
11.0
 40
11.0
 40
12.0
 40
12.0
 40
12.0
 40
13.0
 40
13.0
 40
13.0
 40
14.0
 40
14.0
 40
14.0
 40
15.0
 40
15.0
 40
15.0
 40
15.0
 10
139.9062413191708
 20
197.085586369986
 30
0.0
 10
139.9062413191708
 20
197.085586369986
 30
0.0
 10
139.911318574882
 20
197.085586369986
 30
0.0
 10
139.9234002206143
 20
197.085586369986
 30
0.0
 10
139.9354818663473
 20
197.085586369986
 30
0.0
 10
139.9545307315466
 20
197.085586369986
 30
0.0
 10
139.9833592536129
 20
197.085586369986
 30
0.0
 10
139.997773514646
 20
197.085586369986
 30
0.0
 10
140.0146996210671
 20
197.085586369986
 30
0.0
 10
140.0344797684149
 20
197.085586369986
 30
0.0
 10
140.054259915762
 20
197.085586369986
 30
0.0
 10
140.0767200075963
 20
197.085586369986
 30
0.0
 10
140.1021861661918
 20
197.085586369986
 30
0.0
 10
140.1276523247872
 20
197.085586369986
 30
0.0
 10
140.1561220864688
 20
197.085586369986
 30
0.0
 10
140.187997935668
 20
197.085586369986
 30
0.0
 10
140.2039358602675
 20
197.085586369986
 30
0.0
 10
140.2207267087792
 20
197.085586369986
 30
0.0
 10
140.2384315594574
 20
197.085586369986
 30
0.0
 10
140.256136410135
 20
197.085586369986
 30
0.0
 10
140.2748206186837
 20
197.085586369986
 30
0.0
 10
140.2942135567297
 20
197.085586369986
 30
0.0
 10
140.3717853089161
 20
197.085586369986
 30
0.0
 10
140.461233361439
 20
197.085586369986
 30
0.0
 10
140.5633271130525
 20
197.085586369986
 30
0.0
 10
140.5888505509562
 20
197.085586369986
 30
0.0
 10
140.6151679979256
 20
197.085586369986
 30
0.0
 10
140.6422994384581
 20
197.085586369986
 30
0.0
 10
140.6694308789906
 20
197.085586369986
 30
0.0
 10
140.6973979084394
 20
197.085586369986
 30
0.0
 10
140.725709712647
 20
197.085586369986
 30
0.0
 10
140.7823333210617
 20
197.085586369986
 30
0.0
 10
140.8407845594409
 20
197.085586369986
 30
0.0
 10
140.9009199356272
 20
197.085586369986
 30
0.0
 10
140.9610553118141
 20
197.085586369986
 30
0.0
 10
141.0228758517803
 20
197.085586369986
 30
0.0
 10
141.0862674752112
 20
197.085586369986
 30
0.0
 10
141.1179632869266
 20
197.085586369986
 30
0.0
 10
141.1500785902273
 20
197.085586369986
 30
0.0
 10
141.1822162972423
 20
197.085586369986
 30
0.0
 10
141.2143540042566
 20
197.085586369986
 30
0.0
 10
141.2466025650553
 20
197.085586369986
 30
0.0
 10
141.2789535740631
 20
197.0855863699857
 30
0.0
 10
141.4083576100947
 20
197.085586369986
 30
0.0
 10
141.5393881872652
 20
197.085586369986
 30
0.0
 10
141.6716316889879
 20
197.085586369986
 30
0.0
  0
ENDBLK
  5
424
330
421
100
AcDbEntity
  8
0
100
AcDbBlockEnd
  0
BLOCK
  5
428
330
426
100
AcDbEntity
  8
0
100
AcDbBlockBegin
  2
block 142
 70
     0
 10
0.0
 20
0.0
 30
0.0
  3
block 142
  1

  0
SPLINE
  5
42A
330
426
100
AcDbEntity
  8
PIEZA
 62
     7
420
 16777215
370
     9
100
AcDbSpline
210
0.0
220
0.0
230
1.0
 70
    24
 71
     3
 72
    35
 73
    31
 74
     0
 42
0.0000000001
 43
0.0000000001
 12
1.0
 22
0.0
 32
0.0
 13
1.0
 23
0.0
 33
0.0
 40
0.0
 40
0.0
 40
0.0
 40
0.0
 40
1.0
 40
1.0
 40
1.0
 40
2.0
 40
2.0
 40
2.0
 40
3.0
 40
3.0
 40
3.0
 40
4.0
 40
4.0
 40
4.0
 40
5.0
 40
5.0
 40
5.0
 40
6.0
 40
6.0
 40
6.0
 40
7.0
 40
7.0
 40
7.0
 40
8.0
 40
8.0
 40
8.0
 40
9.0
 40
9.0
 40
9.0
 40
10.0
 40
10.0
 40
10.0
 40
10.0
 10
171.6818296984749
 20
197.085586112253
 30
0.0
 10
171.7589515007971
 20
197.085586112253
 30
0.0
 10
171.8360733031244
 20
197.085586112253
 30
0.0
 10
171.9126044896876
 20
197.085586112253
 30
0.0
 10
171.9905425771969
 20
197.085586112253
 30
0.0
 10
172.0678681343309
 20
197.085586112253
 30
0.0
 10
172.143379280901
 20
197.085586112253
 30
0.0
 10
172.2176859657395
 20
197.085586112253
 30
0.0
 10
172.2902356609074
 20
197.085586112253
 30
0.0
 10
172.3595298002172
 20
197.085586112253
 30
0.0
 10
172.4313749790163
 20
197.085586112253
 30
0.0
 10
172.4997204853423
 20
197.085586112253
 30
0.0
 10
172.5629148710703
 20
197.085586112253
 30
0.0
 10
172.6168541171278
 20
197.085586112253
 30
0.0
 10
172.6670405714128
 20
197.085586112253
 30
0.0
 10
172.7129210630802
 20
197.085586112253
 30
0.0
 10
172.760175355058
 20
197.085586112253
 30
0.0
 10
172.8028619567422
 20
197.085586112253
 30
0.0
 10
172.8408991949308
 20
197.085586112253
 30
0.0
 10
172.8881705233052
 20
197.085586112253
 30
0.0
 10
172.9282610792661
 20
197.085586112253
 30
0.0
 10
172.9618286912271
 20
197.085586112253
 30
0.0
 10
172.9963450215147
 20
197.085586112253
 30
0.0
 10
173.0239644825947
 20
197.085586112253
 30
0.0
 10
173.0462777035516
 20
197.085586112253
 30
0.0
 10
173.078620784498
 20
197.085586112253
 30
0.0
 10
173.0998151419993
 20
197.085586112253
 30
0.0
 10
173.1119179431443
 20
197.085586112253
 30
0.0
 10
173.124235901013
 20
197.085586112253
 30
0.0
 10
173.1271361802083
 20
197.085586112253
 30
0.0
 10
173.1300364594074
 20
197.085586112253
 30
0.0
  0
ENDBLK
  5
429
330
426
100
AcDbEntity
  8
0
100
AcDbBlockEnd
  0
BLOCK
  5
42D
330
42B
100
AcDbEntity
  8
0
100
AcDbBlockBegin
  2
block 143
 70
     0
 10
0.0
 20
0.0
 30
0.0
  3
block 143
  1

  0
POLYLINE
  5
42F
330
42B
100
AcDbEntity
  8
PIEZA
 62
     7
420
 16777215
370
     9
100
AcDb2dPolyline
 66
     1
 10
0.0
 20
0.0
 30
0.0
  0
VERTEX
  5
430
330
42F
100
AcDbEntity
  8
PIEZA
 62
     7
420
 16777215
370
     9
100
AcDbVertex
100
AcDb2dVertex
 10
141.6716315669798
 20
197.085586112253
 30
0.0
  0
VERTEX
  5
431
330
42F
100
AcDbEntity
  8
PIEZA
 62
     7
420
 16777215
370
     9
100
AcDbVertex
100
AcDb2dVertex
 10
171.6818296984749
 20
197.085586112253
 30
0.0
  0
SEQEND
  5
432
330
42F
100
AcDbEntity
  8
PIEZA
 62
     7
420
 16777215
370
     9
  0
ENDBLK
  5
42E
330
42B
100
AcDbEntity
  8
0
100
AcDbBlockEnd
  0
BLOCK
  5
435
330
433
100
AcDbEntity
  8
0
100
AcDbBlockBegin
  2
block 144
 70
     0
 10
0.0
 20
0.0
 30
0.0
  3
block 144
  1

  0
POLYLINE
  5
437
330
433
100
AcDbEntity
  8
PIEZA
 62
     7
420
 16777215
370
     9
100
AcDb2dPolyline
 66
     1
 10
0.0
 20
0.0
 30
0.0
  0
VERTEX
  5
438
330
437
100
AcDbEntity
  8
PIEZA
 62
     7
420
 16777215
370
     9
100
AcDbVertex
100
AcDb2dVertex
 10
131.9631640649246
 20
185.6280821011541
 30
0.0
  0
VERTEX
  5
439
330
437
100
AcDbEntity
  8
PIEZA
 62
     7
420
 16777215
370
     9
100
AcDbVertex
100
AcDb2dVertex
 10
132.4567527178689
 20
196.0285988268159
 30
0.0
  0
SEQEND
  5
43A
330
437
100
AcDbEntity
  8
PIEZA
 62
     7
420
 16777215
370
     9
  0
ENDBLK
  5
436
330
433
100
AcDbEntity
  8
0
100
AcDbBlockEnd
  0
BLOCK
  5
43D
330
43B
100
AcDbEntity
  8
0
100
AcDbBlockBegin
  2
block 145
 70
     0
 10
0.0
 20
0.0
 30
0.0
  3
block 145
  1

  0
POLYLINE
  5
43F
330
43B
100
AcDbEntity
  8
PIEZA
 62
     7
420
 16777215
370
     9
100
AcDb2dPolyline
 66
     1
 10
0.0
 20
0.0
 30
0.0
  0
VERTEX
  5
440
330
43F
100
AcDbEntity
  8
PIEZA
 62
     7
420
 16777215
370
     9
100
AcDbVertex
100
AcDb2dVertex
 10
131.6208987890669
 20
196.0285988268159
 30
0.0
  0
VERTEX
  5
441
330
43F
100
AcDbEntity
  8
PIEZA
 62
     7
420
 16777215
370
     9
100
AcDbVertex
100
AcDb2dVertex
 10
132.4567527178689
 20
196.0285988268159
 30
0.0
  0
SEQEND
  5
442
330
43F
100
AcDbEntity
  8
PIEZA
 62
     7
420
 16777215
370
     9
  0
ENDBLK
  5
43E
330
43B
100
AcDbEntity
  8
0
100
AcDbBlockEnd
  0
BLOCK
  5
445
330
443
100
AcDbEntity
  8
0
100
AcDbBlockBegin
  2
block 146
 70
     0
 10
0.0
 20
0.0
 30
0.0
  3
block 146
  1

  0
POLYLINE
  5
447
330
443
100
AcDbEntity
  8
PIEZA
 62
     7
420
 16777215
370
     9
100
AcDb2dPolyline
 66
     1
 10
0.0
 20
0.0
 30
0.0
  0
VERTEX
  5
448
330
447
100
AcDbEntity
  8
PIEZA
 62
     7
420
 16777215
370
     9
100
AcDbVertex
100
AcDb2dVertex
 10
131.6208987890669
 20
185.6280821011541
 30
0.0
  0
VERTEX
  5
449
330
447
100
AcDbEntity
  8
PIEZA
 62
     7
420
 16777215
370
     9
100
AcDbVertex
100
AcDb2dVertex
 10
131.6208987890669
 20
196.0285988268159
 30
0.0
  0
SEQEND
  5
44A
330
447
100
AcDbEntity
  8
PIEZA
 62
     7
420
 16777215
370
     9
  0
ENDBLK
  5
446
330
443
100
AcDbEntity
  8
0
100
AcDbBlockEnd
  0
BLOCK
  5
44D
330
44B
100
AcDbEntity
  8
0
100
AcDbBlockBegin
  2
block 147
 70
     0
 10
0.0
 20
0.0
 30
0.0
  3
block 147
  1

  0
POLYLINE
  5
44F
330
44B
100
AcDbEntity
  8
PIEZA
 62
     7
420
 16777215
370
     9
100
AcDb2dPolyline
 66
     1
 10
0.0
 20
0.0
 30
0.0
  0
VERTEX
  5
450
330
44F
100
AcDbEntity
  8
PIEZA
 62
     7
420
 16777215
370
     9
100
AcDbVertex
100
AcDb2dVertex
 10
131.6208987890669
 20
185.6280821011541
 30
0.0
  0
VERTEX
  5
451
330
44F
100
AcDbEntity
  8
PIEZA
 62
     7
420
 16777215
370
     9
100
AcDbVertex
100
AcDb2dVertex
 10
131.9631640649246
 20
185.6280821011541
 30
0.0
  0
SEQEND
  5
452
330
44F
100
AcDbEntity
  8
PIEZA
 62
     7
420
 16777215
370
     9
  0
ENDBLK
  5
44E
330
44B
100
AcDbEntity
  8
0
100
AcDbBlockEnd
  0
BLOCK
  5
455
330
453
100
AcDbEntity
  8
0
100
AcDbBlockBegin
  2
block 148
 70
     0
 10
0.0
 20
0.0
 30
0.0
  3
block 148
  1

  0
SPLINE
  5
457
330
453
100
AcDbEntity
  8
PIEZA
370
     0
100
AcDbSpline
210
0.0
220
0.0
230
1.0
 70
    11
 71
     3
 72
    32
 73
    28
 74
     0
 42
0.0000000001
 43
0.0000000001
 12
1.0
 22
0.0
 32
0.0
 13
1.0
 23
0.0
 33
0.0
 40
0.0
 40
0.0
 40
0.0
 40
0.0
 40
1.0
 40
1.0
 40
1.0
 40
2.0
 40
2.0
 40
2.0
 40
3.0
 40
3.0
 40
3.0
 40
4.0
 40
4.0
 40
4.0
 40
5.0
 40
5.0
 40
5.0
 40
6.0
 40
6.0
 40
6.0
 40
7.0
 40
7.0
 40
7.0
 40
8.0
 40
8.0
 40
8.0
 40
9.0
 40
9.0
 40
9.0
 40
9.0
 10
139.4596574861072
 20
196.0285988268159
 30
0.0
 10
139.6012485181224
 20
196.0285988268159
 30
0.0
 10
139.7356323604128
 20
195.9661620368318
 30
0.0
 10
139.8269341180995
 20
195.8579564821195
 30
0.0
 10
139.8269341180995
 20
195.8579564821195
 30
0.0
 10
140.8644346888451
 20
194.6283709011147
 30
0.0
 10
140.8644346888451
 20
194.6283709011147
 30
0.0
 10
140.8644346888451
 20
194.6283709011147
 30
0.0
 10
141.6724432792277
 20
195.3099452859529
 30
0.0
 10
141.6724432792277
 20
195.3099452859529
 30
0.0
 10
141.6724432792277
 20
195.3099452859529
 30
0.0
 10
140.3469732775611
 20
196.8808155563507
 30
0.0
 10
140.3469732775611
 20
196.8808155563507
 30
0.0
 10
140.2374111683374
 20
197.0106622220056
 30
0.0
 10
140.076150557589
 20
197.0855863699863
 30
0.0
 10
139.9062413191714
 20
197.0855863699863
 30
0.0
 10
139.9062413191714
 20
197.0855863699863
 30
0.0
 10
138.4923643771657
 20
197.085586369986
 30
0.0
 10
138.4923643771657
 20
197.085586369986
 30
0.0
 10
138.4923643771657
 20
197.085586369986
 30
0.0
 10
138.4923643771676
 20
196.0285988268152
 30
0.0
 10
138.4923643771676
 20
196.0285988268152
 30
0.0
 10
138.4923643771676
 20
196.0285988268152
 30
0.0
 10
139.4596574861092
 20
196.0285988268159
 30
0.0
 10
139.4596574861092
 20
196.0285988268159
 30
0.0
 10
139.4596574861092
 20
196.0285988268159
 30
0.0
 10
139.4596574861072
 20
196.0285988268159
 30
0.0
 10
139.4596574861072
 20
196.0285988268159
 30
0.0
  0
HATCH
  5
458
330
453
100
AcDbEntity
  8
PIEZA
 62
     7
420
 16777215
100
AcDbHatch
 10
0.0
 20
0.0
 30
0.0
210
0.0
220
0.0
230
1.0
  2
SOLID
 70
     1
 71
     0
 91
        1
 92
        1
 93
        1
 72
     4
 94
        3
 73
     0
 74
     1
 95
       32
 96
       28
 40
0.0
 40
0.0
 40
0.0
 40
0.0
 40
1.0
 40
1.0
 40
1.0
 40
2.0
 40
2.0
 40
2.0
 40
3.0
 40
3.0
 40
3.0
 40
4.0
 40
4.0
 40
4.0
 40
5.0
 40
5.0
 40
5.0
 40
6.0
 40
6.0
 40
6.0
 40
7.0
 40
7.0
 40
7.0
 40
8.0
 40
8.0
 40
8.0
 40
9.0
 40
9.0
 40
9.0
 40
9.0
 10
139.4596574861072
 20
196.0285988268159
 10
139.6012485181224
 20
196.0285988268159
 10
139.7356323604128
 20
195.9661620368318
 10
139.8269341180995
 20
195.8579564821195
 10
139.8269341180995
 20
195.8579564821195
 10
140.8644346888451
 20
194.6283709011147
 10
140.8644346888451
 20
194.6283709011147
 10
140.8644346888451
 20
194.6283709011147
 10
141.6724432792277
 20
195.3099452859529
 10
141.6724432792277
 20
195.3099452859529
 10
141.6724432792277
 20
195.3099452859529
 10
140.3469732775611
 20
196.8808155563507
 10
140.3469732775611
 20
196.8808155563507
 10
140.2374111683374
 20
197.0106622220056
 10
140.076150557589
 20
197.0855863699863
 10
139.9062413191714
 20
197.0855863699863
 10
139.9062413191714
 20
197.0855863699863
 10
138.4923643771657
 20
197.085586369986
 10
138.4923643771657
 20
197.085586369986
 10
138.4923643771657
 20
197.085586369986
 10
138.4923643771676
 20
196.0285988268152
 10
138.4923643771676
 20
196.0285988268152
 10
138.4923643771676
 20
196.0285988268152
 10
139.4596574861092
 20
196.0285988268159
 10
139.4596574861092
 20
196.0285988268159
 10
139.4596574861092
 20
196.0285988268159
 10
139.4596574861072
 20
196.0285988268159
 10
139.4596574861072
 20
196.0285988268159
 97
        0
 97
        0
 75
     0
 76
     1
 98
        0
  0
ENDBLK
  5
456
330
453
100
AcDbEntity
  8
0
100
AcDbBlockEnd
  0
BLOCK
  5
45B
330
459
100
AcDbEntity
  8
0
100
AcDbBlockBegin
  2
block 149
 70
     0
 10
0.0
 20
0.0
 30
0.0
  3
block 149
  1

  0
SPLINE
  5
45D
330
459
100
AcDbEntity
  8
PIEZA
370
     0
100
AcDbSpline
210
0.0
220
0.0
230
1.0
 70
    11
 71
     3
 72
    47
 73
    43
 74
     0
 42
0.0000000001
 43
0.0000000001
 12
1.0
 22
0.0
 32
0.0
 13
1.0
 23
0.0
 33
0.0
 40
0.0
 40
0.0
 40
0.0
 40
0.0
 40
1.0
 40
1.0
 40
1.0
 40
2.0
 40
2.0
 40
2.0
 40
3.0
 40
3.0
 40
3.0
 40
4.0
 40
4.0
 40
4.0
 40
5.0
 40
5.0
 40
5.0
 40
6.0
 40
6.0
 40
6.0
 40
7.0
 40
7.0
 40
7.0
 40
8.0
 40
8.0
 40
8.0
 40
9.0
 40
9.0
 40
9.0
 40
10.0
 40
10.0
 40
10.0
 40
11.0
 40
11.0
 40
11.0
 40
12.0
 40
12.0
 40
12.0
 40
13.0
 40
13.0
 40
13.0
 40
14.0
 40
14.0
 40
14.0
 40
14.0
 10
142.7235570735658
 20
192.4250467372215
 30
0.0
 10
142.7235570735658
 20
192.4250467372215
 30
0.0
 10
145.099475813635
 20
189.6092454675138
 30
0.0
 10
145.099475813635
 20
189.6092454675138
 30
0.0
 10
146.5325219268101
 20
187.9108821602073
 30
0.0
 10
148.5704383570352
 20
186.8368823625701
 30
0.0
 10
150.7816707152235
 20
186.614679011201
 30
0.0
 10
150.7816707152235
 20
186.614679011201
 30
0.0
 10
152.0511107217799
 20
186.4871149100133
 30
0.0
 10
152.0511107217799
 20
186.4871149100133
 30
0.0
 10
152.2431398179931
 20
186.4678181991109
 30
0.0
 10
152.4249096734386
 20
186.3911609651878
 30
0.0
 10
152.5727535723529
 20
186.2671240984302
 30
0.0
 10
152.5727535723529
 20
186.2671240984302
 30
0.0
 10
153.4217819893928
 20
185.5548131717631
 30
0.0
 10
153.4217819893928
 20
185.5548131717631
 30
0.0
 10
153.4217819893928
 20
185.5548131717631
 30
0.0
 10
154.493749278125
 20
185.5548131717631
 30
0.0
 10
154.493749278125
 20
185.5548131717631
 30
0.0
 10
154.493749278125
 20
185.5548131717631
 30
0.0
 10
154.4937492781231
 20
186.0352620550227
 30
0.0
 10
154.4937492781231
 20
186.0352620550227
 30
0.0
 10
154.4937492781231
 20
186.0352620550227
 30
0.0
 10
152.8211402374825
 20
187.4385339264691
 30
0.0
 10
152.8211402374825
 20
187.4385339264691
 30
0.0
 10
152.7915714577013
 20
187.4633412998209
 30
0.0
 10
152.7552174866118
 20
187.4786727466056
 30
0.0
 10
152.7168116673691
 20
187.4825320887863
 30
0.0
 10
152.7168116673691
 20
187.4825320887863
 30
0.0
 10
150.8873855664695
 20
187.6663683343357
 30
0.0
 10
150.8873855664695
 20
187.6663683343357
 30
0.0
 10
148.9494515855976
 20
187.8611083535694
 30
0.0
 10
147.1634124631081
 20
188.8023666062298
 30
0.0
 10
145.9074844054409
 20
190.2908198446545
 30
0.0
 10
145.9074844054409
 20
190.2908198446545
 30
0.0
 10
143.5315656639509
 20
193.1066211220605
 30
0.0
 10
143.5315656639509
 20
193.1066211220605
 30
0.0
 10
143.5315656639509
 20
193.1066211220605
 30
0.0
 10
142.7235570735677
 20
192.4250467372224
 30
0.0
 10
142.7235570735677
 20
192.4250467372224
 30
0.0
 10
142.7235570735677
 20
192.4250467372224
 30
0.0
 10
142.7235570735658
 20
192.4250467372215
 30
0.0
 10
142.7235570735658
 20
192.4250467372215
 30
0.0
  0
HATCH
  5
45E
330
459
100
AcDbEntity
  8
PIEZA
 62
     7
420
 16777215
100
AcDbHatch
 10
0.0
 20
0.0
 30
0.0
210
0.0
220
0.0
230
1.0
  2
SOLID
 70
     1
 71
     0
 91
        1
 92
        1
 93
        1
 72
     4
 94
        3
 73
     0
 74
     1
 95
       47
 96
       43
 40
0.0
 40
0.0
 40
0.0
 40
0.0
 40
1.0
 40
1.0
 40
1.0
 40
2.0
 40
2.0
 40
2.0
 40
3.0
 40
3.0
 40
3.0
 40
4.0
 40
4.0
 40
4.0
 40
5.0
 40
5.0
 40
5.0
 40
6.0
 40
6.0
 40
6.0
 40
7.0
 40
7.0
 40
7.0
 40
8.0
 40
8.0
 40
8.0
 40
9.0
 40
9.0
 40
9.0
 40
10.0
 40
10.0
 40
10.0
 40
11.0
 40
11.0
 40
11.0
 40
12.0
 40
12.0
 40
12.0
 40
13.0
 40
13.0
 40
13.0
 40
14.0
 40
14.0
 40
14.0
 40
14.0
 10
142.7235570735658
 20
192.4250467372215
 10
142.7235570735658
 20
192.4250467372215
 10
145.099475813635
 20
189.6092454675138
 10
145.099475813635
 20
189.6092454675138
 10
146.5325219268101
 20
187.9108821602073
 10
148.5704383570352
 20
186.8368823625701
 10
150.7816707152235
 20
186.614679011201
 10
150.7816707152235
 20
186.614679011201
 10
152.0511107217799
 20
186.4871149100133
 10
152.0511107217799
 20
186.4871149100133
 10
152.2431398179931
 20
186.4678181991109
 10
152.4249096734386
 20
186.3911609651878
 10
152.5727535723529
 20
186.2671240984302
 10
152.5727535723529
 20
186.2671240984302
 10
153.4217819893928
 20
185.5548131717631
 10
153.4217819893928
 20
185.5548131717631
 10
153.4217819893928
 20
185.5548131717631
 10
154.493749278125
 20
185.5548131717631
 10
154.493749278125
 20
185.5548131717631
 10
154.493749278125
 20
185.5548131717631
 10
154.4937492781231
 20
186.0352620550227
 10
154.4937492781231
 20
186.0352620550227
 10
154.4937492781231
 20
186.0352620550227
 10
152.8211402374825
 20
187.4385339264691
 10
152.8211402374825
 20
187.4385339264691
 10
152.7915714577013
 20
187.4633412998209
 10
152.7552174866118
 20
187.4786727466056
 10
152.7168116673691
 20
187.4825320887863
 10
152.7168116673691
 20
187.4825320887863
 10
150.8873855664695
 20
187.6663683343357
 10
150.8873855664695
 20
187.6663683343357
 10
148.9494515855976
 20
187.8611083535694
 10
147.1634124631081
 20
188.8023666062298
 10
145.9074844054409
 20
190.2908198446545
 10
145.9074844054409
 20
190.2908198446545
 10
143.5315656639509
 20
193.1066211220605
 10
143.5315656639509
 20
193.1066211220605
 10
143.5315656639509
 20
193.1066211220605
 10
142.7235570735677
 20
192.4250467372224
 10
142.7235570735677
 20
192.4250467372224
 10
142.7235570735677
 20
192.4250467372224
 10
142.7235570735658
 20
192.4250467372215
 10
142.7235570735658
 20
192.4250467372215
 97
        0
 97
        0
 75
     0
 76
     1
 98
        0
  0
ENDBLK
  5
45C
330
459
100
AcDbEntity
  8
0
100
AcDbBlockEnd
  0
BLOCK
  5
461
330
45F
100
AcDbEntity
  8
0
100
AcDbBlockBegin
  2
block 150
 70
     0
 10
0.0
 20
0.0
 30
0.0
  3
block 150
  1

  0
POLYLINE
  5
463
330
45F
100
AcDbEntity
  8
PIEZA
 62
     7
420
 16777215
370
     9
100
AcDb2dPolyline
 66
     1
 10
0.0
 20
0.0
 30
0.0
  0
VERTEX
  5
464
330
463
100
AcDbEntity
  8
PIEZA
 62
     7
420
 16777215
370
     9
100
AcDbVertex
100
AcDb2dVertex
 10
142.6020044715893
 20
194.2082832040072
 30
0.0
  0
VERTEX
  5
465
330
463
100
AcDbEntity
  8
PIEZA
 62
     7
420
 16777215
370
     9
100
AcDbVertex
100
AcDb2dVertex
 10
142.6020044715893
 20
194.2082832040072
 30
0.0
  0
SEQEND
  5
466
330
463
100
AcDbEntity
  8
PIEZA
 62
     7
420
 16777215
370
     9
  0
ENDBLK
  5
462
330
45F
100
AcDbEntity
  8
0
100
AcDbBlockEnd
  0
BLOCK
  5
469
330
467
100
AcDbEntity
  8
0
100
AcDbBlockBegin
  2
block 151
 70
     0
 10
0.0
 20
0.0
 30
0.0
  3
block 151
  1

  0
SPLINE
  5
46B
330
467
100
AcDbEntity
  8
PIEZA
 62
     7
420
 16777215
370
     9
100
AcDbSpline
210
0.0
220
0.0
230
1.0
 70
     8
 71
     3
 72
    29
 73
    25
 74
     0
 42
0.0000000001
 43
0.0000000001
 12
1.0
 22
0.0
 32
0.0
 13
1.0
 23
0.0
 33
0.0
 40
0.0
 40
0.0
 40
0.0
 40
0.0
 40
1.0
 40
1.0
 40
1.0
 40
2.0
 40
2.0
 40
2.0
 40
3.0
 40
3.0
 40
3.0
 40
4.0
 40
4.0
 40
4.0
 40
5.0
 40
5.0
 40
5.0
 40
6.0
 40
6.0
 40
6.0
 40
7.0
 40
7.0
 40
7.0
 40
8.0
 40
8.0
 40
8.0
 40
8.0
 10
164.3074240132263
 20
184.5710945579833
 30
0.0
 10
164.1605818203296
 20
184.893487674527
 30
0.0
 10
164.0137396274316
 20
185.2158807910701
 30
0.0
 10
163.8668974345368
 20
185.5382739076138
 30
0.0
 10
163.8643862514843
 20
185.543787228509
 30
0.0
 10
163.8618750684325
 20
185.5493005494042
 30
0.0
 10
163.8593634007862
 20
185.5548131717631
 30
0.0
 10
163.0070022700253
 20
187.4255802038249
 30
0.0
 10
162.0988325745749
 20
189.2158999052473
 30
0.0
 10
160.6148016442764
 20
190.1761230181233
 30
0.0
 10
159.2102442120418
 20
191.0849238269602
 30
0.0
 10
157.2898516170185
 20
191.2501548607028
 30
0.0
 10
155.3773557542485
 20
191.4261711600712
 30
0.0
 10
154.5373904900571
 20
191.503477250128
 30
0.0
 10
153.6989484683986
 20
191.5828637672274
 30
0.0
 10
153.0998961824757
 20
192.0632333187218
 30
0.0
 10
152.5007378467867
 20
192.5436879096694
 30
0.0
 10
152.1410540122982
 20
193.4252675190152
 30
0.0
 10
152.172347788602
 20
194.2387760634231
 30
0.0
 10
152.1976923101754
 20
194.8976286305811
 30
0.0
 10
152.4794876775679
 20
195.5118318835656
 30
0.0
 10
152.5632044690222
 20
196.1138482763443
 30
0.0
 10
152.6087145046436
 20
196.441115805405
 30
0.0
 10
152.5956880464644
 20
196.7647818542779
 30
0.0
 10
152.5361476005853
 20
197.085586112253
 30
0.0
  0
ENDBLK
  5
46A
330
467
100
AcDbEntity
  8
0
100
AcDbBlockEnd
  0
BLOCK
  5
46F
330
46D
100
AcDbEntity
  8
0
100
AcDbBlockBegin
  2
block 152
 70
     0
 10
0.0
 20
0.0
 30
0.0
  3
block 152
  1

  0
POLYLINE
  5
471
330
46D
100
AcDbEntity
  8
Eixos
  6
AI-Linetype-1
 62
     7
420
 16777215
370
     9
100
AcDb2dPolyline
 66
     1
 10
0.0
 20
0.0
 30
0.0
  0
VERTEX
  5
472
330
471
100
AcDbEntity
  8
Eixos
  6
AI-Linetype-1
 62
     7
420
 16777215
370
     9
100
AcDbVertex
100
AcDb2dVertex
 10
156.7041507959763
 20
188.7669982010015
 30
0.0
  0
VERTEX
  5
473
330
471
100
AcDbEntity
  8
Eixos
  6
AI-Linetype-1
 62
     7
420
 16777215
370
     9
100
AcDbVertex
100
AcDb2dVertex
 10
156.7041507959763
 20
183.5027759861097
 30
0.0
  0
SEQEND
  5
475
330
471
100
AcDbEntity
  8
Eixos
  6
AI-Linetype-1
 62
     7
420
 16777215
370
     9
  0
ENDBLK
  5
470
330
46D
100
AcDbEntity
  8
0
100
AcDbBlockEnd
  0
BLOCK
  5
478
330
476
100
AcDbEntity
  8
0
100
AcDbBlockBegin
  2
block 153
 70
     0
 10
0.0
 20
0.0
 30
0.0
  3
block 153
  1

  0
POLYLINE
  5
47A
330
476
100
AcDbEntity
  8
Eixos
  6
AI-Linetype-2
 62
     7
420
 16777215
370
     9
100
AcDb2dPolyline
 66
     1
 10
0.0
 20
0.0
 30
0.0
  0
VERTEX
  5
47B
330
47A
100
AcDbEntity
  8
Eixos
  6
AI-Linetype-2
 62
     7
420
 16777215
370
     9
100
AcDbVertex
100
AcDb2dVertex
 10
85.5491086953352
 20
110.2868124563847
 30
0.0
  0
VERTEX
  5
47C
330
47A
100
AcDbEntity
  8
Eixos
  6
AI-Linetype-2
 62
     7
420
 16777215
370
     9
100
AcDbVertex
100
AcDb2dVertex
 10
72.32004597660041
 20
110.2868124563847
 30
0.0
  0
SEQEND
  5
47E
330
47A
100
AcDbEntity
  8
Eixos
  6
AI-Linetype-2
 62
     7
420
 16777215
370
     9
  0
ENDBLK
  5
479
330
476
100
AcDbEntity
  8
0
100
AcDbBlockEnd
  0
BLOCK
  5
481
330
47F
100
AcDbEntity
  8
0
100
AcDbBlockBegin
  2
block 154
 70
     0
 10
0.0
 20
0.0
 30
0.0
  3
block 154
  1

  0
POLYLINE
  5
483
330
47F
100
AcDbEntity
  8
Eixos
  6
AI-Linetype-3
 62
     7
420
 16777215
370
     9
100
AcDb2dPolyline
 66
     1
 10
0.0
 20
0.0
 30
0.0
  0
VERTEX
  5
484
330
483
100
AcDbEntity
  8
Eixos
  6
AI-Linetype-3
 62
     7
420
 16777215
370
     9
100
AcDbVertex
100
AcDb2dVertex
 10
78.93457733596925
 20
117.0992600105775
 30
0.0
  0
VERTEX
  5
485
330
483
100
AcDbEntity
  8
Eixos
  6
AI-Linetype-3
 62
     7
420
 16777215
370
     9
100
AcDbVertex
100
AcDb2dVertex
 10
78.93457733596925
 20
103.6732885221812
 30
0.0
  0
SEQEND
  5
487
330
483
100
AcDbEntity
  8
Eixos
  6
AI-Linetype-3
 62
     7
420
 16777215
370
     9
  0
ENDBLK
  5
482
330
47F
100
AcDbEntity
  8
0
100
AcDbBlockEnd
  0
BLOCK
  5
48B
330
489
100
AcDbEntity
  8
0
100
AcDbBlockBegin
  2
block 155
 70
     0
 10
0.0
 20
0.0
 30
0.0
  3
block 155
  1

  0
POLYLINE
  5
48D
330
489
100
AcDbEntity
  8
COTAS
 62
     7
420
 16777215
370
     9
100
AcDb2dPolyline
 66
     1
 10
0.0
 20
0.0
 30
0.0
  0
VERTEX
  5
48E
330
48D
100
AcDbEntity
  8
COTAS
 62
     7
420
 16777215
370
     9
100
AcDbVertex
100
AcDb2dVertex
 10
130.5637502370525
 20
184.8593638904451
 30
0.0
  0
VERTEX
  5
48F
330
48D
100
AcDbEntity
  8
COTAS
 62
     7
420
 16777215
370
     9
100
AcDbVertex
100
AcDb2dVertex
 10
130.5637502370525
 20
176.8111961634524
 30
0.0
  0
SEQEND
  5
490
330
48D
100
AcDbEntity
  8
COTAS
 62
     7
420
 16777215
370
     9
  0
ENDBLK
  5
48C
330
489
100
AcDbEntity
  8
0
100
AcDbBlockEnd
  0
BLOCK
  5
493
330
491
100
AcDbEntity
  8
0
100
AcDbBlockBegin
  2
block 156
 70
     0
 10
0.0
 20
0.0
 30
0.0
  3
block 156
  1

  0
POLYLINE
  5
495
330
491
100
AcDbEntity
  8
COTAS
 62
     7
420
 16777215
370
     9
100
AcDb2dPolyline
 66
     1
 10
0.0
 20
0.0
 30
0.0
  0
VERTEX
  5
496
330
495
100
AcDbEntity
  8
COTAS
 62
     7
420
 16777215
370
     9
100
AcDbVertex
100
AcDb2dVertex
 10
156.7041507959763
 20
183.5027759861097
 30
0.0
  0
VERTEX
  5
497
330
495
100
AcDbEntity
  8
COTAS
 62
     7
420
 16777215
370
     9
100
AcDbVertex
100
AcDb2dVertex
 10
156.7041507959763
 20
176.8111961634524
 30
0.0
  0
SEQEND
  5
498
330
495
100
AcDbEntity
  8
COTAS
 62
     7
420
 16777215
370
     9
  0
ENDBLK
  5
494
330
491
100
AcDbEntity
  8
0
100
AcDbBlockEnd
  0
BLOCK
  5
49B
330
499
100
AcDbEntity
  8
0
100
AcDbBlockBegin
  2
block 157
 70
     0
 10
0.0
 20
0.0
 30
0.0
  3
block 157
  1

  0
POLYLINE
  5
49D
330
499
100
AcDbEntity
  8
COTAS
 62
     7
420
 16777215
370
     9
100
AcDb2dPolyline
 66
     1
 10
0.0
 20
0.0
 30
0.0
  0
VERTEX
  5
49E
330
49D
100
AcDbEntity
  8
COTAS
 62
     7
420
 16777215
370
     9
100
AcDbVertex
100
AcDb2dVertex
 10
133.9274047207374
 20
178.2525428132301
 30
0.0
  0
VERTEX
  5
49F
330
49D
100
AcDbEntity
  8
COTAS
 62
     7
420
 16777215
370
     9
100
AcDbVertex
100
AcDb2dVertex
 10
153.3404963122913
 20
178.2525428132301
 30
0.0
  0
SEQEND
  5
4A0
330
49D
100
AcDbEntity
  8
COTAS
 62
     7
420
 16777215
370
     9
  0
ENDBLK
  5
49C
330
499
100
AcDbEntity
  8
0
100
AcDbBlockEnd
  0
BLOCK
  5
4A3
330
4A1
100
AcDbEntity
  8
0
100
AcDbBlockBegin
  2
block 158
 70
     0
 10
0.0
 20
0.0
 30
0.0
  3
block 158
  1

  0
POLYLINE
  5
4A5
330
4A1
100
AcDbEntity
  8
COTAS
370
     0
100
AcDb2dPolyline
 66
     1
 10
0.0
 20
0.0
 30
0.0
  0
VERTEX
  5
4A6
330
4A5
100
AcDbEntity
  8
COTAS
370
     0
100
AcDbVertex
100
AcDb2dVertex
 10
133.9274047207374
 20
178.8130665103659
 30
0.0
  0
VERTEX
  5
4A7
330
4A5
100
AcDbEntity
  8
COTAS
370
     0
100
AcDbVertex
100
AcDb2dVertex
 10
130.5637502370525
 20
178.2525428132301
 30
0.0
  0
VERTEX
  5
4A8
330
4A5
100
AcDbEntity
  8
COTAS
370
     0
100
AcDbVertex
100
AcDb2dVertex
 10
133.9274047207374
 20
177.6920191160943
 30
0.0
  0
VERTEX
  5
4A9
330
4A5
100
AcDbEntity
  8
COTAS
370
     0
100
AcDbVertex
100
AcDb2dVertex
 10
133.9274047207374
 20
178.8130665103659
 30
0.0
  0
SEQEND
  5
4AB
330
4A5
100
AcDbEntity
  8
COTAS
370
     0
  0
HATCH
  5
4AA
330
4A1
100
AcDbEntity
  8
COTAS
 62
     7
420
 16777215
100
AcDbHatch
 10
0.0
 20
0.0
 30
0.0
210
0.0
220
0.0
230
1.0
  2
SOLID
 70
     1
 71
     0
 91
        1
 92
        1
 93
        3
 72
     1
 10
133.9274047207374
 20
178.8130665103659
 11
130.5637502370525
 21
178.2525428132301
 72
     1
 10
130.5637502370525
 20
178.2525428132301
 11
133.9274047207374
 21
177.6920191160943
 72
     1
 10
133.9274047207374
 20
177.6920191160943
 11
133.9274047207374
 21
178.8130665103659
 97
        0
 75
     2
 76
     1
 98
        0
  0
ENDBLK
  5
4A4
330
4A1
100
AcDbEntity
  8
0
100
AcDbBlockEnd
  0
BLOCK
  5
4AE
330
4AC
100
AcDbEntity
  8
0
100
AcDbBlockBegin
  2
block 159
 70
     0
 10
0.0
 20
0.0
 30
0.0
  3
block 159
  1

  0
POLYLINE
  5
4B0
330
4AC
100
AcDbEntity
  8
COTAS
370
     0
100
AcDb2dPolyline
 66
     1
 10
0.0
 20
0.0
 30
0.0
  0
VERTEX
  5
4B1
330
4B0
100
AcDbEntity
  8
COTAS
370
     0
100
AcDbVertex
100
AcDb2dVertex
 10
153.3404963122913
 20
178.8130665103659
 30
0.0
  0
VERTEX
  5
4B2
330
4B0
100
AcDbEntity
  8
COTAS
370
     0
100
AcDbVertex
100
AcDb2dVertex
 10
156.7041507959763
 20
178.2525428132301
 30
0.0
  0
VERTEX
  5
4B3
330
4B0
100
AcDbEntity
  8
COTAS
370
     0
100
AcDbVertex
100
AcDb2dVertex
 10
153.3404963122913
 20
177.6920191160943
 30
0.0
  0
VERTEX
  5
4B4
330
4B0
100
AcDbEntity
  8
COTAS
370
     0
100
AcDbVertex
100
AcDb2dVertex
 10
153.3404963122913
 20
178.8130665103659
 30
0.0
  0
SEQEND
  5
4B6
330
4B0
100
AcDbEntity
  8
COTAS
370
     0
  0
HATCH
  5
4B5
330
4AC
100
AcDbEntity
  8
COTAS
 62
     7
420
 16777215
100
AcDbHatch
 10
0.0
 20
0.0
 30
0.0
210
0.0
220
0.0
230
1.0
  2
SOLID
 70
     1
 71
     0
 91
        1
 92
        1
 93
        3
 72
     1
 10
153.3404963122913
 20
178.8130665103659
 11
156.7041507959763
 21
178.2525428132301
 72
     1
 10
156.7041507959763
 20
178.2525428132301
 11
153.3404963122913
 21
177.6920191160943
 72
     1
 10
153.3404963122913
 20
177.6920191160943
 11
153.3404963122913
 21
178.8130665103659
 97
        0
 75
     2
 76
     1
 98
        0
  0
ENDBLK
  5
4AF
330
4AC
100
AcDbEntity
  8
0
100
AcDbBlockEnd
  0
BLOCK
  5
4B9
330
4B7
100
AcDbEntity
  8
0
100
AcDbBlockBegin
  2
block 160
 70
     0
 10
0.0
 20
0.0
 30
0.0
  3
block 160
  1

  0
MTEXT
  5
4BB
330
4B7
100
AcDbEntity
  8
COTAS
 62
     7
420
 16777215
100
AcDbMText
 10
140.8769522420703
 20
179.2183565327508
 30
0.0
 40
2.402243420826848
 41
0.0
 46
0.0
 71
     7
 72
     1
  1
\fArial|b1|i0|c0|p34;\W1.00015;272
 73
     1
 44
1.0
  0
ENDBLK
  5
4BA
330
4B7
100
AcDbEntity
  8
0
100
AcDbBlockEnd
  0
BLOCK
  5
4BE
330
4BC
100
AcDbEntity
  8
0
100
AcDbBlockBegin
  2
block 161
 70
     0
 10
0.0
 20
0.0
 30
0.0
  3
block 161
  1

  0
POLYLINE
  5
4C0
330
4BC
100
AcDbEntity
  8
COTAS
 62
     7
420
 16777215
370
     9
100
AcDb2dPolyline
 66
     1
 10
0.0
 20
0.0
 30
0.0
  0
VERTEX
  5
4C1
330
4C0
100
AcDbEntity
  8
COTAS
 62
     7
420
 16777215
370
     9
100
AcDbVertex
100
AcDb2dVertex
 10
50.77250843412298
 20
136.4675942285483
 30
0.0
  0
VERTEX
  5
4C2
330
4C0
100
AcDbEntity
  8
COTAS
 62
     7
420
 16777215
370
     9
100
AcDbVertex
100
AcDb2dVertex
 10
37.90735165917044
 20
136.4675942285483
 30
0.0
  0
SEQEND
  5
4C3
330
4C0
100
AcDbEntity
  8
COTAS
 62
     7
420
 16777215
370
     9
  0
ENDBLK
  5
4BF
330
4BC
100
AcDbEntity
  8
0
100
AcDbBlockEnd
  0
BLOCK
  5
4C6
330
4C4
100
AcDbEntity
  8
0
100
AcDbBlockBegin
  2
block 162
 70
     0
 10
0.0
 20
0.0
 30
0.0
  3
block 162
  1

  0
POLYLINE
  5
4C8
330
4C4
100
AcDbEntity
  8
COTAS
 62
     7
420
 16777215
370
     9
100
AcDb2dPolyline
 66
     1
 10
0.0
 20
0.0
 30
0.0
  0
VERTEX
  5
4C9
330
4C8
100
AcDbEntity
  8
COTAS
 62
     7
420
 16777215
370
     9
100
AcDbVertex
100
AcDb2dVertex
 10
50.54388319418972
 20
93.03501518191028
 30
0.0
  0
VERTEX
  5
4CA
330
4C8
100
AcDbEntity
  8
COTAS
 62
     7
420
 16777215
370
     9
100
AcDbVertex
100
AcDb2dVertex
 10
37.90735165917044
 20
93.03501518191028
 30
0.0
  0
SEQEND
  5
4CB
330
4C8
100
AcDbEntity
  8
COTAS
 62
     7
420
 16777215
370
     9
  0
ENDBLK
  5
4C7
330
4C4
100
AcDbEntity
  8
0
100
AcDbBlockEnd
  0
BLOCK
  5
4CE
330
4CC
100
AcDbEntity
  8
0
100
AcDbBlockBegin
  2
block 163
 70
     0
 10
0.0
 20
0.0
 30
0.0
  3
block 163
  1

  0
POLYLINE
  5
4D0
330
4CC
100
AcDbEntity
  8
COTAS
 62
     7
420
 16777215
370
     9
100
AcDb2dPolyline
 66
     1
 10
0.0
 20
0.0
 30
0.0
  0
VERTEX
  5
4D1
330
4D0
100
AcDbEntity
  8
COTAS
 62
     7
420
 16777215
370
     9
100
AcDbVertex
100
AcDb2dVertex
 10
39.34891786646415
 20
133.1044520457336
 30
0.0
  0
VERTEX
  5
4D2
330
4D0
100
AcDbEntity
  8
COTAS
 62
     7
420
 16777215
370
     9
100
AcDbVertex
100
AcDb2dVertex
 10
39.34891786646415
 20
96.398157364725
 30
0.0
  0
SEQEND
  5
4D3
330
4D0
100
AcDbEntity
  8
COTAS
 62
     7
420
 16777215
370
     9
  0
ENDBLK
  5
4CF
330
4CC
100
AcDbEntity
  8
0
100
AcDbBlockEnd
  0
BLOCK
  5
4D6
330
4D4
100
AcDbEntity
  8
0
100
AcDbBlockBegin
  2
block 164
 70
     0
 10
0.0
 20
0.0
 30
0.0
  3
block 164
  1

  0
POLYLINE
  5
4D8
330
4D4
100
AcDbEntity
  8
COTAS
370
     0
100
AcDb2dPolyline
 66
     1
 10
0.0
 20
0.0
 30
0.0
  0
VERTEX
  5
4D9
330
4D8
100
AcDbEntity
  8
COTAS
370
     0
100
AcDbVertex
100
AcDb2dVertex
 10
38.78830878584977
 20
133.1044520457336
 30
0.0
  0
VERTEX
  5
4DA
330
4D8
100
AcDbEntity
  8
COTAS
370
     0
100
AcDbVertex
100
AcDb2dVertex
 10
39.34891786646415
 20
136.4675942285483
 30
0.0
  0
VERTEX
  5
4DB
330
4D8
100
AcDbEntity
  8
COTAS
370
     0
100
AcDbVertex
100
AcDb2dVertex
 10
39.90952694707853
 20
133.1044520457336
 30
0.0
  0
VERTEX
  5
4DC
330
4D8
100
AcDbEntity
  8
COTAS
370
     0
100
AcDbVertex
100
AcDb2dVertex
 10
38.78830878584977
 20
133.1044520457336
 30
0.0
  0
SEQEND
  5
4DE
330
4D8
100
AcDbEntity
  8
COTAS
370
     0
  0
HATCH
  5
4DD
330
4D4
100
AcDbEntity
  8
COTAS
 62
     7
420
 16777215
100
AcDbHatch
 10
0.0
 20
0.0
 30
0.0
210
0.0
220
0.0
230
1.0
  2
SOLID
 70
     1
 71
     0
 91
        1
 92
        1
 93
        3
 72
     1
 10
38.78830878584977
 20
133.1044520457336
 11
39.34891786646415
 21
136.4675942285483
 72
     1
 10
39.34891786646415
 20
136.4675942285483
 11
39.90952694707853
 21
133.1044520457336
 72
     1
 10
39.90952694707853
 20
133.1044520457336
 11
38.78830878584977
 21
133.1044520457336
 97
        0
 75
     2
 76
     1
 98
        0
  0
ENDBLK
  5
4D7
330
4D4
100
AcDbEntity
  8
0
100
AcDbBlockEnd
  0
BLOCK
  5
4E1
330
4DF
100
AcDbEntity
  8
0
100
AcDbBlockBegin
  2
block 165
 70
     0
 10
0.0
 20
0.0
 30
0.0
  3
block 165
  1

  0
POLYLINE
  5
4E3
330
4DF
100
AcDbEntity
  8
COTAS
370
     0
100
AcDb2dPolyline
 66
     1
 10
0.0
 20
0.0
 30
0.0
  0
VERTEX
  5
4E4
330
4E3
100
AcDbEntity
  8
COTAS
370
     0
100
AcDbVertex
100
AcDb2dVertex
 10
38.78830878584977
 20
96.398157364725
 30
0.0
  0
VERTEX
  5
4E5
330
4E3
100
AcDbEntity
  8
COTAS
370
     0
100
AcDbVertex
100
AcDb2dVertex
 10
39.34891786646415
 20
93.03501518191028
 30
0.0
  0
VERTEX
  5
4E6
330
4E3
100
AcDbEntity
  8
COTAS
370
     0
100
AcDbVertex
100
AcDb2dVertex
 10
39.90952694707853
 20
96.398157364725
 30
0.0
  0
VERTEX
  5
4E7
330
4E3
100
AcDbEntity
  8
COTAS
370
     0
100
AcDbVertex
100
AcDb2dVertex
 10
38.78830878584977
 20
96.398157364725
 30
0.0
  0
SEQEND
  5
4E9
330
4E3
100
AcDbEntity
  8
COTAS
370
     0
  0
HATCH
  5
4E8
330
4DF
100
AcDbEntity
  8
COTAS
 62
     7
420
 16777215
100
AcDbHatch
 10
0.0
 20
0.0
 30
0.0
210
0.0
220
0.0
230
1.0
  2
SOLID
 70
     1
 71
     0
 91
        1
 92
        1
 93
        3
 72
     1
 10
38.78830878584977
 20
96.398157364725
 11
39.34891786646415
 21
93.03501518191028
 72
     1
 10
39.34891786646415
 20
93.03501518191028
 11
39.90952694707853
 21
96.398157364725
 72
     1
 10
39.90952694707853
 20
96.398157364725
 11
38.78830878584977
 21
96.398157364725
 97
        0
 75
     2
 76
     1
 98
        0
  0
ENDBLK
  5
4E2
330
4DF
100
AcDbEntity
  8
0
100
AcDbBlockEnd
  0
BLOCK
  5
4EC
330
4EA
100
AcDbEntity
  8
0
100
AcDbBlockBegin
  2
block 166
 70
     0
 10
0.0
 20
0.0
 30
0.0
  3
block 166
  1

  0
MTEXT
  5
4EE
330
4EA
100
AcDbEntity
  8
COTAS
 62
     7
420
 16777215
100
AcDbMText
 10
38.34203948016059
 20
112.0224473461263
 30
0.0
 40
2.402610480947657
 41
0.0
 46
0.0
 71
     7
 72
     1
  1
\fArial|b1|i0|c0|p34;\W0.99985;452
 11
6.123233995736766E-17
 21
1.0
 31
0.0
 73
     1
 44
1.0
  0
ENDBLK
  5
4ED
330
4EA
100
AcDbEntity
  8
0
100
AcDbBlockEnd
  0
BLOCK
  5
4F1
330
4EF
100
AcDbEntity
  8
0
100
AcDbBlockBegin
  2
block 167
 70
     0
 10
0.0
 20
0.0
 30
0.0
  3
block 167
  1

  0
POLYLINE
  5
4F3
330
4EF
100
AcDbEntity
  8
COTAS
 62
     7
420
 16777215
370
     9
100
AcDb2dPolyline
 66
     1
 10
0.0
 20
0.0
 30
0.0
  0
VERTEX
  5
4F4
330
4F3
100
AcDbEntity
  8
COTAS
 62
     7
420
 16777215
370
     9
100
AcDbVertex
100
AcDb2dVertex
 10
49.9683979274481
 20
93.61031947018326
 30
0.0
  0
VERTEX
  5
4F5
330
4F3
100
AcDbEntity
  8
COTAS
 62
     7
420
 16777215
370
     9
100
AcDbVertex
100
AcDb2dVertex
 10
49.9683979274481
 20
82.4435129835216
 30
0.0
  0
SEQEND
  5
4F6
330
4F3
100
AcDbEntity
  8
COTAS
 62
     7
420
 16777215
370
     9
  0
ENDBLK
  5
4F2
330
4EF
100
AcDbEntity
  8
0
100
AcDbBlockEnd
  0
BLOCK
  5
4F9
330
4F7
100
AcDbEntity
  8
0
100
AcDbBlockBegin
  2
block 168
 70
     0
 10
0.0
 20
0.0
 30
0.0
  3
block 168
  1

  0
POLYLINE
  5
4FB
330
4F7
100
AcDbEntity
  8
COTAS
 62
     7
420
 16777215
370
     9
100
AcDb2dPolyline
 66
     1
 10
0.0
 20
0.0
 30
0.0
  0
VERTEX
  5
4FC
330
4FB
100
AcDbEntity
  8
COTAS
 62
     7
420
 16777215
370
     9
100
AcDbVertex
100
AcDb2dVertex
 10
107.9006674059011
 20
93.61031947018326
 30
0.0
  0
VERTEX
  5
4FD
330
4FB
100
AcDbEntity
  8
COTAS
 62
     7
420
 16777215
370
     9
100
AcDbVertex
100
AcDb2dVertex
 10
107.9006674059011
 20
82.4435129835216
 30
0.0
  0
SEQEND
  5
4FE
330
4FB
100
AcDbEntity
  8
COTAS
 62
     7
420
 16777215
370
     9
  0
ENDBLK
  5
4FA
330
4F7
100
AcDbEntity
  8
0
100
AcDbBlockEnd
  0
BLOCK
  5
501
330
4FF
100
AcDbEntity
  8
0
100
AcDbBlockBegin
  2
block 169
 70
     0
 10
0.0
 20
0.0
 30
0.0
  3
block 169
  1

  0
POLYLINE
  5
503
330
4FF
100
AcDbEntity
  8
COTAS
 62
     7
420
 16777215
370
     9
100
AcDb2dPolyline
 66
     1
 10
0.0
 20
0.0
 30
0.0
  0
VERTEX
  5
504
330
503
100
AcDbEntity
  8
COTAS
 62
     7
420
 16777215
370
     9
100
AcDbVertex
100
AcDb2dVertex
 10
53.33205241113308
 20
83.88485963329933
 30
0.0
  0
VERTEX
  5
505
330
503
100
AcDbEntity
  8
COTAS
 62
     7
420
 16777215
370
     9
100
AcDbVertex
100
AcDb2dVertex
 10
104.5370129222161
 20
83.88485963329933
 30
0.0
  0
SEQEND
  5
506
330
503
100
AcDbEntity
  8
COTAS
 62
     7
420
 16777215
370
     9
  0
ENDBLK
  5
502
330
4FF
100
AcDbEntity
  8
0
100
AcDbBlockEnd
  0
BLOCK
  5
509
330
507
100
AcDbEntity
  8
0
100
AcDbBlockBegin
  2
block 170
 70
     0
 10
0.0
 20
0.0
 30
0.0
  3
block 170
  1

  0
POLYLINE
  5
50B
330
507
100
AcDbEntity
  8
COTAS
370
     0
100
AcDb2dPolyline
 66
     1
 10
0.0
 20
0.0
 30
0.0
  0
VERTEX
  5
50C
330
50B
100
AcDbEntity
  8
COTAS
370
     0
100
AcDbVertex
100
AcDb2dVertex
 10
53.33205241113308
 20
84.44538333043512
 30
0.0
  0
VERTEX
  5
50D
330
50B
100
AcDbEntity
  8
COTAS
370
     0
100
AcDbVertex
100
AcDb2dVertex
 10
49.9683979274481
 20
83.88485963329933
 30
0.0
  0
VERTEX
  5
50E
330
50B
100
AcDbEntity
  8
COTAS
370
     0
100
AcDbVertex
100
AcDb2dVertex
 10
53.33205241113308
 20
83.32433593616355
 30
0.0
  0
VERTEX
  5
50F
330
50B
100
AcDbEntity
  8
COTAS
370
     0
100
AcDbVertex
100
AcDb2dVertex
 10
53.33205241113308
 20
84.44538333043512
 30
0.0
  0
SEQEND
  5
511
330
50B
100
AcDbEntity
  8
COTAS
370
     0
  0
HATCH
  5
510
330
507
100
AcDbEntity
  8
COTAS
 62
     7
420
 16777215
100
AcDbHatch
 10
0.0
 20
0.0
 30
0.0
210
0.0
220
0.0
230
1.0
  2
SOLID
 70
     1
 71
     0
 91
        1
 92
        1
 93
        3
 72
     1
 10
53.33205241113308
 20
84.44538333043512
 11
49.9683979274481
 21
83.88485963329933
 72
     1
 10
49.9683979274481
 20
83.88485963329933
 11
53.33205241113308
 21
83.32433593616355
 72
     1
 10
53.33205241113308
 20
83.32433593616355
 11
53.33205241113308
 21
84.44538333043512
 97
        0
 75
     2
 76
     1
 98
        0
  0
ENDBLK
  5
50A
330
507
100
AcDbEntity
  8
0
100
AcDbBlockEnd
  0
BLOCK
  5
514
330
512
100
AcDbEntity
  8
0
100
AcDbBlockBegin
  2
block 171
 70
     0
 10
0.0
 20
0.0
 30
0.0
  3
block 171
  1

  0
POLYLINE
  5
516
330
512
100
AcDbEntity
  8
COTAS
370
     0
100
AcDb2dPolyline
 66
     1
 10
0.0
 20
0.0
 30
0.0
  0
VERTEX
  5
517
330
516
100
AcDbEntity
  8
COTAS
370
     0
100
AcDbVertex
100
AcDb2dVertex
 10
104.5370129222161
 20
84.44538333043512
 30
0.0
  0
VERTEX
  5
518
330
516
100
AcDbEntity
  8
COTAS
370
     0
100
AcDbVertex
100
AcDb2dVertex
 10
107.9006674059011
 20
83.88485963329933
 30
0.0
  0
VERTEX
  5
519
330
516
100
AcDbEntity
  8
COTAS
370
     0
100
AcDbVertex
100
AcDb2dVertex
 10
104.5370129222161
 20
83.32433593616355
 30
0.0
  0
VERTEX
  5
51A
330
516
100
AcDbEntity
  8
COTAS
370
     0
100
AcDbVertex
100
AcDb2dVertex
 10
104.5370129222161
 20
84.44538333043512
 30
0.0
  0
SEQEND
  5
51C
330
516
100
AcDbEntity
  8
COTAS
370
     0
  0
HATCH
  5
51B
330
512
100
AcDbEntity
  8
COTAS
 62
     7
420
 16777215
100
AcDbHatch
 10
0.0
 20
0.0
 30
0.0
210
0.0
220
0.0
230
1.0
  2
SOLID
 70
     1
 71
     0
 91
        1
 92
        1
 93
        3
 72
     1
 10
104.5370129222161
 20
84.44538333043512
 11
107.9006674059011
 21
83.88485963329933
 72
     1
 10
107.9006674059011
 20
83.88485963329933
 11
104.5370129222161
 21
83.32433593616355
 72
     1
 10
104.5370129222161
 20
83.32433593616355
 11
104.5370129222161
 21
84.44538333043512
 97
        0
 75
     2
 76
     1
 98
        0
  0
ENDBLK
  5
515
330
512
100
AcDbEntity
  8
0
100
AcDbBlockEnd
  0
BLOCK
  5
51F
330
51D
100
AcDbEntity
  8
0
100
AcDbBlockBegin
  2
block 172
 70
     0
 10
0.0
 20
0.0
 30
0.0
  3
block 172
  1

  0
MTEXT
  5
521
330
51D
100
AcDbEntity
  8
COTAS
 62
     7
420
 16777215
100
AcDbMText
 10
76.14525526050471
 20
84.89157755106986
 30
0.0
 40
2.402243420826848
 41
0.0
 46
0.0
 71
     7
 72
     1
  1
\fArial|b1|i0|c0|p34;\W1.00015;605
 73
     1
 44
1.0
  0
ENDBLK
  5
520
330
51D
100
AcDbEntity
  8
0
100
AcDbBlockEnd
  0
BLOCK
  5
524
330
522
100
AcDbEntity
  8
0
100
AcDbBlockBegin
  2
block 173
 70
     0
 10
0.0
 20
0.0
 30
0.0
  3
block 173
  1

  0
POLYLINE
  5
526
330
522
100
AcDbEntity
  8
COTAS
 62
     7
420
 16777215
370
     9
100
AcDb2dPolyline
 66
     1
 10
0.0
 20
0.0
 30
0.0
  0
VERTEX
  5
527
330
526
100
AcDbEntity
  8
COTAS
 62
     7
420
 16777215
370
     9
100
AcDbVertex
100
AcDb2dVertex
 10
50.49736641620142
 20
184.5710945579836
 30
0.0
  0
VERTEX
  5
528
330
526
100
AcDbEntity
  8
COTAS
 62
     7
420
 16777215
370
     9
100
AcDbVertex
100
AcDb2dVertex
 10
37.73436371429469
 20
184.5710945579836
 30
0.0
  0
SEQEND
  5
529
330
526
100
AcDbEntity
  8
COTAS
 62
     7
420
 16777215
370
     9
  0
ENDBLK
  5
525
330
522
100
AcDbEntity
  8
0
100
AcDbBlockEnd
  0
BLOCK
  5
52C
330
52A
100
AcDbEntity
  8
0
100
AcDbBlockBegin
  2
block 174
 70
     0
 10
0.0
 20
0.0
 30
0.0
  3
block 174
  1

  0
POLYLINE
  5
52E
330
52A
100
AcDbEntity
  8
COTAS
 62
     7
420
 16777215
370
     9
100
AcDb2dPolyline
 66
     1
 10
0.0
 20
0.0
 30
0.0
  0
VERTEX
  5
52F
330
52E
100
AcDbEntity
  8
COTAS
 62
     7
420
 16777215
370
     9
100
AcDbVertex
100
AcDb2dVertex
 10
50.59952010092497
 20
197.085586369986
 30
0.0
  0
VERTEX
  5
530
330
52E
100
AcDbEntity
  8
COTAS
 62
     7
420
 16777215
370
     9
100
AcDbVertex
100
AcDb2dVertex
 10
37.73436371429469
 20
197.085586369986
 30
0.0
  0
SEQEND
  5
531
330
52E
100
AcDbEntity
  8
COTAS
 62
     7
420
 16777215
370
     9
  0
ENDBLK
  5
52D
330
52A
100
AcDbEntity
  8
0
100
AcDbBlockEnd
  0
BLOCK
  5
534
330
532
100
AcDbEntity
  8
0
100
AcDbBlockBegin
  2
block 175
 70
     0
 10
0.0
 20
0.0
 30
0.0
  3
block 175
  1

  0
POLYLINE
  5
536
330
532
100
AcDbEntity
  8
COTAS
 62
     7
420
 16777215
370
     9
100
AcDb2dPolyline
 66
     1
 10
0.0
 20
0.0
 30
0.0
  0
VERTEX
  5
537
330
536
100
AcDbEntity
  8
COTAS
 62
     7
420
 16777215
370
     9
100
AcDbVertex
100
AcDb2dVertex
 10
39.17592992158839
 20
187.9342367407984
 30
0.0
  0
VERTEX
  5
538
330
536
100
AcDbEntity
  8
COTAS
 62
     7
420
 16777215
370
     9
100
AcDbVertex
100
AcDb2dVertex
 10
39.17592992158839
 20
193.7224441871709
 30
0.0
  0
SEQEND
  5
539
330
536
100
AcDbEntity
  8
COTAS
 62
     7
420
 16777215
370
     9
  0
ENDBLK
  5
535
330
532
100
AcDbEntity
  8
0
100
AcDbBlockEnd
  0
BLOCK
  5
53C
330
53A
100
AcDbEntity
  8
0
100
AcDbBlockBegin
  2
block 176
 70
     0
 10
0.0
 20
0.0
 30
0.0
  3
block 176
  1

  0
POLYLINE
  5
53E
330
53A
100
AcDbEntity
  8
COTAS
370
     0
100
AcDb2dPolyline
 66
     1
 10
0.0
 20
0.0
 30
0.0
  0
VERTEX
  5
53F
330
53E
100
AcDbEntity
  8
COTAS
370
     0
100
AcDbVertex
100
AcDb2dVertex
 10
38.61532084097433
 20
187.9342367407984
 30
0.0
  0
VERTEX
  5
540
330
53E
100
AcDbEntity
  8
COTAS
370
     0
100
AcDbVertex
100
AcDb2dVertex
 10
39.17592992158839
 20
184.5710945579836
 30
0.0
  0
VERTEX
  5
541
330
53E
100
AcDbEntity
  8
COTAS
370
     0
100
AcDbVertex
100
AcDb2dVertex
 10
39.73653900220277
 20
187.9342367407984
 30
0.0
  0
VERTEX
  5
542
330
53E
100
AcDbEntity
  8
COTAS
370
     0
100
AcDbVertex
100
AcDb2dVertex
 10
38.61532084097433
 20
187.9342367407984
 30
0.0
  0
SEQEND
  5
544
330
53E
100
AcDbEntity
  8
COTAS
370
     0
  0
HATCH
  5
543
330
53A
100
AcDbEntity
  8
COTAS
 62
     7
420
 16777215
100
AcDbHatch
 10
0.0
 20
0.0
 30
0.0
210
0.0
220
0.0
230
1.0
  2
SOLID
 70
     1
 71
     0
 91
        1
 92
        1
 93
        3
 72
     1
 10
38.61532084097433
 20
187.9342367407984
 11
39.17592992158839
 21
184.5710945579836
 72
     1
 10
39.17592992158839
 20
184.5710945579836
 11
39.73653900220277
 21
187.9342367407984
 72
     1
 10
39.73653900220277
 20
187.9342367407984
 11
38.61532084097433
 21
187.9342367407984
 97
        0
 75
     2
 76
     1
 98
        0
  0
ENDBLK
  5
53D
330
53A
100
AcDbEntity
  8
0
100
AcDbBlockEnd
  0
BLOCK
  5
547
330
545
100
AcDbEntity
  8
0
100
AcDbBlockBegin
  2
block 177
 70
     0
 10
0.0
 20
0.0
 30
0.0
  3
block 177
  1

  0
POLYLINE
  5
549
330
545
100
AcDbEntity
  8
COTAS
370
     0
100
AcDb2dPolyline
 66
     1
 10
0.0
 20
0.0
 30
0.0
  0
VERTEX
  5
54A
330
549
100
AcDbEntity
  8
COTAS
370
     0
100
AcDbVertex
100
AcDb2dVertex
 10
38.61532084097433
 20
193.7224441871709
 30
0.0
  0
VERTEX
  5
54B
330
549
100
AcDbEntity
  8
COTAS
370
     0
100
AcDbVertex
100
AcDb2dVertex
 10
39.17592992158839
 20
197.085586369986
 30
0.0
  0
VERTEX
  5
54C
330
549
100
AcDbEntity
  8
COTAS
370
     0
100
AcDbVertex
100
AcDb2dVertex
 10
39.73653900220277
 20
193.7224441871709
 30
0.0
  0
VERTEX
  5
54D
330
549
100
AcDbEntity
  8
COTAS
370
     0
100
AcDbVertex
100
AcDb2dVertex
 10
38.61532084097433
 20
193.7224441871709
 30
0.0
  0
SEQEND
  5
54F
330
549
100
AcDbEntity
  8
COTAS
370
     0
  0
HATCH
  5
54E
330
545
100
AcDbEntity
  8
COTAS
 62
     7
420
 16777215
100
AcDbHatch
 10
0.0
 20
0.0
 30
0.0
210
0.0
220
0.0
230
1.0
  2
SOLID
 70
     1
 71
     0
 91
        1
 92
        1
 93
        3
 72
     1
 10
38.61532084097433
 20
193.7224441871709
 11
39.17592992158839
 21
197.085586369986
 72
     1
 10
39.17592992158839
 20
197.085586369986
 11
39.73653900220277
 21
193.7224441871709
 72
     1
 10
39.73653900220277
 20
193.7224441871709
 11
38.61532084097433
 21
193.7224441871709
 97
        0
 75
     2
 76
     1
 98
        0
  0
ENDBLK
  5
548
330
545
100
AcDbEntity
  8
0
100
AcDbBlockEnd
  0
BLOCK
  5
552
330
550
100
AcDbEntity
  8
0
100
AcDbBlockBegin
  2
block 178
 70
     0
 10
0.0
 20
0.0
 30
0.0
  3
block 178
  1

  0
MTEXT
  5
554
330
550
100
AcDbEntity
  8
COTAS
 62
     7
420
 16777215
100
AcDbMText
 10
38.16823441292973
 20
187.9299587203786
 30
0.0
 40
2.402610480947657
 41
0.0
 46
0.0
 71
     7
 72
     1
  1
\fArial|b1|i0|c0|p34;\W0.99985;130
 11
6.123233995736766E-17
 21
1.0
 31
0.0
 73
     1
 44
1.0
  0
ENDBLK
  5
553
330
550
100
AcDbEntity
  8
0
100
AcDbBlockEnd
  0
BLOCK
  5
558
330
556
100
AcDbEntity
  8
0
100
AcDbBlockBegin
  2
block 179
 70
     0
 10
0.0
 20
0.0
 30
0.0
  3
block 179
  1

  0
POLYLINE
  5
55A
330
556
100
AcDbEntity
  8
DEFPOINTS
 62
     7
420
 16777215
370
     9
100
AcDb2dPolyline
 66
     1
 10
0.0
 20
0.0
 30
0.0
  0
VERTEX
  5
55B
330
55A
100
AcDbEntity
  8
DEFPOINTS
 62
     7
420
 16777215
370
     9
100
AcDbVertex
100
AcDb2dVertex
 10
130.5637502370525
 20
184.8593638904451
 30
0.0
  0
VERTEX
  5
55C
330
55A
100
AcDbEntity
  8
DEFPOINTS
 62
     7
420
 16777215
370
     9
100
AcDbVertex
100
AcDb2dVertex
 10
130.5637502370525
 20
184.8593638904451
 30
0.0
  0
SEQEND
  5
55D
330
55A
100
AcDbEntity
  8
DEFPOINTS
 62
     7
420
 16777215
370
     9
  0
ENDBLK
  5
559
330
556
100
AcDbEntity
  8
0
100
AcDbBlockEnd
  0
BLOCK
  5
560
330
55E
100
AcDbEntity
  8
0
100
AcDbBlockBegin
  2
block 180
 70
     0
 10
0.0
 20
0.0
 30
0.0
  3
block 180
  1

  0
POLYLINE
  5
562
330
55E
100
AcDbEntity
  8
DEFPOINTS
 62
     7
420
 16777215
370
     9
100
AcDb2dPolyline
 66
     1
 10
0.0
 20
0.0
 30
0.0
  0
VERTEX
  5
563
330
562
100
AcDbEntity
  8
DEFPOINTS
 62
     7
420
 16777215
370
     9
100
AcDbVertex
100
AcDb2dVertex
 10
156.7041507959763
 20
183.5027759861097
 30
0.0
  0
VERTEX
  5
564
330
562
100
AcDbEntity
  8
DEFPOINTS
 62
     7
420
 16777215
370
     9
100
AcDbVertex
100
AcDb2dVertex
 10
156.7041507959763
 20
183.5027759861097
 30
0.0
  0
SEQEND
  5
565
330
562
100
AcDbEntity
  8
DEFPOINTS
 62
     7
420
 16777215
370
     9
  0
ENDBLK
  5
561
330
55E
100
AcDbEntity
  8
0
100
AcDbBlockEnd
  0
BLOCK
  5
568
330
566
100
AcDbEntity
  8
0
100
AcDbBlockBegin
  2
block 181
 70
     0
 10
0.0
 20
0.0
 30
0.0
  3
block 181
  1

  0
POLYLINE
  5
56A
330
566
100
AcDbEntity
  8
DEFPOINTS
 62
     7
420
 16777215
370
     9
100
AcDb2dPolyline
 66
     1
 10
0.0
 20
0.0
 30
0.0
  0
VERTEX
  5
56B
330
56A
100
AcDbEntity
  8
DEFPOINTS
 62
     7
420
 16777215
370
     9
100
AcDbVertex
100
AcDb2dVertex
 10
156.7041507959763
 20
178.2525428132301
 30
0.0
  0
VERTEX
  5
56C
330
56A
100
AcDbEntity
  8
DEFPOINTS
 62
     7
420
 16777215
370
     9
100
AcDbVertex
100
AcDb2dVertex
 10
156.7041507959763
 20
178.2525428132301
 30
0.0
  0
SEQEND
  5
56D
330
56A
100
AcDbEntity
  8
DEFPOINTS
 62
     7
420
 16777215
370
     9
  0
ENDBLK
  5
569
330
566
100
AcDbEntity
  8
0
100
AcDbBlockEnd
  0
BLOCK
  5
570
330
56E
100
AcDbEntity
  8
0
100
AcDbBlockBegin
  2
block 182
 70
     0
 10
0.0
 20
0.0
 30
0.0
  3
block 182
  1

  0
POLYLINE
  5
572
330
56E
100
AcDbEntity
  8
DEFPOINTS
 62
     7
420
 16777215
370
     9
100
AcDb2dPolyline
 66
     1
 10
0.0
 20
0.0
 30
0.0
  0
VERTEX
  5
573
330
572
100
AcDbEntity
  8
DEFPOINTS
 62
     7
420
 16777215
370
     9
100
AcDbVertex
100
AcDb2dVertex
 10
50.77250843412298
 20
136.4675942285483
 30
0.0
  0
VERTEX
  5
574
330
572
100
AcDbEntity
  8
DEFPOINTS
 62
     7
420
 16777215
370
     9
100
AcDbVertex
100
AcDb2dVertex
 10
50.77250843412298
 20
136.4675942285483
 30
0.0
  0
SEQEND
  5
575
330
572
100
AcDbEntity
  8
DEFPOINTS
 62
     7
420
 16777215
370
     9
  0
ENDBLK
  5
571
330
56E
100
AcDbEntity
  8
0
100
AcDbBlockEnd
  0
BLOCK
  5
578
330
576
100
AcDbEntity
  8
0
100
AcDbBlockBegin
  2
block 183
 70
     0
 10
0.0
 20
0.0
 30
0.0
  3
block 183
  1

  0
POLYLINE
  5
57A
330
576
100
AcDbEntity
  8
DEFPOINTS
 62
     7
420
 16777215
370
     9
100
AcDb2dPolyline
 66
     1
 10
0.0
 20
0.0
 30
0.0
  0
VERTEX
  5
57B
330
57A
100
AcDbEntity
  8
DEFPOINTS
 62
     7
420
 16777215
370
     9
100
AcDbVertex
100
AcDb2dVertex
 10
50.54388319418972
 20
93.03501518191028
 30
0.0
  0
VERTEX
  5
57C
330
57A
100
AcDbEntity
  8
DEFPOINTS
 62
     7
420
 16777215
370
     9
100
AcDbVertex
100
AcDb2dVertex
 10
50.54388319418972
 20
93.03501518191028
 30
0.0
  0
SEQEND
  5
57D
330
57A
100
AcDbEntity
  8
DEFPOINTS
 62
     7
420
 16777215
370
     9
  0
ENDBLK
  5
579
330
576
100
AcDbEntity
  8
0
100
AcDbBlockEnd
  0
BLOCK
  5
580
330
57E
100
AcDbEntity
  8
0
100
AcDbBlockBegin
  2
block 184
 70
     0
 10
0.0
 20
0.0
 30
0.0
  3
block 184
  1

  0
POLYLINE
  5
582
330
57E
100
AcDbEntity
  8
DEFPOINTS
 62
     7
420
 16777215
370
     9
100
AcDb2dPolyline
 66
     1
 10
0.0
 20
0.0
 30
0.0
  0
VERTEX
  5
583
330
582
100
AcDbEntity
  8
DEFPOINTS
 62
     7
420
 16777215
370
     9
100
AcDbVertex
100
AcDb2dVertex
 10
39.34891786646415
 20
93.03501518191028
 30
0.0
  0
VERTEX
  5
584
330
582
100
AcDbEntity
  8
DEFPOINTS
 62
     7
420
 16777215
370
     9
100
AcDbVertex
100
AcDb2dVertex
 10
39.34891786646415
 20
93.03501518191028
 30
0.0
  0
SEQEND
  5
585
330
582
100
AcDbEntity
  8
DEFPOINTS
 62
     7
420
 16777215
370
     9
  0
ENDBLK
  5
581
330
57E
100
AcDbEntity
  8
0
100
AcDbBlockEnd
  0
BLOCK
  5
588
330
586
100
AcDbEntity
  8
0
100
AcDbBlockBegin
  2
block 185
 70
     0
 10
0.0
 20
0.0
 30
0.0
  3
block 185
  1

  0
POLYLINE
  5
58A
330
586
100
AcDbEntity
  8
DEFPOINTS
 62
     7
420
 16777215
370
     9
100
AcDb2dPolyline
 66
     1
 10
0.0
 20
0.0
 30
0.0
  0
VERTEX
  5
58B
330
58A
100
AcDbEntity
  8
DEFPOINTS
 62
     7
420
 16777215
370
     9
100
AcDbVertex
100
AcDb2dVertex
 10
49.9683979274481
 20
93.61031947018326
 30
0.0
  0
VERTEX
  5
58C
330
58A
100
AcDbEntity
  8
DEFPOINTS
 62
     7
420
 16777215
370
     9
100
AcDbVertex
100
AcDb2dVertex
 10
49.9683979274481
 20
93.61031947018326
 30
0.0
  0
SEQEND
  5
58D
330
58A
100
AcDbEntity
  8
DEFPOINTS
 62
     7
420
 16777215
370
     9
  0
ENDBLK
  5
589
330
586
100
AcDbEntity
  8
0
100
AcDbBlockEnd
  0
BLOCK
  5
590
330
58E
100
AcDbEntity
  8
0
100
AcDbBlockBegin
  2
block 186
 70
     0
 10
0.0
 20
0.0
 30
0.0
  3
block 186
  1

  0
POLYLINE
  5
592
330
58E
100
AcDbEntity
  8
DEFPOINTS
 62
     7
420
 16777215
370
     9
100
AcDb2dPolyline
 66
     1
 10
0.0
 20
0.0
 30
0.0
  0
VERTEX
  5
593
330
592
100
AcDbEntity
  8
DEFPOINTS
 62
     7
420
 16777215
370
     9
100
AcDbVertex
100
AcDb2dVertex
 10
107.9006674059011
 20
93.61031947018326
 30
0.0
  0
VERTEX
  5
594
330
592
100
AcDbEntity
  8
DEFPOINTS
 62
     7
420
 16777215
370
     9
100
AcDbVertex
100
AcDb2dVertex
 10
107.9006674059011
 20
93.61031947018326
 30
0.0
  0
SEQEND
  5
595
330
592
100
AcDbEntity
  8
DEFPOINTS
 62
     7
420
 16777215
370
     9
  0
ENDBLK
  5
591
330
58E
100
AcDbEntity
  8
0
100
AcDbBlockEnd
  0
BLOCK
  5
598
330
596
100
AcDbEntity
  8
0
100
AcDbBlockBegin
  2
block 187
 70
     0
 10
0.0
 20
0.0
 30
0.0
  3
block 187
  1

  0
POLYLINE
  5
59A
330
596
100
AcDbEntity
  8
DEFPOINTS
 62
     7
420
 16777215
370
     9
100
AcDb2dPolyline
 66
     1
 10
0.0
 20
0.0
 30
0.0
  0
VERTEX
  5
59B
330
59A
100
AcDbEntity
  8
DEFPOINTS
 62
     7
420
 16777215
370
     9
100
AcDbVertex
100
AcDb2dVertex
 10
107.9006674059011
 20
83.88485963329933
 30
0.0
  0
VERTEX
  5
59C
330
59A
100
AcDbEntity
  8
DEFPOINTS
 62
     7
420
 16777215
370
     9
100
AcDbVertex
100
AcDb2dVertex
 10
107.9006674059011
 20
83.88485963329933
 30
0.0
  0
SEQEND
  5
59D
330
59A
100
AcDbEntity
  8
DEFPOINTS
 62
     7
420
 16777215
370
     9
  0
ENDBLK
  5
599
330
596
100
AcDbEntity
  8
0
100
AcDbBlockEnd
  0
BLOCK
  5
5A0
330
59E
100
AcDbEntity
  8
0
100
AcDbBlockBegin
  2
block 188
 70
     0
 10
0.0
 20
0.0
 30
0.0
  3
block 188
  1

  0
POLYLINE
  5
5A2
330
59E
100
AcDbEntity
  8
DEFPOINTS
 62
     7
420
 16777215
370
     9
100
AcDb2dPolyline
 66
     1
 10
0.0
 20
0.0
 30
0.0
  0
VERTEX
  5
5A3
330
5A2
100
AcDbEntity
  8
DEFPOINTS
 62
     7
420
 16777215
370
     9
100
AcDbVertex
100
AcDb2dVertex
 10
50.49736641620142
 20
184.5710945579836
 30
0.0
  0
VERTEX
  5
5A4
330
5A2
100
AcDbEntity
  8
DEFPOINTS
 62
     7
420
 16777215
370
     9
100
AcDbVertex
100
AcDb2dVertex
 10
50.49736641620142
 20
184.5710945579836
 30
0.0
  0
SEQEND
  5
5A5
330
5A2
100
AcDbEntity
  8
DEFPOINTS
 62
     7
420
 16777215
370
     9
  0
ENDBLK
  5
5A1
330
59E
100
AcDbEntity
  8
0
100
AcDbBlockEnd
  0
BLOCK
  5
5A8
330
5A6
100
AcDbEntity
  8
0
100
AcDbBlockBegin
  2
block 189
 70
     0
 10
0.0
 20
0.0
 30
0.0
  3
block 189
  1

  0
POLYLINE
  5
5AA
330
5A6
100
AcDbEntity
  8
DEFPOINTS
 62
     7
420
 16777215
370
     9
100
AcDb2dPolyline
 66
     1
 10
0.0
 20
0.0
 30
0.0
  0
VERTEX
  5
5AB
330
5AA
100
AcDbEntity
  8
DEFPOINTS
 62
     7
420
 16777215
370
     9
100
AcDbVertex
100
AcDb2dVertex
 10
50.59952010092497
 20
197.085586369986
 30
0.0
  0
VERTEX
  5
5AC
330
5AA
100
AcDbEntity
  8
DEFPOINTS
 62
     7
420
 16777215
370
     9
100
AcDbVertex
100
AcDb2dVertex
 10
50.59952010092497
 20
197.085586369986
 30
0.0
  0
SEQEND
  5
5AD
330
5AA
100
AcDbEntity
  8
DEFPOINTS
 62
     7
420
 16777215
370
     9
  0
ENDBLK
  5
5A9
330
5A6
100
AcDbEntity
  8
0
100
AcDbBlockEnd
  0
BLOCK
  5
5B0
330
5AE
100
AcDbEntity
  8
0
100
AcDbBlockBegin
  2
block 190
 70
     0
 10
0.0
 20
0.0
 30
0.0
  3
block 190
  1

  0
POLYLINE
  5
5B2
330
5AE
100
AcDbEntity
  8
DEFPOINTS
 62
     7
420
 16777215
370
     9
100
AcDb2dPolyline
 66
     1
 10
0.0
 20
0.0
 30
0.0
  0
VERTEX
  5
5B3
330
5B2
100
AcDbEntity
  8
DEFPOINTS
 62
     7
420
 16777215
370
     9
100
AcDbVertex
100
AcDb2dVertex
 10
39.17592992158839
 20
197.085586369986
 30
0.0
  0
VERTEX
  5
5B4
330
5B2
100
AcDbEntity
  8
DEFPOINTS
 62
     7
420
 16777215
370
     9
100
AcDbVertex
100
AcDb2dVertex
 10
39.17592992158839
 20
197.085586369986
 30
0.0
  0
SEQEND
  5
5B5
330
5B2
100
AcDbEntity
  8
DEFPOINTS
 62
     7
420
 16777215
370
     9
  0
ENDBLK
  5
5B1
330
5AE
100
AcDbEntity
  8
0
100
AcDbBlockEnd
  0
ENDSEC
  0
SECTION
  2
ENTITIES
  0
INSERT
  5
45
330
1F
100
AcDbEntity
  8
0
100
AcDbBlockReference
  2
block 2
 10
0.0
 20
0.0
 30
0.0
  0
INSERT
  5
4A
330
1F
100
AcDbEntity
  8
0
100
AcDbBlockReference
  2
block 3
 10
0.0
 20
0.0
 30
0.0
  0
INSERT
  5
52
330
1F
100
AcDbEntity
  8
0
100
AcDbBlockReference
  2
block 4
 10
0.0
 20
0.0
 30
0.0
  0
INSERT
  5
5A
330
1F
100
AcDbEntity
  8
0
100
AcDbBlockReference
  2
block 5
 10
0.0
 20
0.0
 30
0.0
  0
INSERT
  5
62
330
1F
100
AcDbEntity
  8
0
100
AcDbBlockReference
  2
block 6
 10
0.0
 20
0.0
 30
0.0
  0
INSERT
  5
67
330
1F
100
AcDbEntity
  8
0
100
AcDbBlockReference
  2
block 7
 10
0.0
 20
0.0
 30
0.0
  0
INSERT
  5
6C
330
1F
100
AcDbEntity
  8
0
100
AcDbBlockReference
  2
block 8
 10
0.0
 20
0.0
 30
0.0
  0
INSERT
  5
71
330
1F
100
AcDbEntity
  8
0
100
AcDbBlockReference
  2
block 9
 10
0.0
 20
0.0
 30
0.0
  0
INSERT
  5
76
330
1F
100
AcDbEntity
  8
0
100
AcDbBlockReference
  2
block 10
 10
0.0
 20
0.0
 30
0.0
  0
INSERT
  5
7B
330
1F
100
AcDbEntity
  8
0
100
AcDbBlockReference
  2
block 11
 10
0.0
 20
0.0
 30
0.0
  0
INSERT
  5
80
330
1F
100
AcDbEntity
  8
0
100
AcDbBlockReference
  2
block 12
 10
0.0
 20
0.0
 30
0.0
  0
INSERT
  5
85
330
1F
100
AcDbEntity
  8
0
100
AcDbBlockReference
  2
block 13
 10
0.0
 20
0.0
 30
0.0
  0
INSERT
  5
8A
330
1F
100
AcDbEntity
  8
0
100
AcDbBlockReference
  2
block 14
 10
0.0
 20
0.0
 30
0.0
  0
INSERT
  5
8F
330
1F
100
AcDbEntity
  8
0
100
AcDbBlockReference
  2
block 15
 10
0.0
 20
0.0
 30
0.0
  0
INSERT
  5
94
330
1F
100
AcDbEntity
  8
0
100
AcDbBlockReference
  2
block 16
 10
0.0
 20
0.0
 30
0.0
  0
INSERT
  5
99
330
1F
100
AcDbEntity
  8
0
100
AcDbBlockReference
  2
block 17
 10
0.0
 20
0.0
 30
0.0
  0
INSERT
  5
9E
330
1F
100
AcDbEntity
  8
0
100
AcDbBlockReference
  2
block 18
 10
0.0
 20
0.0
 30
0.0
  0
INSERT
  5
A3
330
1F
100
AcDbEntity
  8
0
100
AcDbBlockReference
  2
block 19
 10
0.0
 20
0.0
 30
0.0
  0
INSERT
  5
A8
330
1F
100
AcDbEntity
  8
0
100
AcDbBlockReference
  2
block 20
 10
0.0
 20
0.0
 30
0.0
  0
INSERT
  5
AD
330
1F
100
AcDbEntity
  8
0
100
AcDbBlockReference
  2
block 21
 10
0.0
 20
0.0
 30
0.0
  0
INSERT
  5
B2
330
1F
100
AcDbEntity
  8
0
100
AcDbBlockReference
  2
block 22
 10
0.0
 20
0.0
 30
0.0
  0
INSERT
  5
B7
330
1F
100
AcDbEntity
  8
0
100
AcDbBlockReference
  2
block 23
 10
0.0
 20
0.0
 30
0.0
  0
INSERT
  5
BC
330
1F
100
AcDbEntity
  8
0
100
AcDbBlockReference
  2
block 24
 10
0.0
 20
0.0
 30
0.0
  0
INSERT
  5
C1
330
1F
100
AcDbEntity
  8
0
100
AcDbBlockReference
  2
block 25
 10
0.0
 20
0.0
 30
0.0
  0
INSERT
  5
C6
330
1F
100
AcDbEntity
  8
0
100
AcDbBlockReference
  2
block 26
 10
0.0
 20
0.0
 30
0.0
  0
INSERT
  5
CB
330
1F
100
AcDbEntity
  8
0
100
AcDbBlockReference
  2
block 27
 10
0.0
 20
0.0
 30
0.0
  0
INSERT
  5
D0
330
1F
100
AcDbEntity
  8
0
100
AcDbBlockReference
  2
block 28
 10
0.0
 20
0.0
 30
0.0
  0
INSERT
  5
D5
330
1F
100
AcDbEntity
  8
0
100
AcDbBlockReference
  2
block 29
 10
0.0
 20
0.0
 30
0.0
  0
INSERT
  5
DA
330
1F
100
AcDbEntity
  8
0
100
AcDbBlockReference
  2
block 30
 10
0.0
 20
0.0
 30
0.0
  0
INSERT
  5
DF
330
1F
100
AcDbEntity
  8
0
100
AcDbBlockReference
  2
block 31
 10
0.0
 20
0.0
 30
0.0
  0
INSERT
  5
E4
330
1F
100
AcDbEntity
  8
0
100
AcDbBlockReference
  2
block 32
 10
0.0
 20
0.0
 30
0.0
  0
INSERT
  5
E9
330
1F
100
AcDbEntity
  8
0
100
AcDbBlockReference
  2
block 33
 10
0.0
 20
0.0
 30
0.0
  0
INSERT
  5
EE
330
1F
100
AcDbEntity
  8
0
100
AcDbBlockReference
  2
block 34
 10
0.0
 20
0.0
 30
0.0
  0
INSERT
  5
F3
330
1F
100
AcDbEntity
  8
0
100
AcDbBlockReference
  2
block 35
 10
0.0
 20
0.0
 30
0.0
  0
INSERT
  5
FB
330
1F
100
AcDbEntity
  8
0
100
AcDbBlockReference
  2
block 36
 10
0.0
 20
0.0
 30
0.0
  0
INSERT
  5
103
330
1F
100
AcDbEntity
  8
0
100
AcDbBlockReference
  2
block 37
 10
0.0
 20
0.0
 30
0.0
  0
INSERT
  5
10B
330
1F
100
AcDbEntity
  8
0
100
AcDbBlockReference
  2
block 38
 10
0.0
 20
0.0
 30
0.0
  0
INSERT
  5
113
330
1F
100
AcDbEntity
  8
0
100
AcDbBlockReference
  2
block 39
 10
0.0
 20
0.0
 30
0.0
  0
INSERT
  5
11B
330
1F
100
AcDbEntity
  8
0
100
AcDbBlockReference
  2
block 40
 10
0.0
 20
0.0
 30
0.0
  0
INSERT
  5
123
330
1F
100
AcDbEntity
  8
0
100
AcDbBlockReference
  2
block 41
 10
0.0
 20
0.0
 30
0.0
  0
INSERT
  5
12B
330
1F
100
AcDbEntity
  8
0
100
AcDbBlockReference
  2
block 42
 10
0.0
 20
0.0
 30
0.0
  0
INSERT
  5
133
330
1F
100
AcDbEntity
  8
0
100
AcDbBlockReference
  2
block 43
 10
0.0
 20
0.0
 30
0.0
  0
INSERT
  5
138
330
1F
100
AcDbEntity
  8
0
100
AcDbBlockReference
  2
block 44
 10
0.0
 20
0.0
 30
0.0
  0
INSERT
  5
140
330
1F
100
AcDbEntity
  8
0
100
AcDbBlockReference
  2
block 45
 10
0.0
 20
0.0
 30
0.0
  0
INSERT
  5
148
330
1F
100
AcDbEntity
  8
0
100
AcDbBlockReference
  2
block 46
 10
0.0
 20
0.0
 30
0.0
  0
INSERT
  5
150
330
1F
100
AcDbEntity
  8
0
100
AcDbBlockReference
  2
block 47
 10
0.0
 20
0.0
 30
0.0
  0
INSERT
  5
155
330
1F
100
AcDbEntity
  8
0
100
AcDbBlockReference
  2
block 48
 10
0.0
 20
0.0
 30
0.0
  0
INSERT
  5
15A
330
1F
100
AcDbEntity
  8
0
100
AcDbBlockReference
  2
block 49
 10
0.0
 20
0.0
 30
0.0
  0
INSERT
  5
15F
330
1F
100
AcDbEntity
  8
0
100
AcDbBlockReference
  2
block 50
 10
0.0
 20
0.0
 30
0.0
  0
INSERT
  5
164
330
1F
100
AcDbEntity
  8
0
100
AcDbBlockReference
  2
block 51
 10
0.0
 20
0.0
 30
0.0
  0
INSERT
  5
169
330
1F
100
AcDbEntity
  8
0
100
AcDbBlockReference
  2
block 52
 10
0.0
 20
0.0
 30
0.0
  0
INSERT
  5
16E
330
1F
100
AcDbEntity
  8
0
100
AcDbBlockReference
  2
block 53
 10
0.0
 20
0.0
 30
0.0
  0
INSERT
  5
173
330
1F
100
AcDbEntity
  8
0
100
AcDbBlockReference
  2
block 54
 10
0.0
 20
0.0
 30
0.0
  0
INSERT
  5
178
330
1F
100
AcDbEntity
  8
0
100
AcDbBlockReference
  2
block 55
 10
0.0
 20
0.0
 30
0.0
  0
INSERT
  5
17D
330
1F
100
AcDbEntity
  8
0
100
AcDbBlockReference
  2
block 56
 10
0.0
 20
0.0
 30
0.0
  0
INSERT
  5
182
330
1F
100
AcDbEntity
  8
0
100
AcDbBlockReference
  2
block 57
 10
0.0
 20
0.0
 30
0.0
  0
INSERT
  5
187
330
1F
100
AcDbEntity
  8
0
100
AcDbBlockReference
  2
block 58
 10
0.0
 20
0.0
 30
0.0
  0
INSERT
  5
18C
330
1F
100
AcDbEntity
  8
0
100
AcDbBlockReference
  2
block 59
 10
0.0
 20
0.0
 30
0.0
  0
INSERT
  5
191
330
1F
100
AcDbEntity
  8
0
100
AcDbBlockReference
  2
block 60
 10
0.0
 20
0.0
 30
0.0
  0
INSERT
  5
196
330
1F
100
AcDbEntity
  8
0
100
AcDbBlockReference
  2
block 61
 10
0.0
 20
0.0
 30
0.0
  0
INSERT
  5
19B
330
1F
100
AcDbEntity
  8
0
100
AcDbBlockReference
  2
block 62
 10
0.0
 20
0.0
 30
0.0
  0
INSERT
  5
1A0
330
1F
100
AcDbEntity
  8
0
100
AcDbBlockReference
  2
block 63
 10
0.0
 20
0.0
 30
0.0
  0
INSERT
  5
1A5
330
1F
100
AcDbEntity
  8
0
100
AcDbBlockReference
  2
block 64
 10
0.0
 20
0.0
 30
0.0
  0
INSERT
  5
1AA
330
1F
100
AcDbEntity
  8
0
100
AcDbBlockReference
  2
block 65
 10
0.0
 20
0.0
 30
0.0
  0
INSERT
  5
1AF
330
1F
100
AcDbEntity
  8
0
100
AcDbBlockReference
  2
block 66
 10
0.0
 20
0.0
 30
0.0
  0
INSERT
  5
1B4
330
1F
100
AcDbEntity
  8
0
100
AcDbBlockReference
  2
block 67
 10
0.0
 20
0.0
 30
0.0
  0
INSERT
  5
1B9
330
1F
100
AcDbEntity
  8
0
100
AcDbBlockReference
  2
block 68
 10
0.0
 20
0.0
 30
0.0
  0
INSERT
  5
1BE
330
1F
100
AcDbEntity
  8
0
100
AcDbBlockReference
  2
block 69
 10
0.0
 20
0.0
 30
0.0
  0
INSERT
  5
1C3
330
1F
100
AcDbEntity
  8
0
100
AcDbBlockReference
  2
block 70
 10
0.0
 20
0.0
 30
0.0
  0
INSERT
  5
1C8
330
1F
100
AcDbEntity
  8
0
100
AcDbBlockReference
  2
block 71
 10
0.0
 20
0.0
 30
0.0
  0
INSERT
  5
1CD
330
1F
100
AcDbEntity
  8
0
100
AcDbBlockReference
  2
block 72
 10
0.0
 20
0.0
 30
0.0
  0
INSERT
  5
1D5
330
1F
100
AcDbEntity
  8
0
100
AcDbBlockReference
  2
block 73
 10
0.0
 20
0.0
 30
0.0
  0
INSERT
  5
1DA
330
1F
100
AcDbEntity
  8
0
100
AcDbBlockReference
  2
block 74
 10
0.0
 20
0.0
 30
0.0
  0
INSERT
  5
1DF
330
1F
100
AcDbEntity
  8
0
100
AcDbBlockReference
  2
block 75
 10
0.0
 20
0.0
 30
0.0
  0
INSERT
  5
1E7
330
1F
100
AcDbEntity
  8
0
100
AcDbBlockReference
  2
block 76
 10
0.0
 20
0.0
 30
0.0
  0
INSERT
  5
1EC
330
1F
100
AcDbEntity
  8
0
100
AcDbBlockReference
  2
block 77
 10
0.0
 20
0.0
 30
0.0
  0
INSERT
  5
1F4
330
1F
100
AcDbEntity
  8
0
100
AcDbBlockReference
  2
block 78
 10
0.0
 20
0.0
 30
0.0
  0
INSERT
  5
1FD
330
1F
100
AcDbEntity
  8
PIEZA
100
AcDbBlockReference
  2
block 79
 10
0.0
 20
0.0
 30
0.0
  0
INSERT
  5
202
330
1F
100
AcDbEntity
  8
PIEZA
100
AcDbBlockReference
  2
block 80
 10
0.0
 20
0.0
 30
0.0
  0
INSERT
  5
20A
330
1F
100
AcDbEntity
  8
PIEZA
100
AcDbBlockReference
  2
block 81
 10
0.0
 20
0.0
 30
0.0
  0
INSERT
  5
212
330
1F
100
AcDbEntity
  8
PIEZA
100
AcDbBlockReference
  2
block 82
 10
0.0
 20
0.0
 30
0.0
  0
INSERT
  5
217
330
1F
100
AcDbEntity
  8
PIEZA
100
AcDbBlockReference
  2
block 83
 10
0.0
 20
0.0
 30
0.0
  0
INSERT
  5
21F
330
1F
100
AcDbEntity
  8
PIEZA
100
AcDbBlockReference
  2
block 84
 10
0.0
 20
0.0
 30
0.0
  0
INSERT
  5
224
330
1F
100
AcDbEntity
  8
PIEZA
100
AcDbBlockReference
  2
block 85
 10
0.0
 20
0.0
 30
0.0
  0
INSERT
  5
250
330
1F
100
AcDbEntity
  8
PIEZA
100
AcDbBlockReference
  2
block 86
 10
0.0
 20
0.0
 30
0.0
  0
INSERT
  5
258
330
1F
100
AcDbEntity
  8
PIEZA
100
AcDbBlockReference
  2
block 87
 10
0.0
 20
0.0
 30
0.0
  0
INSERT
  5
260
330
1F
100
AcDbEntity
  8
PIEZA
100
AcDbBlockReference
  2
block 88
 10
0.0
 20
0.0
 30
0.0
  0
INSERT
  5
265
330
1F
100
AcDbEntity
  8
PIEZA
100
AcDbBlockReference
  2
block 89
 10
0.0
 20
0.0
 30
0.0
  0
INSERT
  5
26D
330
1F
100
AcDbEntity
  8
PIEZA
100
AcDbBlockReference
  2
block 90
 10
0.0
 20
0.0
 30
0.0
  0
INSERT
  5
272
330
1F
100
AcDbEntity
  8
PIEZA
100
AcDbBlockReference
  2
block 91
 10
0.0
 20
0.0
 30
0.0
  0
INSERT
  5
27A
330
1F
100
AcDbEntity
  8
PIEZA
100
AcDbBlockReference
  2
block 92
 10
0.0
 20
0.0
 30
0.0
  0
INSERT
  5
282
330
1F
100
AcDbEntity
  8
PIEZA
100
AcDbBlockReference
  2
block 93
 10
0.0
 20
0.0
 30
0.0
  0
INSERT
  5
28A
330
1F
100
AcDbEntity
  8
PIEZA
100
AcDbBlockReference
  2
block 94
 10
0.0
 20
0.0
 30
0.0
  0
INSERT
  5
292
330
1F
100
AcDbEntity
  8
PIEZA
100
AcDbBlockReference
  2
block 95
 10
0.0
 20
0.0
 30
0.0
  0
INSERT
  5
29A
330
1F
100
AcDbEntity
  8
PIEZA
100
AcDbBlockReference
  2
block 96
 10
0.0
 20
0.0
 30
0.0
  0
INSERT
  5
2A0
330
1F
100
AcDbEntity
  8
PIEZA
100
AcDbBlockReference
  2
block 97
 10
0.0
 20
0.0
 30
0.0
  0
INSERT
  5
2A8
330
1F
100
AcDbEntity
  8
PIEZA
100
AcDbBlockReference
  2
block 98
 10
0.0
 20
0.0
 30
0.0
  0
INSERT
  5
2B0
330
1F
100
AcDbEntity
  8
PIEZA
100
AcDbBlockReference
  2
block 99
 10
0.0
 20
0.0
 30
0.0
  0
INSERT
  5
2B8
330
1F
100
AcDbEntity
  8
PIEZA
100
AcDbBlockReference
  2
block 100
 10
0.0
 20
0.0
 30
0.0
  0
INSERT
  5
2C0
330
1F
100
AcDbEntity
  8
PIEZA
100
AcDbBlockReference
  2
block 101
 10
0.0
 20
0.0
 30
0.0
  0
INSERT
  5
2C8
330
1F
100
AcDbEntity
  8
PIEZA
100
AcDbBlockReference
  2
block 102
 10
0.0
 20
0.0
 30
0.0
  0
INSERT
  5
2D0
330
1F
100
AcDbEntity
  8
PIEZA
100
AcDbBlockReference
  2
block 103
 10
0.0
 20
0.0
 30
0.0
  0
INSERT
  5
2D5
330
1F
100
AcDbEntity
  8
PIEZA
100
AcDbBlockReference
  2
block 104
 10
0.0
 20
0.0
 30
0.0
  0
INSERT
  5
2DA
330
1F
100
AcDbEntity
  8
PIEZA
100
AcDbBlockReference
  2
block 105
 10
0.0
 20
0.0
 30
0.0
  0
INSERT
  5
2E2
330
1F
100
AcDbEntity
  8
PIEZA
100
AcDbBlockReference
  2
block 106
 10
0.0
 20
0.0
 30
0.0
  0
INSERT
  5
2E7
330
1F
100
AcDbEntity
  8
PIEZA
100
AcDbBlockReference
  2
block 107
 10
0.0
 20
0.0
 30
0.0
  0
INSERT
  5
2EF
330
1F
100
AcDbEntity
  8
PIEZA
100
AcDbBlockReference
  2
block 108
 10
0.0
 20
0.0
 30
0.0
  0
INSERT
  5
2F4
330
1F
100
AcDbEntity
  8
PIEZA
100
AcDbBlockReference
  2
block 109
 10
0.0
 20
0.0
 30
0.0
  0
INSERT
  5
2F9
330
1F
100
AcDbEntity
  8
PIEZA
100
AcDbBlockReference
  2
block 110
 10
0.0
 20
0.0
 30
0.0
  0
INSERT
  5
2FE
330
1F
100
AcDbEntity
  8
PIEZA
100
AcDbBlockReference
  2
block 111
 10
0.0
 20
0.0
 30
0.0
  0
INSERT
  5
306
330
1F
100
AcDbEntity
  8
PIEZA
100
AcDbBlockReference
  2
block 112
 10
0.0
 20
0.0
 30
0.0
  0
INSERT
  5
335
330
1F
100
AcDbEntity
  8
PIEZA
100
AcDbBlockReference
  2
block 113
 10
0.0
 20
0.0
 30
0.0
  0
INSERT
  5
33D
330
1F
100
AcDbEntity
  8
PIEZA
100
AcDbBlockReference
  2
block 114
 10
0.0
 20
0.0
 30
0.0
  0
INSERT
  5
342
330
1F
100
AcDbEntity
  8
PIEZA
100
AcDbBlockReference
  2
block 115
 10
0.0
 20
0.0
 30
0.0
  0
INSERT
  5
34A
330
1F
100
AcDbEntity
  8
PIEZA
100
AcDbBlockReference
  2
block 116
 10
0.0
 20
0.0
 30
0.0
  0
INSERT
  5
34F
330
1F
100
AcDbEntity
  8
PIEZA
100
AcDbBlockReference
  2
block 117
 10
0.0
 20
0.0
 30
0.0
  0
INSERT
  5
357
330
1F
100
AcDbEntity
  8
PIEZA
100
AcDbBlockReference
  2
block 118
 10
0.0
 20
0.0
 30
0.0
  0
INSERT
  5
35C
330
1F
100
AcDbEntity
  8
PIEZA
100
AcDbBlockReference
  2
block 119
 10
0.0
 20
0.0
 30
0.0
  0
INSERT
  5
364
330
1F
100
AcDbEntity
  8
PIEZA
100
AcDbBlockReference
  2
block 120
 10
0.0
 20
0.0
 30
0.0
  0
INSERT
  5
36C
330
1F
100
AcDbEntity
  8
PIEZA
100
AcDbBlockReference
  2
block 121
 10
0.0
 20
0.0
 30
0.0
  0
INSERT
  5
374
330
1F
100
AcDbEntity
  8
PIEZA
100
AcDbBlockReference
  2
block 122
 10
0.0
 20
0.0
 30
0.0
  0
INSERT
  5
379
330
1F
100
AcDbEntity
  8
PIEZA
100
AcDbBlockReference
  2
block 123
 10
0.0
 20
0.0
 30
0.0
  0
INSERT
  5
381
330
1F
100
AcDbEntity
  8
PIEZA
100
AcDbBlockReference
  2
block 124
 10
0.0
 20
0.0
 30
0.0
  0
INSERT
  5
389
330
1F
100
AcDbEntity
  8
PIEZA
100
AcDbBlockReference
  2
block 125
 10
0.0
 20
0.0
 30
0.0
  0
INSERT
  5
391
330
1F
100
AcDbEntity
  8
PIEZA
100
AcDbBlockReference
  2
block 126
 10
0.0
 20
0.0
 30
0.0
  0
INSERT
  5
396
330
1F
100
AcDbEntity
  8
PIEZA
100
AcDbBlockReference
  2
block 127
 10
0.0
 20
0.0
 30
0.0
  0
INSERT
  5
39E
330
1F
100
AcDbEntity
  8
PIEZA
100
AcDbBlockReference
  2
block 128
 10
0.0
 20
0.0
 30
0.0
  0
INSERT
  5
3A3
330
1F
100
AcDbEntity
  8
PIEZA
100
AcDbBlockReference
  2
block 129
 10
0.0
 20
0.0
 30
0.0
  0
INSERT
  5
3AB
330
1F
100
AcDbEntity
  8
PIEZA
100
AcDbBlockReference
  2
block 130
 10
0.0
 20
0.0
 30
0.0
  0
INSERT
  5
3B3
330
1F
100
AcDbEntity
  8
PIEZA
100
AcDbBlockReference
  2
block 131
 10
0.0
 20
0.0
 30
0.0
  0
INSERT
  5
3BB
330
1F
100
AcDbEntity
  8
PIEZA
100
AcDbBlockReference
  2
block 132
 10
0.0
 20
0.0
 30
0.0
  0
INSERT
  5
3C3
330
1F
100
AcDbEntity
  8
PIEZA
100
AcDbBlockReference
  2
block 133
 10
0.0
 20
0.0
 30
0.0
  0
INSERT
  5
3DE
330
1F
100
AcDbEntity
  8
PIEZA
100
AcDbBlockReference
  2
block 134
 10
0.0
 20
0.0
 30
0.0
  0
INSERT
  5
3F9
330
1F
100
AcDbEntity
  8
PIEZA
100
AcDbBlockReference
  2
block 135
 10
0.0
 20
0.0
 30
0.0
  0
INSERT
  5
401
330
1F
100
AcDbEntity
  8
PIEZA
100
AcDbBlockReference
  2
block 136
 10
0.0
 20
0.0
 30
0.0
  0
INSERT
  5
409
330
1F
100
AcDbEntity
  8
PIEZA
100
AcDbBlockReference
  2
block 137
 10
0.0
 20
0.0
 30
0.0
  0
INSERT
  5
40E
330
1F
100
AcDbEntity
  8
PIEZA
100
AcDbBlockReference
  2
block 138
 10
0.0
 20
0.0
 30
0.0
  0
INSERT
  5
415
330
1F
100
AcDbEntity
  8
PIEZA
100
AcDbBlockReference
  2
block 139
 10
0.0
 20
0.0
 30
0.0
  0
INSERT
  5
41A
330
1F
100
AcDbEntity
  8
PIEZA
100
AcDbBlockReference
  2
block 140
 10
0.0
 20
0.0
 30
0.0
  0
INSERT
  5
422
330
1F
100
AcDbEntity
  8
PIEZA
100
AcDbBlockReference
  2
block 141
 10
0.0
 20
0.0
 30
0.0
  0
INSERT
  5
427
330
1F
100
AcDbEntity
  8
PIEZA
100
AcDbBlockReference
  2
block 142
 10
0.0
 20
0.0
 30
0.0
  0
INSERT
  5
42C
330
1F
100
AcDbEntity
  8
PIEZA
100
AcDbBlockReference
  2
block 143
 10
0.0
 20
0.0
 30
0.0
  0
INSERT
  5
434
330
1F
100
AcDbEntity
  8
PIEZA
100
AcDbBlockReference
  2
block 144
 10
0.0
 20
0.0
 30
0.0
  0
INSERT
  5
43C
330
1F
100
AcDbEntity
  8
PIEZA
100
AcDbBlockReference
  2
block 145
 10
0.0
 20
0.0
 30
0.0
  0
INSERT
  5
444
330
1F
100
AcDbEntity
  8
PIEZA
100
AcDbBlockReference
  2
block 146
 10
0.0
 20
0.0
 30
0.0
  0
INSERT
  5
44C
330
1F
100
AcDbEntity
  8
PIEZA
100
AcDbBlockReference
  2
block 147
 10
0.0
 20
0.0
 30
0.0
  0
INSERT
  5
454
330
1F
100
AcDbEntity
  8
PIEZA
100
AcDbBlockReference
  2
block 148
 10
0.0
 20
0.0
 30
0.0
  0
INSERT
  5
45A
330
1F
100
AcDbEntity
  8
PIEZA
100
AcDbBlockReference
  2
block 149
 10
0.0
 20
0.0
 30
0.0
  0
INSERT
  5
460
330
1F
100
AcDbEntity
  8
PIEZA
100
AcDbBlockReference
  2
block 150
 10
0.0
 20
0.0
 30
0.0
  0
INSERT
  5
468
330
1F
100
AcDbEntity
  8
PIEZA
100
AcDbBlockReference
  2
block 151
 10
0.0
 20
0.0
 30
0.0
  0
INSERT
  5
46E
330
1F
100
AcDbEntity
  8
Eixos
100
AcDbBlockReference
  2
block 152
 10
0.0
 20
0.0
 30
0.0
  0
INSERT
  5
477
330
1F
100
AcDbEntity
  8
Eixos
100
AcDbBlockReference
  2
block 153
 10
0.0
 20
0.0
 30
0.0
  0
INSERT
  5
480
330
1F
100
AcDbEntity
  8
Eixos
100
AcDbBlockReference
  2
block 154
 10
0.0
 20
0.0
 30
0.0
  0
INSERT
  5
48A
330
1F
100
AcDbEntity
  8
COTAS
100
AcDbBlockReference
  2
block 155
 10
0.0
 20
0.0
 30
0.0
  0
INSERT
  5
492
330
1F
100
AcDbEntity
  8
COTAS
100
AcDbBlockReference
  2
block 156
 10
0.0
 20
0.0
 30
0.0
  0
INSERT
  5
49A
330
1F
100
AcDbEntity
  8
COTAS
100
AcDbBlockReference
  2
block 157
 10
0.0
 20
0.0
 30
0.0
  0
INSERT
  5
4A2
330
1F
100
AcDbEntity
  8
COTAS
100
AcDbBlockReference
  2
block 158
 10
0.0
 20
0.0
 30
0.0
  0
INSERT
  5
4AD
330
1F
100
AcDbEntity
  8
COTAS
100
AcDbBlockReference
  2
block 159
 10
0.0
 20
0.0
 30
0.0
  0
INSERT
  5
4B8
330
1F
100
AcDbEntity
  8
COTAS
100
AcDbBlockReference
  2
block 160
 10
0.0
 20
0.0
 30
0.0
  0
INSERT
  5
4BD
330
1F
100
AcDbEntity
  8
COTAS
100
AcDbBlockReference
  2
block 161
 10
0.0
 20
0.0
 30
0.0
  0
INSERT
  5
4C5
330
1F
100
AcDbEntity
  8
COTAS
100
AcDbBlockReference
  2
block 162
 10
0.0
 20
0.0
 30
0.0
  0
INSERT
  5
4CD
330
1F
100
AcDbEntity
  8
COTAS
100
AcDbBlockReference
  2
block 163
 10
0.0
 20
0.0
 30
0.0
  0
INSERT
  5
4D5
330
1F
100
AcDbEntity
  8
COTAS
100
AcDbBlockReference
  2
block 164
 10
0.0
 20
0.0
 30
0.0
  0
INSERT
  5
4E0
330
1F
100
AcDbEntity
  8
COTAS
100
AcDbBlockReference
  2
block 165
 10
0.0
 20
0.0
 30
0.0
  0
INSERT
  5
4EB
330
1F
100
AcDbEntity
  8
COTAS
100
AcDbBlockReference
  2
block 166
 10
0.0
 20
0.0
 30
0.0
  0
INSERT
  5
4F0
330
1F
100
AcDbEntity
  8
COTAS
100
AcDbBlockReference
  2
block 167
 10
0.0
 20
0.0
 30
0.0
  0
INSERT
  5
4F8
330
1F
100
AcDbEntity
  8
COTAS
100
AcDbBlockReference
  2
block 168
 10
0.0
 20
0.0
 30
0.0
  0
INSERT
  5
500
330
1F
100
AcDbEntity
  8
COTAS
100
AcDbBlockReference
  2
block 169
 10
0.0
 20
0.0
 30
0.0
  0
INSERT
  5
508
330
1F
100
AcDbEntity
  8
COTAS
100
AcDbBlockReference
  2
block 170
 10
0.0
 20
0.0
 30
0.0
  0
INSERT
  5
513
330
1F
100
AcDbEntity
  8
COTAS
100
AcDbBlockReference
  2
block 171
 10
0.0
 20
0.0
 30
0.0
  0
INSERT
  5
51E
330
1F
100
AcDbEntity
  8
COTAS
100
AcDbBlockReference
  2
block 172
 10
0.0
 20
0.0
 30
0.0
  0
INSERT
  5
523
330
1F
100
AcDbEntity
  8
COTAS
100
AcDbBlockReference
  2
block 173
 10
0.0
 20
0.0
 30
0.0
  0
INSERT
  5
52B
330
1F
100
AcDbEntity
  8
COTAS
100
AcDbBlockReference
  2
block 174
 10
0.0
 20
0.0
 30
0.0
  0
INSERT
  5
533
330
1F
100
AcDbEntity
  8
COTAS
100
AcDbBlockReference
  2
block 175
 10
0.0
 20
0.0
 30
0.0
  0
INSERT
  5
53B
330
1F
100
AcDbEntity
  8
COTAS
100
AcDbBlockReference
  2
block 176
 10
0.0
 20
0.0
 30
0.0
  0
INSERT
  5
546
330
1F
100
AcDbEntity
  8
COTAS
100
AcDbBlockReference
  2
block 177
 10
0.0
 20
0.0
 30
0.0
  0
INSERT
  5
551
330
1F
100
AcDbEntity
  8
COTAS
100
AcDbBlockReference
  2
block 178
 10
0.0
 20
0.0
 30
0.0
  0
INSERT
  5
557
330
1F
100
AcDbEntity
  8
DEFPOINTS
100
AcDbBlockReference
  2
block 179
 10
0.0
 20
0.0
 30
0.0
  0
INSERT
  5
55F
330
1F
100
AcDbEntity
  8
DEFPOINTS
100
AcDbBlockReference
  2
block 180
 10
0.0
 20
0.0
 30
0.0
  0
INSERT
  5
567
330
1F
100
AcDbEntity
  8
DEFPOINTS
100
AcDbBlockReference
  2
block 181
 10
0.0
 20
0.0
 30
0.0
  0
INSERT
  5
56F
330
1F
100
AcDbEntity
  8
DEFPOINTS
100
AcDbBlockReference
  2
block 182
 10
0.0
 20
0.0
 30
0.0
  0
INSERT
  5
577
330
1F
100
AcDbEntity
  8
DEFPOINTS
100
AcDbBlockReference
  2
block 183
 10
0.0
 20
0.0
 30
0.0
  0
INSERT
  5
57F
330
1F
100
AcDbEntity
  8
DEFPOINTS
100
AcDbBlockReference
  2
block 184
 10
0.0
 20
0.0
 30
0.0
  0
INSERT
  5
587
330
1F
100
AcDbEntity
  8
DEFPOINTS
100
AcDbBlockReference
  2
block 185
 10
0.0
 20
0.0
 30
0.0
  0
INSERT
  5
58F
330
1F
100
AcDbEntity
  8
DEFPOINTS
100
AcDbBlockReference
  2
block 186
 10
0.0
 20
0.0
 30
0.0
  0
INSERT
  5
597
330
1F
100
AcDbEntity
  8
DEFPOINTS
100
AcDbBlockReference
  2
block 187
 10
0.0
 20
0.0
 30
0.0
  0
INSERT
  5
59F
330
1F
100
AcDbEntity
  8
DEFPOINTS
100
AcDbBlockReference
  2
block 188
 10
0.0
 20
0.0
 30
0.0
  0
INSERT
  5
5A7
330
1F
100
AcDbEntity
  8
DEFPOINTS
100
AcDbBlockReference
  2
block 189
 10
0.0
 20
0.0
 30
0.0
  0
INSERT
  5
5AF
330
1F
100
AcDbEntity
  8
DEFPOINTS
100
AcDbBlockReference
  2
block 190
 10
0.0
 20
0.0
 30
0.0
  0
ENDSEC
  0
SECTION
  2
OBJECTS
  0
DICTIONARY
  5
C
330
0
100
AcDbDictionary
281
     1
  3
ACAD_GROUP
350
D
  3
ACAD_LAYOUT
350
1A
  3
ACAD_MATERIAL
350
3B
  3
ACAD_MLEADERSTYLE
350
5BA
  3
ACAD_MLINESTYLE
350
17
  3
ACAD_PLOTSETTINGS
350
19
  3
ACAD_PLOTSTYLENAME
350
E
  3
ACAD_TABLESTYLE
350
5B9
  3
ACAD_VISUALSTYLE
350
2A
  0
SUN
  5
3F
330
29
100
AcDbSun
 90
        1
290
     0
 63
     7
421
 16777215
 40
1.0
291
     1
 91
  2455826
 92
 54000000
292
     0
 70
     2
 71
   256
280
     1
  0
DICTIONARY
  5
D
102
{ACAD_REACTORS
330
C
102
}
330
C
100
AcDbDictionary
281
     1
  0
DICTIONARY
  5
1A
102
{ACAD_REACTORS
330
C
102
}
330
C
100
AcDbDictionary
281
     1
  3
Layout1
350
1E
  3
Layout2
350
26
  3
Model
350
22
  0
DICTIONARY
  5
3B
102
{ACAD_REACTORS
330
C
102
}
330
C
100
AcDbDictionary
281
     1
  3
ByBlock
350
3D
  3
ByLayer
350
3C
  3
Global
350
3E
  0
DICTIONARY
  5
5BA
102
{ACAD_REACTORS
330
C
102
}
330
C
100
AcDbDictionary
281
     1
  0
DICTIONARY
  5
17
102
{ACAD_REACTORS
330
C
102
}
330
C
100
AcDbDictionary
281
     1
  3
Standard
350
18
  0
DICTIONARY
  5
19
102
{ACAD_REACTORS
330
C
102
}
330
C
100
AcDbDictionary
281
     1
  0
ACDBDICTIONARYWDFLT
  5
E
102
{ACAD_REACTORS
330
C
102
}
330
C
100
AcDbDictionary
281
     1
  3
Normal
350
F
100
AcDbDictionaryWithDefault
340
F
  0
DICTIONARY
  5
5B9
102
{ACAD_REACTORS
330
C
102
}
330
C
100
AcDbDictionary
281
     1
  0
DICTIONARY
  5
2A
102
{ACAD_REACTORS
330
C
102
}
330
C
100
AcDbDictionary
281
     1
  3
2dWireframe
350
2F
  3
3D Hidden
350
31
  3
3dWireframe
350
30
  3
Basic
350
32
  3
Brighten
350
36
  3
ColorChange
350
3A
  3
Conceptual
350
34
  3
Dim
350
35
  3
Facepattern
350
39
  3
Flat
350
2B
  3
FlatWithEdges
350
2C
  3
Gouraud
350
2D
  3
GouraudWithEdges
350
2E
  3
Linepattern
350
38
  3
Realistic
350
33
  3
Thicken
350
37
  0
LAYOUT
  5
1E
102
{ACAD_REACTORS
330
1A
102
}
330
1A
100
AcDbPlotSettings
  1

  2
none_device
  4

  6

 40
0.0
 41
0.0
 42
0.0
 43
0.0
 44
0.0
 45
0.0
 46
0.0
 47
0.0
 48
0.0
 49
0.0
140
0.0
141
0.0
142
1.0
143
1.0
 70
   688
 72
     0
 73
     0
 74
     5
  7

 75
    16
 76
     0
 77
     2
 78
   300
147
1.0
148
0.0
149
0.0
100
AcDbLayout
  1
Layout1
 70
     1
 71
     1
 10
0.0
 20
0.0
 11
12.0
 21
9.0
 12
0.0
 22
0.0
 32
0.0
 14
1.000000000000000E+20
 24
1.000000000000000E+20
 34
1.000000000000000E+20
 15
-1.000000000000000E+20
 25
-1.000000000000000E+20
 35
-1.000000000000000E+20
146
0.0
 13
0.0
 23
0.0
 33
0.0
 16
1.0
 26
0.0
 36
0.0
 17
0.0
 27
1.0
 37
0.0
 76
     0
330
1B
  0
LAYOUT
  5
26
102
{ACAD_REACTORS
330
1A
102
}
330
1A
100
AcDbPlotSettings
  1

  2
none_device
  4

  6

 40
0.0
 41
0.0
 42
0.0
 43
0.0
 44
0.0
 45
0.0
 46
0.0
 47
0.0
 48
0.0
 49
0.0
140
0.0
141
0.0
142
1.0
143
1.0
 70
   688
 72
     0
 73
     0
 74
     5
  7

 75
    16
 76
     0
 77
     2
 78
   300
147
1.0
148
0.0
149
0.0
100
AcDbLayout
  1
Layout2
 70
     1
 71
     2
 10
0.0
 20
0.0
 11
0.0
 21
0.0
 12
0.0
 22
0.0
 32
0.0
 14
0.0
 24
0.0
 34
0.0
 15
0.0
 25
0.0
 35
0.0
146
0.0
 13
0.0
 23
0.0
 33
0.0
 16
1.0
 26
0.0
 36
0.0
 17
0.0
 27
1.0
 37
0.0
 76
     0
330
23
  0
LAYOUT
  5
22
102
{ACAD_REACTORS
330
1A
102
}
330
1A
100
AcDbPlotSettings
  1

  2
none_device
  4

  6

 40
0.0
 41
0.0
 42
0.0
 43
0.0
 44
0.0
 45
0.0
 46
0.0
 47
0.0
 48
0.0
 49
0.0
140
0.0
141
0.0
142
1.0
143
1.0
 70
  1712
 72
     0
 73
     0
 74
     0
  7

 75
     0
 76
     0
 77
     2
 78
   300
147
1.0
148
0.0
149
0.0
100
AcDbLayout
  1
Model
 70
     1
 71
     0
 10
0.0
 20
0.0
 11
12.0
 21
9.0
 12
0.0
 22
0.0
 32
0.0
 14
1.000000000000000E+20
 24
1.000000000000000E+20
 34
1.000000000000000E+20
 15
-1.000000000000000E+20
 25
-1.000000000000000E+20
 35
-1.000000000000000E+20
146
0.0
 13
0.0
 23
0.0
 33
0.0
 16
1.0
 26
0.0
 36
0.0
 17
0.0
 27
1.0
 37
0.0
 76
     0
330
1F
331
29
  0
MATERIAL
  5
3D
102
{ACAD_REACTORS
330
3B
102
}
330
3B
100
AcDbMaterial
  1
ByBlock
 72
     1
 94
      127
  0
MATERIAL
  5
3C
102
{ACAD_REACTORS
330
3B
102
}
330
3B
100
AcDbMaterial
  1
ByLayer
 72
     1
 94
      127
  0
MATERIAL
  5
3E
102
{ACAD_REACTORS
330
3B
102
}
330
3B
100
AcDbMaterial
  1
Global
 72
     1
 94
      127
  0
MLINESTYLE
  5
18
102
{ACAD_REACTORS
330
17
102
}
330
17
100
AcDbMlineStyle
  2
Standard
 70
     0
  3

 62
   256
 51
90.0
 52
90.0
 71
     2
 49
0.5
 62
   256
  6
BYLAYER
 49
-0.5
 62
   256
  6
BYLAYER
  0
ACDBPLACEHOLDER
  5
F
102
{ACAD_REACTORS
330
E
102
}
330
E
  0
VISUALSTYLE
  5
2F
102
{ACAD_REACTORS
330
2A
102
}
330
2A
100
AcDbVisualStyle
  2
2dWireframe
 70
     4
177
     2
291
     0
 71
     0
176
     1
 72
     2
176
     1
 73
     0
176
     1
 90
        0
176
     1
 40
-0.6
176
     1
 41
-30.0
176
     1
 62
     5
 63
     7
421
 16777215
176
     1
 74
     1
176
     1
 91
        4
176
     1
 64
     7
176
     1
 65
   257
176
     1
 75
     1
176
     1
175
     1
176
     1
 42
1.0
176
     1
 92
        0
176
     1
 66
   257
176
     1
 43
1.0
176
     1
 76
     1
176
     1
 77
     6
176
     1
 78
     2
176
     1
 67
     7
176
     1
 79
     5
176
     1
170
     0
176
     1
171
     0
176
     1
290
     0
176
     1
 93
        1
176
     1
 44
0.0
176
     1
173
     0
176
     1
  0
VISUALSTYLE
  5
31
102
{ACAD_REACTORS
330
2A
102
}
330
2A
100
AcDbVisualStyle
  2
3D Hidden
 70
     6
177
     2
291
     0
 71
     1
176
     1
 72
     2
176
     1
 73
     2
176
     1
 90
        0
176
     1
 40
-0.6
176
     1
 41
-30.0
176
     1
 62
     5
 63
     7
421
 16777215
176
     1
 74
     2
176
     1
 91
        2
176
     1
 64
     7
176
     1
 65
   257
176
     1
 75
     2
176
     1
175
     1
176
     1
 42
40.0
176
     1
 92
        0
176
     1
 66
   257
176
     1
 43
1.0
176
     1
 76
     1
176
     1
 77
     6
176
     1
 78
     2
176
     1
 67
     7
176
     1
 79
     3
176
     1
170
     0
176
     1
171
     0
176
     1
290
     0
176
     1
 93
        1
176
     1
 44
0.0
176
     1
173
     0
176
     1
  0
VISUALSTYLE
  5
30
102
{ACAD_REACTORS
330
2A
102
}
330
2A
100
AcDbVisualStyle
  2
3dWireframe
 70
     5
177
     2
291
     0
 71
     0
176
     1
 72
     2
176
     1
 73
     0
176
     1
 90
        0
176
     1
 40
-0.6
176
     1
 41
-30.0
176
     1
 62
     5
 63
     7
421
 16777215
176
     1
 74
     1
176
     1
 91
        4
176
     1
 64
     7
176
     1
 65
   257
176
     1
 75
     1
176
     1
175
     1
176
     1
 42
1.0
176
     1
 92
        0
176
     1
 66
   257
176
     1
 43
1.0
176
     1
 76
     1
176
     1
 77
     6
176
     1
 78
     2
176
     1
 67
     7
176
     1
 79
     5
176
     1
170
     0
176
     1
171
     0
176
     1
290
     0
176
     1
 93
        1
176
     1
 44
0.0
176
     1
173
     0
176
     1
  0
VISUALSTYLE
  5
32
102
{ACAD_REACTORS
330
2A
102
}
330
2A
100
AcDbVisualStyle
  2
Basic
 70
     7
177
     2
291
     1
 71
     1
176
     1
 72
     0
176
     1
 73
     1
176
     1
 90
        0
176
     1
 40
-0.6
176
     1
 41
-30.0
176
     1
 62
     5
 63
     7
421
 16777215
176
     1
 74
     0
176
     1
 91
        4
176
     1
 64
     7
176
     1
 65
   257
176
     1
 75
     1
176
     1
175
     1
176
     1
 42
1.0
176
     1
 92
        8
176
     1
 66
     7
176
     1
 43
1.0
176
     1
 76
     1
176
     1
 77
     6
176
     1
 78
     2
176
     1
 67
     7
176
     1
 79
     5
176
     1
170
     0
176
     1
171
     0
176
     1
290
     0
176
     1
 93
        1
176
     1
 44
0.0
176
     1
173
     0
176
     1
  0
VISUALSTYLE
  5
36
102
{ACAD_REACTORS
330
2A
102
}
330
2A
100
AcDbVisualStyle
  2
Brighten
 70
    12
177
     2
291
     1
 71
     2
176
     1
 72
     2
176
     1
 73
     0
176
     1
 90
        0
176
     1
 40
-0.6
176
     1
 41
-30.0
176
     1
 62
     5
 63
     7
421
 16777215
176
     1
 74
     1
176
     1
 91
        4
176
     1
 64
     7
176
     1
 65
   257
176
     1
 75
     1
176
     1
175
     1
176
     1
 42
1.0
176
     1
 92
        8
176
     1
 66
     7
176
     1
 43
1.0
176
     1
 76
     1
176
     1
 77
     6
176
     1
 78
     2
176
     1
 67
     7
176
     1
 79
     5
176
     1
170
     0
176
     1
171
     0
176
     1
290
     0
176
     1
 93
        1
176
     1
 44
50.0
176
     1
173
     0
176
     1
  0
VISUALSTYLE
  5
3A
102
{ACAD_REACTORS
330
2A
102
}
330
2A
100
AcDbVisualStyle
  2
ColorChange
 70
    16
177
     2
291
     1
 71
     2
176
     1
 72
     2
176
     1
 73
     3
176
     1
 90
        0
176
     1
 40
-0.6
176
     1
 41
-30.0
176
     1
 62
     5
 63
     8
421
  8421504
176
     1
 74
     1
176
     1
 91
        4
176
     1
 64
     7
176
     1
 65
   257
176
     1
 75
     1
176
     1
175
     1
176
     1
 42
1.0
176
     1
 92
        8
176
     1
 66
     8
424
  8421504
176
     1
 43
1.0
176
     1
 76
     1
176
     1
 77
     6
176
     1
 78
     2
176
     1
 67
     7
176
     1
 79
     5
176
     1
170
     0
176
     1
171
     0
176
     1
290
     0
176
     1
 93
        1
176
     1
 44
0.0
176
     1
173
     0
176
     1
  0
VISUALSTYLE
  5
34
102
{ACAD_REACTORS
330
2A
102
}
330
2A
100
AcDbVisualStyle
  2
Conceptual
 70
     9
177
     2
291
     0
 71
     3
176
     1
 72
     2
176
     1
 73
     0
176
     1
 90
        0
176
     1
 40
-0.6
176
     1
 41
-30.0
176
     1
 62
     5
 63
     7
421
 16777215
176
     1
 74
     2
176
     1
 91
        2
176
     1
 64
     7
176
     1
 65
   257
176
     1
 75
     1
176
     1
175
     1
176
     1
 42
40.0
176
     1
 92
        8
176
     1
 66
     7
176
     1
 43
1.0
176
     1
 76
     1
176
     1
 77
     6
176
     1
 78
     2
176
     1
 67
     7
176
     1
 79
     3
176
     1
170
     0
176
     1
171
     0
176
     1
290
     0
176
     1
 93
        1
176
     1
 44
0.0
176
     1
173
     0
176
     1
  0
VISUALSTYLE
  5
35
102
{ACAD_REACTORS
330
2A
102
}
330
2A
100
AcDbVisualStyle
  2
Dim
 70
    11
177
     2
291
     1
 71
     2
176
     1
 72
     2
176
     1
 73
     0
176
     1
 90
        0
176
     1
 40
-0.6
176
     1
 41
-30.0
176
     1
 62
     5
 63
     7
421
 16777215
176
     1
 74
     1
176
     1
 91
        4
176
     1
 64
     7
176
     1
 65
   257
176
     1
 75
     1
176
     1
175
     1
176
     1
 42
1.0
176
     1
 92
        8
176
     1
 66
     7
176
     1
 43
1.0
176
     1
 76
     1
176
     1
 77
     6
176
     1
 78
     2
176
     1
 67
     7
176
     1
 79
     5
176
     1
170
     0
176
     1
171
     0
176
     1
290
     0
176
     1
 93
        1
176
     1
 44
-50.0
176
     1
173
     0
176
     1
  0
VISUALSTYLE
  5
39
102
{ACAD_REACTORS
330
2A
102
}
330
2A
100
AcDbVisualStyle
  2
Facepattern
 70
    15
177
     2
291
     1
 71
     2
176
     1
 72
     2
176
     1
 73
     0
176
     1
 90
        0
176
     1
 40
-0.6
176
     1
 41
-30.0
176
     1
 62
     5
 63
     7
421
 16777215
176
     1
 74
     1
176
     1
 91
        4
176
     1
 64
     7
176
     1
 65
   257
176
     1
 75
     1
176
     1
175
     1
176
     1
 42
1.0
176
     1
 92
        8
176
     1
 66
     7
176
     1
 43
1.0
176
     1
 76
     1
176
     1
 77
     6
176
     1
 78
     2
176
     1
 67
     7
176
     1
 79
     5
176
     1
170
     0
176
     1
171
     0
176
     1
290
     0
176
     1
 93
        1
176
     1
 44
0.0
176
     1
173
     0
176
     1
  0
VISUALSTYLE
  5
2B
102
{ACAD_REACTORS
330
2A
102
}
330
2A
100
AcDbVisualStyle
  2
Flat
 70
     0
177
     2
291
     1
 71
     2
176
     1
 72
     1
176
     1
 73
     1
176
     1
 90
        2
176
     1
 40
-0.6
176
     1
 41
30.0
176
     1
 62
     5
 63
     7
421
 16777215
176
     1
 74
     0
176
     1
 91
        4
176
     1
 64
     7
176
     1
 65
   257
176
     1
 75
     1
176
     1
175
     1
176
     1
 42
1.0
176
     1
 92
        8
176
     1
 66
     7
176
     1
 43
1.0
176
     1
 76
     1
176
     1
 77
     6
176
     1
 78
     2
176
     1
 67
     7
176
     1
 79
     5
176
     1
170
     0
176
     1
171
     0
176
     1
290
     0
176
     1
 93
       13
176
     1
 44
0.0
176
     1
173
     0
176
     1
  0
VISUALSTYLE
  5
2C
102
{ACAD_REACTORS
330
2A
102
}
330
2A
100
AcDbVisualStyle
  2
FlatWithEdges
 70
     1
177
     2
291
     1
 71
     2
176
     1
 72
     1
176
     1
 73
     1
176
     1
 90
        2
176
     1
 40
-0.6
176
     1
 41
30.0
176
     1
 62
     5
 63
     7
421
 16777215
176
     1
 74
     1
176
     1
 91
        4
176
     1
 64
     7
176
     1
 65
   257
176
     1
 75
     1
176
     1
175
     1
176
     1
 42
1.0
176
     1
 92
        0
176
     1
 66
   257
176
     1
 43
1.0
176
     1
 76
     1
176
     1
 77
     6
176
     1
 78
     2
176
     1
 67
     7
176
     1
 79
     5
176
     1
170
     0
176
     1
171
     0
176
     1
290
     0
176
     1
 93
       13
176
     1
 44
0.0
176
     1
173
     0
176
     1
  0
VISUALSTYLE
  5
2D
102
{ACAD_REACTORS
330
2A
102
}
330
2A
100
AcDbVisualStyle
  2
Gouraud
 70
     2
177
     2
291
     1
 71
     2
176
     1
 72
     2
176
     1
 73
     1
176
     1
 90
        2
176
     1
 40
-0.6
176
     1
 41
30.0
176
     1
 62
     5
 63
     7
421
 16777215
176
     1
 74
     0
176
     1
 91
        4
176
     1
 64
     7
176
     1
 65
   257
176
     1
 75
     1
176
     1
175
     1
176
     1
 42
1.0
176
     1
 92
        0
176
     1
 66
     7
176
     1
 43
1.0
176
     1
 76
     1
176
     1
 77
     6
176
     1
 78
     2
176
     1
 67
     7
176
     1
 79
     5
176
     1
170
     0
176
     1
171
     0
176
     1
290
     0
176
     1
 93
       13
176
     1
 44
0.0
176
     1
173
     0
176
     1
  0
VISUALSTYLE
  5
2E
102
{ACAD_REACTORS
330
2A
102
}
330
2A
100
AcDbVisualStyle
  2
GouraudWithEdges
 70
     3
177
     2
291
     1
 71
     2
176
     1
 72
     2
176
     1
 73
     1
176
     1
 90
        2
176
     1
 40
-0.6
176
     1
 41
30.0
176
     1
 62
     5
 63
     7
421
 16777215
176
     1
 74
     1
176
     1
 91
        4
176
     1
 64
     7
176
     1
 65
   257
176
     1
 75
     1
176
     1
175
     1
176
     1
 42
1.0
176
     1
 92
        0
176
     1
 66
   257
176
     1
 43
1.0
176
     1
 76
     1
176
     1
 77
     6
176
     1
 78
     2
176
     1
 67
     7
176
     1
 79
     5
176
     1
170
     0
176
     1
171
     0
176
     1
290
     0
176
     1
 93
       13
176
     1
 44
0.0
176
     1
173
     0
176
     1
  0
VISUALSTYLE
  5
38
102
{ACAD_REACTORS
330
2A
102
}
330
2A
100
AcDbVisualStyle
  2
Linepattern
 70
    14
177
     2
291
     1
 71
     2
176
     1
 72
     2
176
     1
 73
     0
176
     1
 90
        0
176
     1
 40
-0.6
176
     1
 41
-30.0
176
     1
 62
     5
 63
     7
421
 16777215
176
     1
 74
     1
176
     1
 91
        4
176
     1
 64
     7
176
     1
 65
   257
176
     1
 75
     7
176
     1
175
     7
176
     1
 42
1.0
176
     1
 92
        8
176
     1
 66
     7
176
     1
 43
1.0
176
     1
 76
     1
176
     1
 77
     6
176
     1
 78
     2
176
     1
 67
     7
176
     1
 79
     5
176
     1
170
     0
176
     1
171
     0
176
     1
290
     0
176
     1
 93
        1
176
     1
 44
0.0
176
     1
173
     0
176
     1
  0
VISUALSTYLE
  5
33
102
{ACAD_REACTORS
330
2A
102
}
330
2A
100
AcDbVisualStyle
  2
Realistic
 70
     8
177
     2
291
     0
 71
     2
176
     1
 72
     2
176
     1
 73
     0
176
     1
 90
        0
176
     1
 40
-0.6
176
     1
 41
-30.0
176
     1
 62
     5
 63
     7
421
 16777215
176
     1
 74
     1
176
     1
 91
        0
176
     1
 64
     7
176
     1
 65
   257
176
     1
 75
     1
176
     1
175
     1
176
     1
 42
1.0
176
     1
 92
        8
176
     1
 66
     8
424
  7895160
176
     1
 43
1.0
176
     1
 76
     1
176
     1
 77
     6
176
     1
 78
     2
176
     1
 67
     7
176
     1
 79
     5
176
     1
170
     0
176
     1
171
     0
176
     1
290
     0
176
     1
 93
       13
176
     1
 44
0.0
176
     1
173
     0
176
     1
  0
VISUALSTYLE
  5
37
102
{ACAD_REACTORS
330
2A
102
}
330
2A
100
AcDbVisualStyle
  2
Thicken
 70
    13
177
     2
291
     1
 71
     2
176
     1
 72
     2
176
     1
 73
     0
176
     1
 90
        0
176
     1
 40
-0.6
176
     1
 41
-30.0
176
     1
 62
     5
 63
     7
421
 16777215
176
     1
 74
     1
176
     1
 91
        4
176
     1
 64
     7
176
     1
 65
   257
176
     1
 75
     1
176
     1
175
     1
176
     1
 42
1.0
176
     1
 92
       12
176
     1
 66
     7
176
     1
 43
1.0
176
     1
 76
     1
176
     1
 77
     6
176
     1
 78
     2
176
     1
 67
     7
176
     1
 79
     5
176
     1
170
     0
176
     1
171
     0
176
     1
290
     0
176
     1
 93
        1
176
     1
 44
0.0
176
     1
173
     0
176
     1
  0
ENDSEC
  0
EOF
