  0
SECTION
  2
HEADER
  9
$ACADVER
  1
AC1015
  9
$ACADMAINTVER
 70
    20
  9
$DWGCODEPAGE
  3
ANSI_1252
  9
$INSBASE
 10
0.0
 20
0.0
 30
0.0
  9
$EXTMIN
 10
11.78343791193015
 20
-33.3071140809991
 30
-0.0015258207003583
  9
$EXTMAX
 10
827.7200733880116
 20
542.7050459143611
 30
0.0000000349246037
  9
$LIMMIN
 10
0.0
 20
0.0
  9
$LIMMAX
 10
420.0
 20
297.0
  9
$ORTHOMODE
 70
     1
  9
$REGENMODE
 70
     1
  9
$FILLMODE
 70
     1
  9
$QTEXTMODE
 70
     0
  9
$MIRRTEXT
 70
     0
  9
$LTSCALE
 40
1.0
  9
$ATTMODE
 70
     1
  9
$TEXTSIZE
 40
2.5
  9
$TRACEWID
 40
1.0
  9
$TEXTSTYLE
  7
Standard
  9
$CLAYER
  8
0
  9
$CELTYPE
  6
ByLayer
  9
$CECOLOR
 62
   256
  9
$CELTSCALE
 40
1.0
  9
$DISPSILH
 70
     0
  9
$DIMSCALE
 40
1.0
  9
$DIMASZ
 40
0.18
  9
$DIMEXO
 40
0.0625
  9
$DIMDLI
 40
0.38
  9
$DIMRND
 40
0.0
  9
$DIMDLE
 40
0.0
  9
$DIMEXE
 40
0.18
  9
$DIMTP
 40
0.0
  9
$DIMTM
 40
0.0
  9
$DIMTXT
 40
0.18
  9
$DIMCEN
 40
0.09
  9
$DIMTSZ
 40
0.0
  9
$DIMTOL
 70
     0
  9
$DIMLIM
 70
     0
  9
$DIMTIH
 70
     1
  9
$DIMTOH
 70
     1
  9
$DIMSE1
 70
     0
  9
$DIMSE2
 70
     0
  9
$DIMTAD
 70
     0
  9
$DIMZIN
 70
     0
  9
$DIMBLK
  1

  9
$DIMASO
 70
     1
  9
$DIMSHO
 70
     1
  9
$DIMPOST
  1

  9
$DIMAPOST
  1

  9
$DIMALT
 70
     0
  9
$DIMALTD
 70
     2
  9
$DIMALTF
 40
25.4
  9
$DIMLFAC
 40
1.0
  9
$DIMTOFL
 70
     0
  9
$DIMTVP
 40
0.0
  9
$DIMTIX
 70
     0
  9
$DIMSOXD
 70
     0
  9
$DIMSAH
 70
     0
  9
$DIMBLK1
  1

  9
$DIMBLK2
  1

  9
$DIMSTYLE
  2
STANDARD
  9
$DIMCLRD
 70
     0
  9
$DIMCLRE
 70
     0
  9
$DIMCLRT
 70
     0
  9
$DIMTFAC
 40
1.0
  9
$DIMGAP
 40
0.09
  9
$DIMJUST
 70
     0
  9
$DIMSD1
 70
     0
  9
$DIMSD2
 70
     0
  9
$DIMTOLJ
 70
     1
  9
$DIMTZIN
 70
     0
  9
$DIMALTZ
 70
     0
  9
$DIMALTTZ
 70
     0
  9
$DIMUPT
 70
     0
  9
$DIMDEC
 70
     4
  9
$DIMTDEC
 70
     4
  9
$DIMALTU
 70
     2
  9
$DIMALTTD
 70
     2
  9
$DIMTXSTY
  7
Standard
  9
$DIMAUNIT
 70
     0
  9
$DIMADEC
 70
     0
  9
$DIMALTRND
 40
0.0
  9
$DIMAZIN
 70
     0
  9
$DIMDSEP
 70
    46
  9
$DIMATFIT
 70
     3
  9
$DIMFRAC
 70
     0
  9
$DIMLDRBLK
  1

  9
$DIMLUNIT
 70
     2
  9
$DIMLWD
 70
    -2
  9
$DIMLWE
 70
    -2
  9
$DIMTMOVE
 70
     0
  9
$LUNITS
 70
     2
  9
$LUPREC
 70
     4
  9
$SKETCHINC
 40
1.0
  9
$FILLETRAD
 40
0.0
  9
$AUNITS
 70
     0
  9
$AUPREC
 70
     0
  9
$MENU
  1
.
  9
$ELEVATION
 40
0.0
  9
$PELEVATION
 40
0.0
  9
$THICKNESS
 40
0.0
  9
$LIMCHECK
 70
     0
  9
$CHAMFERA
 40
0.0
  9
$CHAMFERB
 40
0.0
  9
$CHAMFERC
 40
0.0
  9
$CHAMFERD
 40
0.0
  9
$SKPOLY
 70
     0
  9
$TDCREATE
 40
2455019.583955972
  9
$TDUCREATE
 40
2455019.500622639
  9
$TDUPDATE
 40
2455026.532199607
  9
$TDUUPDATE
 40
2455026.448866274
  9
$TDINDWG
 40
0.1354466782
  9
$TDUSRTIMER
 40
0.1354465046
  9
$USRTIMER
 70
     1
  9
$ANGBASE
 50
0.0
  9
$ANGDIR
 70
     0
  9
$PDMODE
 70
     0
  9
$PDSIZE
 40
0.0
  9
$PLINEWID
 40
0.0
  9
$SPLFRAME
 70
     0
  9
$SPLINETYPE
 70
     6
  9
$SPLINESEGS
 70
     8
  9
$HANDSEED
  5
597
  9
$SURFTAB1
 70
     6
  9
$SURFTAB2
 70
     6
  9
$SURFTYPE
 70
     6
  9
$SURFU
 70
     6
  9
$SURFV
 70
     6
  9
$UCSBASE
  2

  9
$UCSNAME
  2

  9
$UCSORG
 10
0.0
 20
0.0
 30
0.0
  9
$UCSXDIR
 10
1.0
 20
0.0
 30
0.0
  9
$UCSYDIR
 10
0.0
 20
1.0
 30
0.0
  9
$UCSORTHOREF
  2

  9
$UCSORTHOVIEW
 70
     0
  9
$UCSORGTOP
 10
0.0
 20
0.0
 30
0.0
  9
$UCSORGBOTTOM
 10
0.0
 20
0.0
 30
0.0
  9
$UCSORGLEFT
 10
0.0
 20
0.0
 30
0.0
  9
$UCSORGRIGHT
 10
0.0
 20
0.0
 30
0.0
  9
$UCSORGFRONT
 10
0.0
 20
0.0
 30
0.0
  9
$UCSORGBACK
 10
0.0
 20
0.0
 30
0.0
  9
$PUCSBASE
  2

  9
$PUCSNAME
  2

  9
$PUCSORG
 10
0.0
 20
0.0
 30
0.0
  9
$PUCSXDIR
 10
1.0
 20
0.0
 30
0.0
  9
$PUCSYDIR
 10
0.0
 20
1.0
 30
0.0
  9
$PUCSORTHOREF
  2

  9
$PUCSORTHOVIEW
 70
     0
  9
$PUCSORGTOP
 10
0.0
 20
0.0
 30
0.0
  9
$PUCSORGBOTTOM
 10
0.0
 20
0.0
 30
0.0
  9
$PUCSORGLEFT
 10
0.0
 20
0.0
 30
0.0
  9
$PUCSORGRIGHT
 10
0.0
 20
0.0
 30
0.0
  9
$PUCSORGFRONT
 10
0.0
 20
0.0
 30
0.0
  9
$PUCSORGBACK
 10
0.0
 20
0.0
 30
0.0
  9
$USERI1
 70
     0
  9
$USERI2
 70
     0
  9
$USERI3
 70
     0
  9
$USERI4
 70
     0
  9
$USERI5
 70
     0
  9
$USERR1
 40
0.0
  9
$USERR2
 40
0.0
  9
$USERR3
 40
0.0
  9
$USERR4
 40
0.0
  9
$USERR5
 40
0.0
  9
$WORLDVIEW
 70
     1
  9
$SHADEDGE
 70
     3
  9
$SHADEDIF
 70
    70
  9
$TILEMODE
 70
     1
  9
$MAXACTVP
 70
    64
  9
$PINSBASE
 10
0.0
 20
0.0
 30
0.0
  9
$PLIMCHECK
 70
     0
  9
$PEXTMIN
 10
1.000000000000000E+20
 20
1.000000000000000E+20
 30
1.000000000000000E+20
  9
$PEXTMAX
 10
-1.000000000000000E+20
 20
-1.000000000000000E+20
 30
-1.000000000000000E+20
  9
$PLIMMIN
 10
0.0
 20
0.0
  9
$PLIMMAX
 10
420.0
 20
297.0
  9
$UNITMODE
 70
     0
  9
$VISRETAIN
 70
     1
  9
$PLINEGEN
 70
     0
  9
$PSLTSCALE
 70
     1
  9
$TREEDEPTH
 70
  3020
  9
$CMLSTYLE
  2
Standard
  9
$CMLJUST
 70
     0
  9
$CMLSCALE
 40
20.0
  9
$PROXYGRAPHICS
 70
     1
  9
$MEASUREMENT
 70
     1
  9
$CELWEIGHT
370
    -1
  9
$ENDCAPS
280
     0
  9
$JOINSTYLE
280
     0
  9
$LWDISPLAY
290
     0
  9
$INSUNITS
 70
     4
  9
$HYPERLINKBASE
  1

  9
$STYLESHEET
  1

  9
$XEDIT
290
     1
  9
$CEPSNTYPE
380
     0
  9
$PSTYLEMODE
290
     1
  9
$FINGERPRINTGUID
  2
{A6C950DD-243C-480B-8B88-1E8CBBE87BD7}
  9
$VERSIONGUID
  2
{F58E395F-2290-4F8F-BA68-874662FC75A1}
  9
$EXTNAMES
290
     1
  9
$PSVPSCALE
 40
0.0
  9
$OLESTARTUP
290
     0
  0
ENDSEC
  0
SECTION
  2
CLASSES
  0
CLASS
  1
ACDBDICTIONARYWDFLT
  2
AcDbDictionaryWithDefault
  3
ObjectDBX Classes
 90
        0
280
     0
281
     0
  0
CLASS
  1
TABLESTYLE
  2
AcDbTableStyle
  3
ObjectDBX Classes
 90
     2047
280
     0
281
     0
  0
CLASS
  1
SORTENTSTABLE
  2
AcDbSortentsTable
  3
ObjectDBX Classes
 90
        0
280
     0
281
     0
  0
CLASS
  1
DICTIONARYVAR
  2
AcDbDictionaryVar
  3
ObjectDBX Classes
 90
        0
280
     0
281
     0
  0
CLASS
  1
ACDBPLACEHOLDER
  2
AcDbPlaceHolder
  3
ObjectDBX Classes
 90
        0
280
     0
281
     0
  0
CLASS
  1
LAYOUT
  2
AcDbLayout
  3
ObjectDBX Classes
 90
        0
280
     0
281
     0
  0
CLASS
  1
DIMASSOC
  2
AcDbDimAssoc
  3
"AcDbDimAssoc|Product Desc:     AcDim ARX App For Dimension|Company:          Autodesk, Inc.|WEB Address:      www.autodesk.com"
 90
    32768
280
     0
281
     0
  0
ENDSEC
  0
SECTION
  2
TABLES
  0
TABLE
  2
VPORT
  5
8
330
0
100
AcDbSymbolTable
 70
     2
  0
VPORT
  5
58F
330
8
100
AcDbSymbolTableRecord
100
AcDbViewportTableRecord
  2
*Active
 70
     0
 10
0.0
 20
0.0
 11
1.0
 21
1.0
 12
419.7517556499708
 22
254.6989659166809
 13
0.0
 23
0.0
 14
10.0
 24
10.0
 15
10.0
 25
10.0
 16
0.0
 26
0.0
 36
1.0
 17
0.0
 27
0.0
 37
0.0
 40
579.4613346061107
 41
1.525474525474525
 42
50.0
 43
0.0
 44
0.0
 50
0.0
 51
0.0
 71
     0
 72
  1000
 73
     1
 74
     3
 75
     0
 76
     0
 77
     0
 78
     0
281
     0
 65
     1
110
0.0
120
0.0
130
0.0
111
1.0
121
0.0
131
0.0
112
0.0
122
1.0
132
0.0
 79
     0
146
0.0
  0
ENDTAB
  0
TABLE
  2
LTYPE
  5
5
330
0
100
AcDbSymbolTable
 70
     1
  0
LTYPE
  5
14
330
5
100
AcDbSymbolTableRecord
100
AcDbLinetypeTableRecord
  2
ByBlock
 70
     0
  3

 72
    65
 73
     0
 40
0.0
  0
LTYPE
  5
15
330
5
100
AcDbSymbolTableRecord
100
AcDbLinetypeTableRecord
  2
ByLayer
 70
     0
  3

 72
    65
 73
     0
 40
0.0
  0
LTYPE
  5
16
330
5
100
AcDbSymbolTableRecord
100
AcDbLinetypeTableRecord
  2
Continuous
 70
     0
  3
Solid line
 72
    65
 73
     0
 40
0.0
  0
ENDTAB
  0
TABLE
  2
LAYER
  5
2
102
{ACAD_XDICTIONARY
360
35
102
}
330
0
100
AcDbSymbolTable
 70
     2
  0
LAYER
  5
10
330
2
100
AcDbSymbolTableRecord
100
AcDbLayerTableRecord
  2
0
 70
     0
 62
     7
  6
Continuous
370
    -3
390
F
  0
LAYER
  5
22A
330
2
100
AcDbSymbolTableRecord
100
AcDbLayerTableRecord
  2
Defpoints
 70
     0
 62
     7
  6
Continuous
290
     0
370
    -3
390
F
  0
ENDTAB
  0
TABLE
  2
STYLE
  5
3
330
0
100
AcDbSymbolTable
 70
     1
  0
STYLE
  5
11
330
3
100
AcDbSymbolTableRecord
100
AcDbTextStyleTableRecord
  2
Standard
 70
     0
 40
0.0
 41
1.0
 50
0.0
 71
     0
 42
2.5
  3
txt
  4

  0
ENDTAB
  0
TABLE
  2
VIEW
  5
6
330
0
100
AcDbSymbolTable
 70
     0
  0
ENDTAB
  0
TABLE
  2
UCS
  5
7
330
0
100
AcDbSymbolTable
 70
     0
  0
ENDTAB
  0
TABLE
  2
APPID
  5
9
330
0
100
AcDbSymbolTable
 70
     8
  0
APPID
  5
12
330
9
100
AcDbSymbolTableRecord
100
AcDbRegAppTableRecord
  2
ACAD
 70
     0
  0
APPID
  5
34
330
9
100
AcDbSymbolTableRecord
100
AcDbRegAppTableRecord
  2
ACAD_PSEXT
 70
     0
  0
APPID
  5
2E1
330
9
100
AcDbSymbolTableRecord
100
AcDbRegAppTableRecord
  2
ACAD_DSTYLE_DIMTEXT_FILL
 70
     0
  0
APPID
  5
2E2
330
9
100
AcDbSymbolTableRecord
100
AcDbRegAppTableRecord
  2
ACAD_DSTYLE_DIMEXT_LENGTH
 70
     0
  0
APPID
  5
2E3
330
9
100
AcDbSymbolTableRecord
100
AcDbRegAppTableRecord
  2
ACAD_DSTYLE_DIMEXT_ENABLED
 70
     0
  0
APPID
  5
2E4
330
9
100
AcDbSymbolTableRecord
100
AcDbRegAppTableRecord
  2
ACAD_DSTYLE_DIM_LINETYPE
 70
     0
  0
APPID
  5
2E5
330
9
100
AcDbSymbolTableRecord
100
AcDbRegAppTableRecord
  2
ACAD_DSTYLE_DIM_EXT1_LINETYPE
 70
     0
  0
APPID
  5
2E6
330
9
100
AcDbSymbolTableRecord
100
AcDbRegAppTableRecord
  2
ACAD_DSTYLE_DIM_EXT2_LINETYPE
 70
     0
  0
ENDTAB
  0
TABLE
  2
DIMSTYLE
  5
A
330
0
100
AcDbSymbolTable
 70
     1
100
AcDbDimStyleTable
 71
     1
340
33
  0
DIMSTYLE
105
33
330
A
100
AcDbSymbolTableRecord
100
AcDbDimStyleTableRecord
  2
STANDARD
 70
     0
340
11
  0
ENDTAB
  0
TABLE
  2
BLOCK_RECORD
  5
1
330
0
100
AcDbSymbolTable
 70
     2
  0
BLOCK_RECORD
  5
23
102
{ACAD_XDICTIONARY
360
19E
102
}
330
1
100
AcDbSymbolTableRecord
100
AcDbBlockTableRecord
  2
*Model_Space
340
26
  0
BLOCK_RECORD
  5
1F
330
1
100
AcDbSymbolTableRecord
100
AcDbBlockTableRecord
  2
*Paper_Space
340
22
  0
BLOCK_RECORD
  5
27
330
1
100
AcDbSymbolTableRecord
100
AcDbBlockTableRecord
  2
*Paper_Space0
340
2A
  0
BLOCK_RECORD
  5
568
102
{ACAD_XDICTIONARY
360
569
102
}
330
1
100
AcDbSymbolTableRecord
100
AcDbBlockTableRecord
  2
27005_27430_P
340
0
310
2800000020000000200000000100080000000000000400000000000000000000000000000000000000000000000080000080000000808000800000008000800080800000C0C0C000C0DCC000F0CAA6000020400000206000002080000020A0000020C0000020E00000400000004020000040400000406000004080000040A0
310
000040C0000040E00000600000006020000060400000606000006080000060A0000060C0000060E00000800000008020000080400000806000008080000080A0000080C0000080E00000A0000000A0200000A0400000A0600000A0800000A0A00000A0C00000A0E00000C0000000C0200000C0400000C0600000C0800000C0
310
A00000C0C00000C0E00000E0000000E0200000E0400000E0600000E0800000E0A00000E0C00000E0E00040000000400020004000400040006000400080004000A0004000C0004000E00040200000402020004020400040206000402080004020A0004020C0004020E000404000004040200040404000404060004040800040
310
40A0004040C0004040E00040600000406020004060400040606000406080004060A0004060C0004060E00040800000408020004080400040806000408080004080A0004080C0004080E00040A0000040A0200040A0400040A0600040A0800040A0A00040A0C00040A0E00040C0000040C0200040C0400040C0600040C08000
310
40C0A00040C0C00040C0E00040E0000040E0200040E0400040E0600040E0800040E0A00040E0C00040E0E00080000000800020008000400080006000800080008000A0008000C0008000E00080200000802020008020400080206000802080008020A0008020C0008020E00080400000804020008040400080406000804080
310
008040A0008040C0008040E00080600000806020008060400080606000806080008060A0008060C0008060E00080800000808020008080400080806000808080008080A0008080C0008080E00080A0000080A0200080A0400080A0600080A0800080A0A00080A0C00080A0E00080C0000080C0200080C0400080C0600080C0
310
800080C0A00080C0C00080C0E00080E0000080E0200080E0400080E0600080E0800080E0A00080E0C00080E0E000C0000000C0002000C0004000C0006000C0008000C000A000C000C000C000E000C0200000C0202000C0204000C0206000C0208000C020A000C020C000C020E000C0400000C0402000C0404000C0406000C0
310
408000C040A000C040C000C040E000C0600000C0602000C0604000C0606000C0608000C060A000C060C000C060E000C0800000C0802000C0804000C0806000C0808000C080A000C080C000C080E000C0A00000C0A02000C0A04000C0A06000C0A08000C0A0A000C0A0C000C0A0E000C0C00000C0C02000C0C04000C0C06000
310
C0C08000C0C0A000F0FBFF00A4A0A000808080000000FF0000FF000000FFFF00FF000000FF00FF00FFFF0000FFFFFF0000000000000000000000000000000000000000000000000000000000000000000000000000000000000000000000000000000000000000000000000000000000000000000000000000000000000000
310
00000000000000000000000000000000000000000000000000000000000000000000000000000000000000000000000000000000000000000000000000000000000000000000000000000000000000000000000000000000000000000000000000000000000000000000000000000000000000000000000000000000000000
310
0000000000000000000000000000000000000000FFFFFFFFFFFFFFFFFFFFFFFFFFFFFFFFFFFFFFFFFFFFFFFFFFFFFFFF00000000FFFF000000000000000000000000000000000000000000000000FFFF000000FFFF0000000000000000000000000000000000000000000000000000FFFF0000FFFF00000000000000000000
310
00000000000000000000000000000000FFFF0000FFFF0000000000000000000000000000000000000000000000000000FFFF0000FFFF0000000000000000000000000000000000000000000000000000FFFF0000FFFF0000000000000000000000FFFFFFFF0000000000000000000000FFFF0000FFFF000000000000000000
310
0000FFFFFFFF0000000000000000000000FFFF0000FFFF0000000000000000000000FF00FFFF0000000000000000000000FFFF0000FFFF00FF000000000000000000FFFFFFFF000000000000000000FF00FFFF0000FFFF00FFFFFFFFFFFFFFFFFFFFFFFFFFFFFFFFFFFFFFFFFFFFFFFF00FFFF0000FFFF0000FFFFFFFFFFFF
310
FFFFFFFFFFFFFFFFFFFFFFFFFFFFFFFF0000FFFF0000FF00FF0000000000000000FFFF0000000000000000000000000000FF00FF0000FF0000FFFFFFFFFFFFFFFFFFFFFFFFFFFFFFFFFFFFFFFFFFFFFFFF0000FF0000FF00000000000000000000000000FFFF00000000000000000000000000FF0000FF0000000000000000
310
0000000000FFFF00000000000000000000000000FF0000FF00000000000000000000000000000000000000000000000000000000FF0000FFFFFFFFFFFFFFFFFFFFFFFFFFFFFFFFFFFFFFFFFFFFFFFFFFFFFFFFFFFF000000000000000000000000000000000000000000000000000000000000000000000000000000000000
310
00000000000000000000000000000000000000000000000000000000000000000000000000000000000000000000000000000000000000000000000000000000000000000000000000000000000000000000000000000000000000000000000000000000000000000000000000000000000000000000000000000000000000
310
0000000000000000000000000000000000000000000000000000000000000000000000000000000000000000000000000000000000000000
102
{BLKREFS
331
582
102
}
1001
ACAD
1000
DesignCenter Data
1002
{
1070
     1
1070
     4
1002
}
  0
ENDTAB
  0
ENDSEC
  0
SECTION
  2
BLOCKS
  0
BLOCK
  5
24
330
23
100
AcDbEntity
  8
0
100
AcDbBlockBegin
  2
*Model_Space
 70
     0
 10
0.0
 20
0.0
 30
0.0
  3
*Model_Space
  1

  0
ENDBLK
  5
25
330
23
100
AcDbEntity
  8
0
100
AcDbBlockEnd
  0
BLOCK
  5
20
330
1F
100
AcDbEntity
 67
     1
  8
0
100
AcDbBlockBegin
  2
*Paper_Space
 70
     0
 10
0.0
 20
0.0
 30
0.0
  3
*Paper_Space
  1

  0
ENDBLK
  5
21
330
1F
100
AcDbEntity
 67
     1
  8
0
100
AcDbBlockEnd
  0
BLOCK
  5
28
330
27
100
AcDbEntity
 67
     1
  8
0
100
AcDbBlockBegin
  2
*Paper_Space0
 70
     0
 10
0.0
 20
0.0
 30
0.0
  3
*Paper_Space0
  1

  0
ENDBLK
  5
29
330
27
100
AcDbEntity
 67
     1
  8
0
100
AcDbBlockEnd
  0
BLOCK
  5
56C
330
568
100
AcDbEntity
  8
0
100
AcDbBlockBegin
  2
27005_27430_P
 70
     0
 10
0.0
 20
0.0
 30
0.0
  3
27005_27430_P
  1

  0
CIRCLE
  5
56E
330
568
100
AcDbEntity
  8
0
100
AcDbCircle
 10
412.622605783323
 20
352.6481674272716
 30
0.0
 40
23.00000000000022
  0
ARC
  5
56F
330
568
100
AcDbEntity
  8
0
100
AcDbCircle
 10
634.1226057833157
 20
407.6481674273016
 30
0.0
 40
40.0
100
AcDbArc
 50
0.0
 51
90.0
  0
ARC
  5
570
330
568
100
AcDbEntity
  8
0
100
AcDbCircle
 10
683.6226057833175
 20
538.6481674272715
 30
0.0
 40
4.0
100
AcDbArc
 50
0.0
 51
90.0
  0
ARC
  5
571
330
568
100
AcDbEntity
  8
0
100
AcDbCircle
 10
412.6226057833175
 20
352.6481674272716
 30
0.0
 40
36.00000000000008
100
AcDbArc
 50
270.0
 51
90.0
  0
LINE
  5
572
330
568
100
AcDbEntity
  8
0
100
AcDbLine
 10
634.1226057833157
 20
447.6481674273015
 30
0.0
 11
191.1226057833194
 21
447.6481674272942
 31
0.0
  0
CIRCLE
  5
573
330
568
100
AcDbEntity
  8
0
100
AcDbCircle
 10
412.6226057833175
 20
482.6481674272679
 30
0.0
 40
17.5
  0
LINE
  5
574
330
568
100
AcDbEntity
  8
0
100
AcDbLine
 10
211.9966936512067
 20
415.4888685692128
 30
0.0
 11
613.2485179154285
 21
415.4888685692128
 31
0.0
  0
ARC
  5
575
330
568
100
AcDbEntity
  8
0
100
AcDbCircle
 10
613.2485179154285
 20
383.4888685692129
 30
0.0
 40
32.0
100
AcDbArc
 50
0.0
 51
90.0
  0
SPLINE
  5
576
330
568
100
AcDbEntity
  8
0
100
AcDbSpline
210
0.0
220
0.0
230
1.0
 70
     8
 71
     3
 72
    26
 73
    22
 74
     0
 42
0.0000000001
 43
0.0000000001
 40
7.853979450876906
 40
7.853979450876906
 40
7.853979450876906
 40
7.853979450876906
 40
7.919352950397192
 40
7.919352950397192
 40
8.35700805459029
 40
8.35700805459029
 40
8.794663158783388
 40
8.794663158783388
 40
9.124586633184637
 40
9.124586633184637
 40
9.454510107585889
 40
9.454510107585889
 40
9.784433581987139
 40
9.784433581987139
 40
10.11435705638839
 40
10.11435705638839
 40
10.44428053078964
 40
10.44428053078964
 40
10.88286040666045
 40
10.88286040666045
 40
10.99557777686171
 40
10.99557777686171
 40
10.99557777686171
 40
10.99557777686171
 10
352.6226057833121
 20
424.0069742825442
 30
0.0
 10
352.8559124633869
 20
424.00690380019
 30
0.0
 10
353.0892230636421
 20
424.0122398069331
 30
0.0
 10
354.8810950059817
 20
424.0951863821289
 30
0.0
 10
356.4190825881581
 20
424.4111939402653
 30
0.0
 10
359.1929122918957
 20
425.4904286224052
 30
0.0
 10
360.4287514793179
 20
426.2533701624386
 30
0.0
 10
362.1292012900487
 20
427.9020951458776
 30
0.0
 10
362.708920966563
 20
428.7120779243675
 30
0.0
 10
363.4740262148246
 20
430.4598352478467
 30
0.0
 10
363.6565256501346
 20
431.3975979256326
 30
0.0
 10
363.5780798622493
 20
433.2626903762582
 30
0.0
 10
363.3177464637267
 20
434.1860279833424
 30
0.0
 10
362.413686368842
 20
435.8861622309384
 30
0.0
 10
361.7724032101144
 20
436.6637181213234
 30
0.0
 10
360.204967902024
 20
438.0077704060611
 30
0.0
 10
359.2787032526796
 20
438.5751986967305
 30
0.0
 10
356.9040181521743
 20
439.6076893580364
 30
0.0
 10
355.3835012412694
 20
439.9763540100364
 30
0.0
 10
353.4271522959209
 20
440.1329401616392
 30
0.0
 10
353.0248785102997
 20
440.1488168466792
 30
0.0
 10
352.6226057833158
 20
440.1486880142662
 30
0.0
  0
LINE
  5
577
330
568
100
AcDbEntity
  8
0
100
AcDbLine
 10
683.6226057833175
 20
542.6481674272715
 30
0.0
 11
141.6226057833176
 21
542.6481674272788
 31
0.0
  0
ARC
  5
578
330
568
100
AcDbEntity
  8
0
100
AcDbCircle
 10
191.1226057833194
 20
407.6481674273016
 30
0.0
 40
40.0
100
AcDbArc
 50
90.0
 51
180.0
  0
ARC
  5
579
330
568
100
AcDbEntity
  8
0
100
AcDbCircle
 10
141.6226057833212
 20
538.6481674272715
 30
0.0
 40
4.0
100
AcDbArc
 50
90.0
 51
180.0
  0
LWPOLYLINE
  5
57A
330
568
100
AcDbEntity
  8
0
100
AcDbPolyline
 90
       46
 70
   128
 43
0.0
 10
412.6226353396853
 20
206.1481650282865
 10
389.2968648121898
 20
206.1620756799264
 10
364.0298488998781
 20
206.2212983539236
 10
339.9418141364915
 20
206.3180966853458
 10
317.0618543165204
 20
206.4468134728838
 10
295.3450202889582
 20
206.6019423294808
 10
299.7166998354316
 20
206.7784235899078
 10
280.1195978977432
 20
206.9717305346773
 10
261.0205151695229
 20
207.183823296519
 10
242.6725830989929
 20
207.4111239427573
 10
224.9506743841177
 20
207.6524989444431
 10
216.821979190838
 20
207.7699713283898
 10
208.8289147362413
 20
207.8897306717252
 10
201.0716667581876
 20
208.0101372886518
 10
194.2000148841619
 20
208.2147914790501
 10
188.375041655938
 20
209.028531575487
 10
182.4888676710418
 20
210.6302819188993
 10
177.308422959559
 20
212.7665759126601
 10
172.9282940614232
 20
215.1881781914515
 10
170.2958605817714
 20
216.9617690178482
 10
168.0146979771582
 20
218.7272787316713
 10
166.1508412089663
 20
220.3508309462038
 10
164.4480339862878
 20
222.0023433616541
 10
162.366122947122
 20
224.2771814546165
 10
160.0215548360922
 20
227.2455113046988
 10
158.0416271065317
 20
230.1935734221832
 10
156.5416070399026
 20
232.8053241643199
 10
155.428198208345
 20
235.0423143584073
 10
154.6161100889696
 20
236.8996495828712
 10
153.7159945573314
 20
239.2777736032792
 10
152.7554308359724
 20
242.3954011983758
 10
151.884205293358
 20
246.2758047008744
 10
151.2779285931849
 20
250.9863235324108
 10
151.1215258412869
 20
257.1594876060542
 10
151.1217591453917
 20
264.9686426108008
 10
151.1209842398932
 20
291.3729038979652
 10
151.1202689995136
 20
301.1966896770644
 10
151.1196133590731
 20
311.9423836598578
 10
151.1190471241791
 20
323.6100031574204
 10
151.1186597050421
 20
338.0732237054324
 10
151.1185405002054
 20
353.7407013308182
 10
151.1188087197918
 20
370.6124919840693
 10
151.1195835694764
 20
388.688607346008
 10
151.1226057833194
 20
407.6481674273016
 10
151.1226057833194
 20
407.6481674273016
 10
151.1226057833194
 20
407.6481674273016
  0
ARC
  5
57B
330
568
100
AcDbEntity
  8
0
100
AcDbCircle
 10
211.9966936512067
 20
383.4888685692129
 30
0.0
 40
32.0
100
AcDbArc
 50
90.0
 51
180.0
  0
LWPOLYLINE
  5
57C
330
568
100
AcDbEntity
  8
0
100
AcDbPolyline
 90
       46
 70
   128
 43
0.0
 10
412.6226057833175
 20
192.6481674272752
 10
389.2770196249023
 20
192.6620851118302
 10
363.9869029571548
 20
192.7213619310594
 10
339.8767161120907
 20
192.8182492811418
 10
316.9756653656498
 20
192.9470847208238
 10
295.2390584101215
 20
193.1023548204637
 10
299.5923745383755
 20
193.2789931852555
 10
279.9780654658809
 20
193.4724698621965
 10
260.8619469155804
 20
193.684751804564
 10
242.4970406045452
 20
193.9122627336717
 10
224.7668194522396
 20
194.1537509519792
 10
216.6269111384884
 20
194.2713807184434
 10
208.6266714086071
 20
194.3912456590867
 10
200.7659512509838
 20
194.5132563669419
 10
193.0617975940242
 20
194.7427044470048
 10
185.6578576316372
 20
195.7770238477922
 10
178.1260359038845
 20
197.8265891630387
 10
171.4501964797512
 20
200.5795488912797
 10
165.8771621932521
 20
203.6606619913316
 10
162.3843300094143
 20
206.0139427740312
 10
159.4425725688472
 20
208.2907209951616
 10
157.0112991084591
 20
210.408533628676
 10
154.7605681170955
 20
212.5914643366075
 10
152.0761537303463
 20
215.5246387083268
 10
149.1048323859707
 20
219.2864666540361
 10
146.5707111110225
 20
223.0597088892198
 10
144.6349012603298
 20
226.4302323419786
 10
143.1931245078579
 20
229.3269584734178
 10
142.1105849494472
 20
231.8028460104204
 10
140.9396517028347
 20
234.8964760858751
 10
139.6987724055782
 20
238.9239023287034
 10
138.5747182120815
 20
243.9303944666124
 10
137.799828027679
 20
249.9509702284074
 10
137.6215207328334
 20
256.9886992532945
 10
137.6217591514125
 20
264.969045932982
 10
137.6209842910286
 20
291.3717288334408
 10
137.6202690352913
 20
301.1957067806759
 10
137.6196133841988
 20
311.9415599663296
 10
137.6190471400734
 20
323.6093479950466
 10
137.6186597098824
 20
338.072862084631
 10
137.6185405005929
 20
353.7405986149349
 10
137.6188087214943
 20
370.6127065975704
 10
137.6195835818764
 20
388.6891860325375
 10
137.6208650817391
 20
407.9700965244808
 10
137.6227128257271
 20
428.4554678757229
 10
137.6226057833212
 20
538.6481674272715
  0
ARC
  5
57D
330
568
100
AcDbEntity
  8
0
100
AcDbCircle
 10
412.6226057833175
 20
352.6481674272716
 30
0.0
 40
36.00000000000008
100
AcDbArc
 50
90.0
 51
270.0
  0
SPLINE
  5
57E
330
568
100
AcDbEntity
  8
0
100
AcDbSpline
210
0.0
220
0.0
230
1.0
 70
     8
 71
     3
 72
    26
 73
    22
 74
     0
 42
0.0000000001
 43
0.0000000001
 40
7.853979450876906
 40
7.853979450876906
 40
7.853979450876906
 40
7.853979450876906
 40
7.919352950397192
 40
7.919352950397192
 40
8.35700805459029
 40
8.35700805459029
 40
8.794663158783388
 40
8.794663158783388
 40
9.124586633184637
 40
9.124586633184637
 40
9.454510107585889
 40
9.454510107585889
 40
9.784433581987139
 40
9.784433581987139
 40
10.11435705638839
 40
10.11435705638839
 40
10.44428053078964
 40
10.44428053078964
 40
10.88286040666045
 40
10.88286040666045
 40
10.99557777686171
 40
10.99557777686171
 40
10.99557777686171
 40
10.99557777686171
 10
352.6226057833121
 20
424.0069742825442
 30
0.0
 10
352.3892991032373
 20
424.00690380019
 30
0.0
 10
352.1559885029822
 20
424.0122398069331
 30
0.0
 10
350.3641165606425
 20
424.0951863821289
 30
0.0
 10
348.8261289784662
 20
424.4111939402653
 30
0.0
 10
346.0522992747285
 20
425.4904286224052
 30
0.0
 10
344.8164600873063
 20
426.2533701624386
 30
0.0
 10
343.1160102765755
 20
427.9020951458776
 30
0.0
 10
342.5362906000612
 20
428.7120779243675
 30
0.0
 10
341.7711853517996
 20
430.4598352478467
 30
0.0
 10
341.5886859164896
 20
431.3975979256326
 30
0.0
 10
341.6671317043749
 20
433.2626903762582
 30
0.0
 10
341.9274651028975
 20
434.1860279833424
 30
0.0
 10
342.8315251977822
 20
435.8861622309384
 30
0.0
 10
343.4728083565099
 20
436.6637181213234
 30
0.0
 10
345.0402436646002
 20
438.0077704060611
 30
0.0
 10
345.9665083139446
 20
438.5751986967305
 30
0.0
 10
348.3411934144499
 20
439.6076893580364
 30
0.0
 10
349.8617103253548
 20
439.9763540100364
 30
0.0
 10
351.8180592707033
 20
440.1329401616392
 30
0.0
 10
352.2203330563245
 20
440.1488168466792
 30
0.0
 10
352.6226057833085
 20
440.1486880142662
 30
0.0
  0
ARC
  5
57F
330
568
100
AcDbEntity
  8
0
100
AcDbCircle
 10
412.6226057833139
 20
4671.48116448504
 30
0.0
 40
4271.155063369036
100
AcDbArc
 50
267.344186965373
 51
272.655813034627
  0
LWPOLYLINE
  5
580
330
568
100
AcDbEntity
  8
0
100
AcDbPolyline
 90
       46
 70
   128
 43
0.0
 10
412.6226353396853
 20
206.1481650282865
 10
435.9484058671807
 20
206.1620756799264
 10
461.2154217794925
 20
206.2212983539236
 10
485.303456542879
 20
206.3180966853458
 10
508.1834163628502
 20
206.4468134728838
 10
504.9002503904123
 20
206.6019423294808
 10
525.5285708439389
 20
206.7784235899078
 10
545.1256727816273
 20
206.9717305346773
 10
564.2247555098476
 20
207.183823296519
 10
582.5726875803777
 20
207.4111239427573
 10
600.2945962952528
 20
207.6524989444431
 10
608.4232914885326
 20
207.7699713283898
 10
616.4163559431292
 20
207.8897306717252
 10
624.173603921183
 20
208.0101372886518
 10
631.0452557952087
 20
208.2147914790501
 10
636.8702290234325
 20
209.028531575487
 10
642.7564030083288
 20
210.6302819188993
 10
647.9368477198115
 20
212.7665759126601
 10
652.3169766179473
 20
215.1881781914515
 10
654.9494100975992
 20
216.9617690178482
 10
657.2305727022124
 20
218.7272787316713
 10
659.0944294704042
 20
220.3508309462038
 10
660.7972366930828
 20
222.0023433616541
 10
662.8791477322486
 20
224.2771814546165
 10
665.2237158432783
 20
227.2455113046988
 10
667.2036435728389
 20
230.1935734221832
 10
668.703663639468
 20
232.8053241643199
 10
669.8170724710255
 20
235.0423143584073
 10
670.6291605904009
 20
236.8996495828712
 10
671.5292761220391
 20
239.2777736032792
 10
672.4898398433981
 20
242.3954011983758
 10
673.3610653860125
 20
246.2758047008744
 10
673.9673420861857
 20
250.9863235324108
 10
674.1237448380836
 20
257.1594876060542
 10
674.1235115339788
 20
264.9686426108008
 10
674.1242864394737
 20
291.3729038979652
 10
674.1250016798533
 20
301.1966896770644
 10
674.1256573202938
 20
311.9423836598578
 10
674.1262235551878
 20
323.6100031574204
 10
674.1266109743248
 20
338.0732237054324
 10
674.1267301791615
 20
353.7407013308182
 10
674.1264619595751
 20
370.6124919840693
 10
674.1256871098905
 20
388.688607346008
 10
674.1226648960475
 20
407.6481674273016
 10
674.1226648960475
 20
407.6481674273016
 10
674.1226648960475
 20
407.6481674273016
  0
LWPOLYLINE
  5
581
330
568
100
AcDbEntity
  8
0
100
AcDbPolyline
 90
       46
 70
   128
 43
0.0
 10
412.622664896053
 20
192.6481674272752
 10
435.9682510544683
 20
192.6620851118302
 10
461.2583677222158
 20
192.7213619310594
 10
485.3685545672799
 20
192.8182492811418
 10
508.2696053137208
 20
192.9470847208238
 10
505.0062122692491
 20
193.1023548204637
 10
525.6528961409951
 20
193.2789931852555
 10
545.2672052134897
 20
193.4724698621965
 10
564.3833237637903
 20
193.684751804564
 10
582.7482300748254
 20
193.9122627336717
 10
600.478451227131
 20
194.1537509519792
 10
608.6183595408822
 20
194.2713807184434
 10
616.6185992707635
 20
194.3912456590867
 10
624.4793194283868
 20
194.5132563669419
 10
632.1834730853463
 20
194.7427044470048
 10
639.5874130477334
 20
195.7770238477922
 10
647.1192347754861
 20
197.8265891630387
 10
653.7950741996194
 20
200.5795488912797
 10
659.3681084861184
 20
203.6606619913316
 10
662.8609406699563
 20
206.0139427740312
 10
665.8026981105233
 20
208.2907209951616
 10
668.2339715709115
 20
210.408533628676
 10
670.4847025622751
 20
212.5914643366075
 10
673.1691169490243
 20
215.5246387083268
 10
676.1404382933999
 20
219.2864666540361
 10
678.6745595683481
 20
223.0597088892198
 10
680.6103694190408
 20
226.4302323419786
 10
682.0521461715127
 20
229.3269584734178
 10
683.1346857299234
 20
231.8028460104204
 10
684.3056189765359
 20
234.8964760858751
 10
685.5464982737924
 20
238.9239023287034
 10
686.6705524672891
 20
243.9303944666124
 10
687.4454426516916
 20
249.9509702284074
 10
687.6237499465371
 20
256.9886992532945
 10
687.623511527958
 20
264.969045932982
 10
687.6242863883383
 20
291.3717288334408
 10
687.6250016440756
 20
301.1957067806759
 10
687.6256572951681
 20
311.9415599663296
 10
687.6262235392935
 20
323.6093479950466
 10
687.6266109694845
 20
338.072862084631
 10
687.626730178774
 20
353.7405986149349
 10
687.6264619578726
 20
370.6127065975704
 10
687.6256870974905
 20
388.6891860325375
 10
687.6244055976278
 20
407.9700965244808
 10
687.6225578536398
 20
428.4554678757229
 10
687.6226648960494
 20
538.6481674272715
  0
ENDBLK
  5
56D
330
568
100
AcDbEntity
  8
0
100
AcDbBlockEnd
  0
ENDSEC
  0
SECTION
  2
ENTITIES
  0
MTEXT
  5
6B
330
23
100
AcDbEntity
  8
0
100
AcDbMText
 10
13.67895064802198
 20
26.44333632592591
 30
0.0
 40
20.0
 41
853.3333333333334
 71
     1
 72
     5
  1
{\fTimes New Roman|b0|i0|c0|p18;\C0;LAVAMANOS  DE 55x35 CM CON COLUMNA.  SERIE EMMA SQUARE }
 73
     1
 44
1.0
1001
ACAD
1000
ACAD_MTEXT_DEFINED_HEIGHT_BEGIN
1070
    46
1040
0.0
1000
ACAD_MTEXT_DEFINED_HEIGHT_END
1000
MTEXTBEGIN
1070
    73
1070
     1
1070
    44
1040
1.0
1070
    74
1070
     0
1000
MTEXTEND
  0
INSERT
  5
582
330
23
100
AcDbEntity
  8
0
100
AcDbBlockReference
  2
27005_27430_P
 10
0.0
 20
0.0
 30
0.0
  0
ENDSEC
  0
SECTION
  2
OBJECTS
  0
DICTIONARY
  5
C
330
0
100
AcDbDictionary
281
     1
  3
ACAD_COLOR
350
1C
  3
ACAD_GROUP
350
D
  3
ACAD_LAYOUT
350
1A
  3
ACAD_MATERIAL
350
1B
  3
ACAD_MLINESTYLE
350
17
  3
ACAD_PLOTSETTINGS
350
19
  3
ACAD_PLOTSTYLENAME
350
E
  3
ACAD_TABLESTYLE
350
1D
  3
ACDBHEADERROUNDTRIPXREC
350
590
  3
AcDbVariableDictionary
350
111
  0
DICTIONARY
  5
35
330
2
100
AcDbDictionary
280
     1
281
     1
  3
ACAD_LAYERSTATES
360
36
  0
DICTIONARY
  5
19E
330
23
100
AcDbDictionary
280
     1
281
     1
  3
ACAD_SORTENTS
360
19F
  0
DICTIONARY
  5
569
330
568
100
AcDbDictionary
280
     1
281
     1
  3
AcDbBlockTableRecordData
360
56A
  0
DICTIONARY
  5
1C
102
{ACAD_REACTORS
330
C
102
}
330
C
100
AcDbDictionary
281
     1
  0
DICTIONARY
  5
D
102
{ACAD_REACTORS
330
C
102
}
330
C
100
AcDbDictionary
281
     1
  0
DICTIONARY
  5
1A
102
{ACAD_REACTORS
330
C
102
}
330
C
100
AcDbDictionary
281
     1
  3
Model
350
26
  3
Presentación1
350
22
  3
Presentación2
350
2A
  0
DICTIONARY
  5
1B
102
{ACAD_REACTORS
330
C
102
}
330
C
100
AcDbDictionary
281
     1
  0
DICTIONARY
  5
17
102
{ACAD_REACTORS
330
C
102
}
330
C
100
AcDbDictionary
281
     1
  3
Standard
350
18
  0
DICTIONARY
  5
19
102
{ACAD_REACTORS
330
C
102
}
330
C
100
AcDbDictionary
281
     1
  0
ACDBDICTIONARYWDFLT
  5
E
102
{ACAD_REACTORS
330
C
102
}
330
C
100
AcDbDictionary
281
     1
  3
Normal
350
F
100
AcDbDictionaryWithDefault
340
F
  0
DICTIONARY
  5
1D
102
{ACAD_REACTORS
330
C
102
}
330
C
100
AcDbDictionary
281
     1
  3
Standard
350
1E
  0
DICTIONARY
  5
590
102
{ACAD_REACTORS
330
C
102
}
330
C
100
AcDbDictionary
281
     1
  0
DICTIONARY
  5
111
102
{ACAD_REACTORS
330
C
102
}
330
C
100
AcDbDictionary
281
     1
  3
CTABLESTYLE
350
112
  3
DIMASSOC
350
114
  3
HIDETEXT
350
113
  3
PROJECTNAME
350
115
  0
DICTIONARY
  5
36
102
{ACAD_REACTORS
330
35
102
}
330
35
100
AcDbDictionary
281
     1
  0
SORTENTSTABLE
  5
19F
102
{ACAD_REACTORS
330
19E
102
}
330
19E
100
AcDbSortentsTable
330
23
331
6B
  5
6B
  0
DICTIONARY
  5
56A
102
{ACAD_REACTORS
330
569
102
}
330
569
100
AcDbDictionary
280
     1
281
     1
  3
Edit
360
56B
  0
LAYOUT
  5
26
102
{ACAD_XDICTIONARY
360
593
102
}
102
{ACAD_REACTORS
330
1A
102
}
330
1A
100
AcDbPlotSettings
  1

  2
\\CERAMICAS_GALA\PRT_BU_OT_01.ZPRINTERS.BURGOS
  4

  6

 40
0.0
 41
0.0
 42
0.0
 43
0.0
 44
0.0
 45
0.0
 46
0.0
 47
0.0
 48
0.0
 49
0.0
140
0.0
141
0.0
142
1.0
143
1.0
 70
  1712
 72
     0
 73
     0
 74
     0
  7
C:\Documents and Settings\G0810\Application Data\Autodesk\AutoCAD 2006\R16.2\esp\Plot Styles\jj.stb
 75
     0
147
1.0
148
0.0
149
0.0
100
AcDbLayout
  1
Model
 70
     1
 71
     0
 10
0.0
 20
0.0
 11
12.0
 21
9.0
 12
0.0
 22
0.0
 32
0.0
 14
0.0
 24
0.0
 34
0.0
 15
0.0
 25
0.0
 35
0.0
146
0.0
 13
0.0
 23
0.0
 33
0.0
 16
1.0
 26
0.0
 36
0.0
 17
0.0
 27
1.0
 37
0.0
 76
     0
330
23
  0
LAYOUT
  5
22
102
{ACAD_XDICTIONARY
360
591
102
}
102
{ACAD_REACTORS
330
1A
102
}
330
1A
100
AcDbPlotSettings
  1

  2
\\CERAMICAS_GALA\PRT_BU_OT_01.ZPRINTERS.BURGOS
  4

  6

 40
0.0
 41
0.0
 42
0.0
 43
0.0
 44
0.0
 45
0.0
 46
0.0
 47
0.0
 48
0.0
 49
0.0
140
0.0
141
0.0
142
1.0
143
1.0
 70
   688
 72
     0
 73
     0
 74
     5
  7
C:\Documents and Settings\G0810\Application Data\Autodesk\AutoCAD 2006\R16.2\esp\Plot Styles\jj.stb
 75
    16
147
1.0
148
0.0
149
0.0
100
AcDbLayout
  1
Presentación1
 70
     1
 71
     1
 10
0.0
 20
0.0
 11
420.0
 21
297.0
 12
0.0
 22
0.0
 32
0.0
 14
1.000000000000000E+20
 24
1.000000000000000E+20
 34
1.000000000000000E+20
 15
-1.000000000000000E+20
 25
-1.000000000000000E+20
 35
-1.000000000000000E+20
146
0.0
 13
0.0
 23
0.0
 33
0.0
 16
1.0
 26
0.0
 36
0.0
 17
0.0
 27
1.0
 37
0.0
 76
     0
330
1F
  0
LAYOUT
  5
2A
102
{ACAD_XDICTIONARY
360
595
102
}
102
{ACAD_REACTORS
330
1A
102
}
330
1A
100
AcDbPlotSettings
  1

  2
\\CERAMICAS_GALA\PRT_BU_OT_01.ZPRINTERS.BURGOS
  4

  6

 40
0.0
 41
0.0
 42
0.0
 43
0.0
 44
0.0
 45
0.0
 46
0.0
 47
0.0
 48
0.0
 49
0.0
140
0.0
141
0.0
142
1.0
143
1.0
 70
   688
 72
     0
 73
     0
 74
     5
  7
C:\Documents and Settings\G0810\Application Data\Autodesk\AutoCAD 2006\R16.2\esp\Plot Styles\jj.stb
 75
    16
147
1.0
148
0.0
149
0.0
100
AcDbLayout
  1
Presentación2
 70
     1
 71
     2
 10
0.0
 20
0.0
 11
12.0
 21
9.0
 12
0.0
 22
0.0
 32
0.0
 14
0.0
 24
0.0
 34
0.0
 15
0.0
 25
0.0
 35
0.0
146
0.0
 13
0.0
 23
0.0
 33
0.0
 16
1.0
 26
0.0
 36
0.0
 17
0.0
 27
1.0
 37
0.0
 76
     0
330
27
  0
MLINESTYLE
  5
18
102
{ACAD_REACTORS
330
17
102
}
330
17
100
AcDbMlineStyle
  2
STANDARD
 70
     0
  3

 62
   256
 51
90.0
 52
90.0
 71
     2
 49
0.5
 62
   256
  6
BYLAYER
 49
-0.5
 62
   256
  6
BYLAYER
  0
ACDBPLACEHOLDER
  5
F
102
{ACAD_REACTORS
330
E
102
}
330
E
  0
TABLESTYLE
  5
1E
102
{ACAD_REACTORS
330
1D
102
}
330
1D
100
AcDbTableStyle
  3
Standard
 70
     0
 71
     0
 40
1.5
 41
1.5
280
     0
281
     0
  7
Standard
140
4.5
170
     2
 62
     0
 63
     7
283
     0
274
    -2
284
     1
 64
     0
275
    -2
285
     1
 65
     0
276
    -2
286
     1
 66
     0
277
    -2
287
     1
 67
     0
278
    -2
288
     1
 68
     0
279
    -2
289
     1
 69
     0
  7
Standard
140
6.0
170
     5
 62
     0
 63
     7
283
     0
274
    -2
284
     1
 64
     0
275
    -2
285
     1
 65
     0
276
    -2
286
     1
 66
     0
277
    -2
287
     1
 67
     0
278
    -2
288
     1
 68
     0
279
    -2
289
     1
 69
     0
  7
Standard
140
4.5
170
     5
 62
     0
 63
     7
283
     0
274
    -2
284
     1
 64
     0
275
    -2
285
     1
 65
     0
276
    -2
286
     1
 66
     0
277
    -2
287
     1
 67
     0
278
    -2
288
     1
 68
     0
279
    -2
289
     1
 69
     0
  0
DICTIONARYVAR
  5
112
102
{ACAD_REACTORS
330
111
102
}
330
111
100
DictionaryVariables
280
     0
  1
STANDARD
  0
DICTIONARYVAR
  5
114
102
{ACAD_REACTORS
330
111
102
}
330
111
100
DictionaryVariables
280
     0
  1
2
  0
DICTIONARYVAR
  5
113
102
{ACAD_REACTORS
330
111
102
}
330
111
100
DictionaryVariables
280
     0
  1
1
  0
DICTIONARYVAR
  5
115
102
{ACAD_REACTORS
330
111
102
}
330
111
100
DictionaryVariables
280
     0
  1

  0
XRECORD
  5
56B
102
{ACAD_REACTORS
330
56A
102
}
330
56A
100
AcDbXrecord
280
     1
1070
     0
1070
     0
1070
     0
  0
DICTIONARY
  5
593
330
26
100
AcDbDictionary
280
     1
281
     1
  3
ACAD_XREC_ROUNDTRIP
360
594
  0
DICTIONARY
  5
591
330
22
100
AcDbDictionary
280
     1
281
     1
  3
ACAD_XREC_ROUNDTRIP
360
592
  0
DICTIONARY
  5
595
330
2A
100
AcDbDictionary
280
     1
281
     1
  3
ACAD_XREC_ROUNDTRIP
360
596
  0
XRECORD
  5
594
102
{ACAD_REACTORS
330
593
102
}
330
593
100
AcDbXrecord
280
     1
102
SHADEPLOT
 70
     0
102
SHADEPLOTRESLEVEL
 70
     2
102
SHADEPLOTCUSTOMDPI
 70
   300
  0
XRECORD
  5
592
102
{ACAD_REACTORS
330
591
102
}
330
591
100
AcDbXrecord
280
     1
102
SHADEPLOT
 70
     0
102
SHADEPLOTRESLEVEL
 70
     2
102
SHADEPLOTCUSTOMDPI
 70
   300
  0
XRECORD
  5
596
102
{ACAD_REACTORS
330
595
102
}
330
595
100
AcDbXrecord
280
     1
102
SHADEPLOT
 70
     0
102
SHADEPLOTRESLEVEL
 70
     2
102
SHADEPLOTCUSTOMDPI
 70
   300
  0
ENDSEC
  0
EOF
