  0
SECTION
  2
HEADER
  9
$ACADVER
  1
AC1024
  9
$ACADMAINTVER
 70
   226
  9
$DWGCODEPAGE
  3
ANSI_1252
  9
$INSBASE
 10
0.0
 20
0.0
 30
0.0
  9
$EXTMIN
 10
1.000000000000000E+20
 20
1.000000000000000E+20
 30
1.000000000000000E+20
  9
$EXTMAX
 10
-1.000000000000000E+20
 20
-1.000000000000000E+20
 30
-1.000000000000000E+20
  9
$LIMMIN
 10
0.0
 20
0.0
  9
$LIMMAX
 10
12.0
 20
9.0
  9
$ORTHOMODE
 70
     0
  9
$REGENMODE
 70
     1
  9
$FILLMODE
 70
     1
  9
$QTEXTMODE
 70
     0
  9
$MIRRTEXT
 70
     0
  9
$LTSCALE
 40
1.0
  9
$ATTMODE
 70
     1
  9
$TEXTSIZE
 40
0.2
  9
$TRACEWID
 40
0.05
  9
$TEXTSTYLE
  7
Standard
  9
$CLAYER
  8
0
  9
$CELTYPE
  6
ByLayer
  9
$CECOLOR
 62
   256
  9
$CELTSCALE
 40
1.0
  9
$DISPSILH
 70
     0
  9
$DIMSCALE
 40
1.0
  9
$DIMASZ
 40
0.18
  9
$DIMEXO
 40
0.0625
  9
$DIMDLI
 40
0.38
  9
$DIMRND
 40
0.0
  9
$DIMDLE
 40
0.0
  9
$DIMEXE
 40
0.18
  9
$DIMTP
 40
0.0
  9
$DIMTM
 40
0.0
  9
$DIMTXT
 40
0.18
  9
$DIMCEN
 40
0.09
  9
$DIMTSZ
 40
0.0
  9
$DIMTOL
 70
     0
  9
$DIMLIM
 70
     0
  9
$DIMTIH
 70
     1
  9
$DIMTOH
 70
     1
  9
$DIMSE1
 70
     0
  9
$DIMSE2
 70
     0
  9
$DIMTAD
 70
     0
  9
$DIMZIN
 70
     0
  9
$DIMBLK
  1

  9
$DIMASO
 70
     1
  9
$DIMSHO
 70
     1
  9
$DIMPOST
  1

  9
$DIMAPOST
  1

  9
$DIMALT
 70
     0
  9
$DIMALTD
 70
     2
  9
$DIMALTF
 40
25.4
  9
$DIMLFAC
 40
1.0
  9
$DIMTOFL
 70
     0
  9
$DIMTVP
 40
0.0
  9
$DIMTIX
 70
     0
  9
$DIMSOXD
 70
     0
  9
$DIMSAH
 70
     0
  9
$DIMBLK1
  1

  9
$DIMBLK2
  1

  9
$DIMSTYLE
  2
Standard
  9
$DIMCLRD
 70
     0
  9
$DIMCLRE
 70
     0
  9
$DIMCLRT
 70
     0
  9
$DIMTFAC
 40
1.0
  9
$DIMGAP
 40
0.09
  9
$DIMJUST
 70
     0
  9
$DIMSD1
 70
     0
  9
$DIMSD2
 70
     0
  9
$DIMTOLJ
 70
     1
  9
$DIMTZIN
 70
     0
  9
$DIMALTZ
 70
     0
  9
$DIMALTTZ
 70
     0
  9
$DIMUPT
 70
     0
  9
$DIMDEC
 70
     4
  9
$DIMTDEC
 70
     4
  9
$DIMALTU
 70
     2
  9
$DIMALTTD
 70
     2
  9
$DIMTXSTY
  7
Standard
  9
$DIMAUNIT
 70
     0
  9
$DIMADEC
 70
     0
  9
$DIMALTRND
 40
0.0
  9
$DIMAZIN
 70
     0
  9
$DIMDSEP
 70
    46
  9
$DIMATFIT
 70
     3
  9
$DIMFRAC
 70
     0
  9
$DIMLDRBLK
  1

  9
$DIMLUNIT
 70
     2
  9
$DIMLWD
 70
    -2
  9
$DIMLWE
 70
    -2
  9
$DIMTMOVE
 70
     0
  9
$DIMFXL
 40
1.0
  9
$DIMFXLON
 70
     0
  9
$DIMJOGANG
 40
0.7853981633974483
  9
$DIMTFILL
 70
     0
  9
$DIMTFILLCLR
 70
     0
  9
$DIMARCSYM
 70
     0
  9
$DIMLTYPE
  6

  9
$DIMLTEX1
  6

  9
$DIMLTEX2
  6

  9
$DIMTXTDIRECTION
 70
     0
  9
$LUNITS
 70
     2
  9
$LUPREC
 70
     4
  9
$SKETCHINC
 40
0.1
  9
$FILLETRAD
 40
0.0
  9
$AUNITS
 70
     0
  9
$AUPREC
 70
     0
  9
$MENU
  1
.
  9
$ELEVATION
 40
0.0
  9
$PELEVATION
 40
0.0
  9
$THICKNESS
 40
0.0
  9
$LIMCHECK
 70
     0
  9
$CHAMFERA
 40
0.0
  9
$CHAMFERB
 40
0.0
  9
$CHAMFERC
 40
0.0
  9
$CHAMFERD
 40
0.0
  9
$SKPOLY
 70
     0
  9
$TDCREATE
 40
2459626.515520834
  9
$TDUCREATE
 40
2459626.473854167
  9
$TDUPDATE
 40
2459626.515520834
  9
$TDUUPDATE
 40
2459626.473854167
  9
$TDINDWG
 40
0.0000000000
  9
$TDUSRTIMER
 40
0.0000000000
  9
$USRTIMER
 70
     1
  9
$ANGBASE
 50
0.0
  9
$ANGDIR
 70
     0
  9
$PDMODE
 70
     0
  9
$PDSIZE
 40
0.0
  9
$PLINEWID
 40
0.0
  9
$SPLFRAME
 70
     0
  9
$SPLINETYPE
 70
     6
  9
$SPLINESEGS
 70
     8
  9
$HANDSEED
  5
1E5
  9
$SURFTAB1
 70
     6
  9
$SURFTAB2
 70
     6
  9
$SURFTYPE
 70
     6
  9
$SURFU
 70
     6
  9
$SURFV
 70
     6
  9
$UCSBASE
  2

  9
$UCSNAME
  2

  9
$UCSORG
 10
0.0
 20
0.0
 30
0.0
  9
$UCSXDIR
 10
1.0
 20
0.0
 30
0.0
  9
$UCSYDIR
 10
0.0
 20
1.0
 30
0.0
  9
$UCSORTHOREF
  2

  9
$UCSORTHOVIEW
 70
     0
  9
$UCSORGTOP
 10
0.0
 20
0.0
 30
0.0
  9
$UCSORGBOTTOM
 10
0.0
 20
0.0
 30
0.0
  9
$UCSORGLEFT
 10
0.0
 20
0.0
 30
0.0
  9
$UCSORGRIGHT
 10
0.0
 20
0.0
 30
0.0
  9
$UCSORGFRONT
 10
0.0
 20
0.0
 30
0.0
  9
$UCSORGBACK
 10
0.0
 20
0.0
 30
0.0
  9
$PUCSBASE
  2

  9
$PUCSNAME
  2

  9
$PUCSORG
 10
0.0
 20
0.0
 30
0.0
  9
$PUCSXDIR
 10
1.0
 20
0.0
 30
0.0
  9
$PUCSYDIR
 10
0.0
 20
1.0
 30
0.0
  9
$PUCSORTHOREF
  2

  9
$PUCSORTHOVIEW
 70
     0
  9
$PUCSORGTOP
 10
0.0
 20
0.0
 30
0.0
  9
$PUCSORGBOTTOM
 10
0.0
 20
0.0
 30
0.0
  9
$PUCSORGLEFT
 10
0.0
 20
0.0
 30
0.0
  9
$PUCSORGRIGHT
 10
0.0
 20
0.0
 30
0.0
  9
$PUCSORGFRONT
 10
0.0
 20
0.0
 30
0.0
  9
$PUCSORGBACK
 10
0.0
 20
0.0
 30
0.0
  9
$USERI1
 70
     0
  9
$USERI2
 70
     0
  9
$USERI3
 70
     0
  9
$USERI4
 70
     0
  9
$USERI5
 70
     0
  9
$USERR1
 40
0.0
  9
$USERR2
 40
0.0
  9
$USERR3
 40
0.0
  9
$USERR4
 40
0.0
  9
$USERR5
 40
0.0
  9
$WORLDVIEW
 70
     1
  9
$SHADEDGE
 70
     3
  9
$SHADEDIF
 70
    70
  9
$TILEMODE
 70
     1
  9
$MAXACTVP
 70
    64
  9
$PINSBASE
 10
0.0
 20
0.0
 30
0.0
  9
$PLIMCHECK
 70
     0
  9
$PEXTMIN
 10
1.000000000000000E+20
 20
1.000000000000000E+20
 30
1.000000000000000E+20
  9
$PEXTMAX
 10
-1.000000000000000E+20
 20
-1.000000000000000E+20
 30
-1.000000000000000E+20
  9
$PLIMMIN
 10
0.0
 20
0.0
  9
$PLIMMAX
 10
12.0
 20
9.0
  9
$UNITMODE
 70
     0
  9
$VISRETAIN
 70
     1
  9
$PLINEGEN
 70
     0
  9
$PSLTSCALE
 70
     1
  9
$TREEDEPTH
 70
  3020
  9
$CMLSTYLE
  2
Standard
  9
$CMLJUST
 70
     0
  9
$CMLSCALE
 40
1.0
  9
$PROXYGRAPHICS
 70
     1
  9
$MEASUREMENT
 70
     0
  9
$CELWEIGHT
370
    -1
  9
$ENDCAPS
280
     0
  9
$JOINSTYLE
280
     0
  9
$LWDISPLAY
290
     1
  9
$INSUNITS
 70
     4
  9
$HYPERLINKBASE
  1

  9
$STYLESHEET
  1

  9
$XEDIT
290
     1
  9
$CEPSNTYPE
380
     0
  9
$PSTYLEMODE
290
     1
  9
$FINGERPRINTGUID
  2
{1FC3C50D-8BC6-FC48-A013-4FD8070D27A9}
  9
$VERSIONGUID
  2
{9BE8FCF8-7B9A-8F47-935E-36F22F93CE29}
  9
$EXTNAMES
290
     1
  9
$PSVPSCALE
 40
0.0
  9
$OLESTARTUP
290
     0
  9
$SORTENTS
280
   127
  9
$INDEXCTL
280
     0
  9
$HIDETEXT
280
     1
  9
$XCLIPFRAME
280
     2
  9
$HALOGAP
280
     0
  9
$OBSCOLOR
 70
   257
  9
$OBSLTYPE
280
     0
  9
$INTERSECTIONDISPLAY
280
     0
  9
$INTERSECTIONCOLOR
 70
   257
  9
$DIMASSOC
280
     2
  9
$PROJECTNAME
  1

  9
$CAMERADISPLAY
290
     0
  9
$LENSLENGTH
 40
50.0
  9
$CAMERAHEIGHT
 40
0.0
  9
$STEPSPERSEC
 40
2.0
  9
$STEPSIZE
 40
6.0
  9
$3DDWFPREC
 40
2.0
  9
$PSOLWIDTH
 40
0.25
  9
$PSOLHEIGHT
 40
4.0
  9
$LOFTANG1
 40
1.570796326794896
  9
$LOFTANG2
 40
1.570796326794896
  9
$LOFTMAG1
 40
0.0
  9
$LOFTMAG2
 40
0.0
  9
$LOFTPARAM
 70
     7
  9
$LOFTNORMALS
280
     1
  9
$LATITUDE
 40
37.795
  9
$LONGITUDE
 40
-122.394
  9
$NORTHDIRECTION
 40
0.0
  9
$TIMEZONE
 70
 -8000
  9
$LIGHTGLYPHDISPLAY
280
     1
  9
$TILEMODELIGHTSYNCH
280
     1
  9
$CMATERIAL
347
11
  9
$SOLIDHIST
280
     0
  9
$SHOWHIST
280
     1
  9
$DWFFRAME
280
     2
  9
$DGNFRAME
280
     0
  9
$REALWORLDSCALE
290
     1
  9
$INTERFERECOLOR
 62
     1
  9
$INTERFEREOBJVS
345
33
  9
$INTERFEREVPVS
346
30
  9
$CSHADOW
280
     0
  9
$SHADOWPLANELOCATION
 40
0.0
  0
ENDSEC
  0
SECTION
  2
CLASSES
  0
CLASS
  1
ACDBDICTIONARYWDFLT
  2
AcDbDictionaryWithDefault
  3
ObjectDBX Classes
 90
        0
 91
        1
280
     0
281
     0
  0
CLASS
  1
MATERIAL
  2
AcDbMaterial
  3
ObjectDBX Classes
 90
     1153
 91
        3
280
     0
281
     0
  0
CLASS
  1
VISUALSTYLE
  2
AcDbVisualStyle
  3
ObjectDBX Classes
 90
     4095
 91
       24
280
     0
281
     0
  0
CLASS
  1
SCALE
  2
AcDbScale
  3
ObjectDBX Classes
 90
     1153
 91
       17
280
     0
281
     0
  0
CLASS
  1
TABLESTYLE
  2
AcDbTableStyle
  3
ObjectDBX Classes
 90
     4095
 91
        1
280
     0
281
     0
  0
CLASS
  1
MLEADERSTYLE
  2
AcDbMLeaderStyle
  3
ACDB_MLEADERSTYLE_CLASS
 90
     4095
 91
        1
280
     0
281
     0
  0
CLASS
  1
ACDBSECTIONVIEWSTYLE
  2
AcDbSectionViewStyle
  3
ObjectDBX Classes
 90
     1025
 91
        1
280
     0
281
     0
  0
CLASS
  1
ACDBDETAILVIEWSTYLE
  2
AcDbDetailViewStyle
  3
ObjectDBX Classes
 90
     1025
 91
        1
280
     0
281
     0
  0
CLASS
  1
DICTIONARYVAR
  2
AcDbDictionaryVar
  3
ObjectDBX Classes
 90
        0
 91
        5
280
     0
281
     0
  0
CLASS
  1
CELLSTYLEMAP
  2
AcDbCellStyleMap
  3
ObjectDBX Classes
 90
     1152
 91
        1
280
     0
281
     0
  0
ENDSEC
  0
SECTION
  2
TABLES
  0
TABLE
  2
VPORT
  5
8
330
0
100
AcDbSymbolTable
 70
     1
  0
VPORT
  5
57
330
8
100
AcDbSymbolTableRecord
100
AcDbViewportTableRecord
  2
*Active
 70
     0
 10
0.0
 20
0.0
 11
1.0
 21
1.0
 12
0.0
 22
0.0
 13
0.0
 23
0.0
 14
1.0
 24
1.0
 15
0.0
 25
0.0
 16
0.0
 26
0.0
 36
1.0
 17
104.9999999737534
 27
148.4999999628701
 37
0.0
 40
302.939999924255
 41
0.7070707070707534
 42
50.0
 43
0.0
 44
0.0
 50
0.0
 51
0.0
 71
     0
 72
   100
 73
     1
 74
     1
 75
     0
 76
     0
 77
     0
 78
     0
281
     0
 65
     1
110
0.0
120
0.0
130
0.0
111
1.0
121
0.0
131
0.0
112
0.0
122
1.0
132
0.0
 79
     0
146
0.0
 60
     3
 61
     5
292
     1
282
     1
141
0.0
142
0.0
 63
   250
421
  3355443
  0
ENDTAB
  0
TABLE
  2
LTYPE
  5
5
330
0
100
AcDbSymbolTable
 70
     1
  0
LTYPE
  5
5B
330
5
100
AcDbSymbolTableRecord
100
AcDbLinetypeTableRecord
  2
ByBlock
 70
     0
  3

 72
    65
 73
     0
 40
0.0
  0
LTYPE
  5
5C
330
5
100
AcDbSymbolTableRecord
100
AcDbLinetypeTableRecord
  2
ByLayer
 70
     0
  3

 72
    65
 73
     0
 40
0.0
  0
LTYPE
  5
5D
330
5
100
AcDbSymbolTableRecord
100
AcDbLinetypeTableRecord
  2
Continuous
 70
     0
  3
Solid line
 72
    65
 73
     0
 40
0.0
  0
ENDTAB
  0
TABLE
  2
LAYER
  5
2
330
0
100
AcDbSymbolTable
 70
     2
  0
LAYER
  5
54
330
2
100
AcDbSymbolTableRecord
100
AcDbLayerTableRecord
  2
0
 70
     0
 62
     7
  6
Continuous
370
    -3
390
F
347
21
  0
LAYER
  5
78
330
2
100
AcDbSymbolTableRecord
100
AcDbLayerTableRecord
  2
Predeterminado
 70
     0
 62
     7
  6
Continuous
370
     0
390
F
347
21
  0
ENDTAB
  0
TABLE
  2
STYLE
  5
3
330
0
100
AcDbSymbolTable
 70
     2
  0
STYLE
  5
55
330
3
100
AcDbSymbolTableRecord
100
AcDbTextStyleTableRecord
  2
Standard
 70
     0
 40
0.0
 41
1.0
 50
0.0
 71
     0
 42
0.2
  3
txt
  4

  0
STYLE
  5
5A
330
3
100
AcDbSymbolTableRecord
100
AcDbTextStyleTableRecord
  2
Annotative
 70
     0
 40
0.0
 41
1.0
 50
0.0
 71
     0
 42
0.2
  3
txt
  4

1001
AcadAnnotative
1000
AnnotativeData
1002
{
1070
     1
1070
     1
1002
}
  0
ENDTAB
  0
TABLE
  2
VIEW
  5
6
330
0
100
AcDbSymbolTable
 70
     0
  0
ENDTAB
  0
TABLE
  2
UCS
  5
7
330
0
100
AcDbSymbolTable
 70
     0
  0
ENDTAB
  0
TABLE
  2
APPID
  5
9
330
0
100
AcDbSymbolTable
 70
     2
  0
APPID
  5
56
330
9
100
AcDbSymbolTableRecord
100
AcDbRegAppTableRecord
  2
ACAD
 70
     0
  0
APPID
  5
5E
330
9
100
AcDbSymbolTableRecord
100
AcDbRegAppTableRecord
  2
AcadAnnotative
 70
     0
  0
ENDTAB
  0
TABLE
  2
DIMSTYLE
  5
A
330
0
100
AcDbSymbolTable
 70
     2
100
AcDbDimStyleTable
 71
     0
  0
DIMSTYLE
105
58
330
A
100
AcDbSymbolTableRecord
100
AcDbDimStyleTableRecord
  2
Standard
 70
     0
340
55
  0
DIMSTYLE
105
59
330
A
100
AcDbSymbolTableRecord
100
AcDbDimStyleTableRecord
  2
Annotative
 70
     0
340
55
1001
AcadAnnotative
1000
AnnotativeData
1002
{
1070
     1
1070
     1
1002
}
  0
ENDTAB
  0
TABLE
  2
BLOCK_RECORD
  5
1
330
0
100
AcDbSymbolTable
 70
     4
  0
BLOCK_RECORD
  5
70
330
1
100
AcDbSymbolTableRecord
100
AcDbBlockTableRecord
  2
*Model_Space
340
73
 70
     0
280
     1
281
     0
  0
BLOCK_RECORD
  5
6C
330
1
100
AcDbSymbolTableRecord
100
AcDbBlockTableRecord
  2
*Paper_Space
340
6F
 70
     0
280
     1
281
     0
  0
BLOCK_RECORD
  5
74
330
1
100
AcDbSymbolTableRecord
100
AcDbBlockTableRecord
  2
*Paper_Space0
340
77
 70
     0
280
     1
281
     0
  0
BLOCK_RECORD
  5
181
330
1
100
AcDbSymbolTableRecord
100
AcDbBlockTableRecord
  2
Block_0
340
0
102
{BLKREFS
331
182
102
}
 70
     0
280
     1
281
     0
  0
BLOCK_RECORD
  5
18D
330
1
100
AcDbSymbolTableRecord
100
AcDbBlockTableRecord
  2
Block_1
340
0
102
{BLKREFS
331
18E
102
}
 70
     0
280
     1
281
     0
  0
BLOCK_RECORD
  5
199
330
1
100
AcDbSymbolTableRecord
100
AcDbBlockTableRecord
  2
Block_2
340
0
102
{BLKREFS
331
19A
102
}
 70
     0
280
     1
281
     0
  0
ENDTAB
  0
ENDSEC
  0
SECTION
  2
BLOCKS
  0
BLOCK
  5
71
330
70
100
AcDbEntity
  8
0
100
AcDbBlockBegin
  2
*Model_Space
 70
     0
 10
0.0
 20
0.0
 30
0.0
  3
*Model_Space
  1

  0
ENDBLK
  5
72
330
70
100
AcDbEntity
  8
0
100
AcDbBlockEnd
  0
BLOCK
  5
6D
330
6C
100
AcDbEntity
 67
     1
  8
0
100
AcDbBlockBegin
  2
*Paper_Space
 70
     0
 10
0.0
 20
0.0
 30
0.0
  3
*Paper_Space
  1

  0
ENDBLK
  5
6E
330
6C
100
AcDbEntity
 67
     1
  8
0
100
AcDbBlockEnd
  0
BLOCK
  5
75
330
74
100
AcDbEntity
 67
     1
  8
0
100
AcDbBlockBegin
  2
*Paper_Space0
 70
     0
 10
0.0
 20
0.0
 30
0.0
  3
*Paper_Space0
  1

  0
ENDBLK
  5
76
330
74
100
AcDbEntity
 67
     1
  8
0
100
AcDbBlockEnd
  0
BLOCK
  5
183
330
181
100
AcDbEntity
  8
0
100
AcDbBlockBegin
  2
Block_0
 70
     0
 10
0.0
 20
0.0
 30
0.0
  3
Block_0
  1

  0
LINE
  5
185
330
181
100
AcDbEntity
  8
Predeterminado
 62
    18
420
        0
370
     9
100
AcDbLine
 10
176.4535074446554
 20
121.0481949333826
 30
0.0
 11
55.93554574913349
 21
173.9557885179276
 31
0.0
  0
LINE
  5
186
330
181
100
AcDbEntity
  8
Predeterminado
 62
    18
420
        0
370
     9
100
AcDbLine
 10
55.93555035389617
 20
173.955786496429
 30
0.0
 11
31.48541665879531
 21
184.689437467861
 31
0.0
  0
LWPOLYLINE
  5
187
330
181
100
AcDbEntity
  8
Predeterminado
100
AcDbPolyline
 90
        3
 70
     1
 43
0.0
 10
173.966278788907
 20
121.6793731190671
 10
174.3054300197098
 20
122.4519241325169
 10
171.8182013639613
 20
123.0831023182008
  0
HATCH
  5
188
330
181
100
AcDbEntity
  8
Predeterminado
 62
    18
420
        0
440
 33554687
100
AcDbHatch
 10
0.0
 20
0.0
 30
0.0
210
0.0
220
0.0
230
1.0
  2
SOLID
 70
     1
 71
     1
 91
        1
 92
        1
 93
        3
 72
     1
 10
173.966278788907
 20
121.6793731190671
 11
174.3054300197098
 21
122.4519241325169
 72
     1
 10
174.3054300197098
 20
122.4519241325169
 11
171.8182013639613
 21
123.0831023182008
 72
     1
 10
171.8182013639613
 20
123.0831023182008
 11
173.966278788907
 21
121.6793731190671
 97
        1
330
187
 75
     0
 76
     1
 98
        1
 10
0.0
 20
0.0
450
        0
451
        0
460
0.0
461
0.0
452
        0
462
0.0
453
        0
470

  0
LWPOLYLINE
  5
189
330
181
100
AcDbEntity
  8
Predeterminado
100
AcDbPolyline
 90
        3
 70
     1
 43
0.0
 10
53.44832169814775
 20
174.5869646821129
 10
55.93555035389617
 20
173.955786496429
 10
53.78747292895089
 20
175.359515695562
  0
HATCH
  5
18A
330
181
100
AcDbEntity
  8
Predeterminado
 62
    18
420
        0
440
 33554687
100
AcDbHatch
 10
0.0
 20
0.0
 30
0.0
210
0.0
220
0.0
230
1.0
  2
SOLID
 70
     1
 71
     1
 91
        1
 92
        1
 93
        3
 72
     1
 10
53.44832169814775
 20
174.5869646821129
 11
55.93555035389617
 21
173.955786496429
 72
     1
 10
55.93555035389617
 20
173.955786496429
 11
53.78747292895089
 21
175.359515695562
 72
     1
 10
53.78747292895089
 20
175.359515695562
 11
53.44832169814775
 21
174.5869646821129
 97
        1
330
189
 75
     0
 76
     1
 98
        1
 10
0.0
 20
0.0
450
        0
451
        0
460
0.0
461
0.0
452
        0
462
0.0
453
        0
470

  0
MTEXT
  5
18B
330
181
100
AcDbEntity
  8
Predeterminado
100
AcDbMText
 10
32.55096759612435
 20
184.9127857606855
 30
0.0
 40
0.2
 41
0.0
 46
0.0
 71
     7
 72
     1
  1
\C18;\c0;\FArial Bold|b1|i0|c1;\H2.497667;\W1.000000;O
 11
0.9156516745220397
 21
-0.4019726494986749
 31
0.0
 73
     1
 44
1.0
  0
MTEXT
  5
18C
330
181
100
AcDbEntity
  8
Predeterminado
100
AcDbMText
 10
36.52217704446583
 20
183.1694180280842
 30
0.0
 40
0.2
 41
0.0
 46
0.0
 71
     7
 72
     1
  1
\C18;\c0;\FArial Bold|b1|i0|c1;\H2.497667;\W1.000000;600
 11
0.9156516745220397
 21
-0.4019726494986749
 31
0.0
 73
     1
 44
1.0
  0
ENDBLK
  5
184
330
181
100
AcDbEntity
  8
0
100
AcDbBlockEnd
  0
BLOCK
  5
18F
330
18D
100
AcDbEntity
  8
0
100
AcDbBlockBegin
  2
Block_1
 70
     0
 10
0.0
 20
0.0
 30
0.0
  3
Block_1
  1

  0
LWPOLYLINE
  5
191
330
18D
100
AcDbEntity
  8
Predeterminado
100
AcDbPolyline
 90
        3
 70
     1
 43
0.0
 10
87.93257380714193
 20
185.6609646459101
 10
85.40142236330735
 20
185.2391060719376
 10
87.93257380714193
 20
184.8172474979651
  0
HATCH
  5
192
330
18D
100
AcDbEntity
  8
Predeterminado
 62
    18
420
        0
440
 33554687
100
AcDbHatch
 10
0.0
 20
0.0
 30
0.0
210
0.0
220
0.0
230
1.0
  2
SOLID
 70
     1
 71
     1
 91
        1
 92
        1
 93
        3
 72
     1
 10
87.93257380714193
 20
185.6609646459101
 11
85.40142236330735
 21
185.2391060719376
 72
     1
 10
85.40142236330735
 20
185.2391060719376
 11
87.93257380714193
 21
184.8172474979651
 72
     1
 10
87.93257380714193
 20
184.8172474979651
 11
87.93257380714193
 21
185.6609646459101
 97
        1
330
191
 75
     0
 76
     1
 98
        1
 10
0.0
 20
0.0
450
        0
451
        0
460
0.0
461
0.0
452
        0
462
0.0
453
        0
470

  0
LWPOLYLINE
  5
193
330
18D
100
AcDbEntity
  8
Predeterminado
100
AcDbPolyline
 90
        3
 70
     1
 43
0.0
 10
139.8211801737417
 20
185.6609646459101
 10
139.8211801737417
 20
184.8172474979651
 10
142.3523316175759
 20
185.2391060719376
  0
HATCH
  5
194
330
18D
100
AcDbEntity
  8
Predeterminado
 62
    18
420
        0
440
 33554687
100
AcDbHatch
 10
0.0
 20
0.0
 30
0.0
210
0.0
220
0.0
230
1.0
  2
SOLID
 70
     1
 71
     1
 91
        1
 92
        1
 93
        3
 72
     1
 10
139.8211801737417
 20
185.6609646459101
 11
139.8211801737417
 21
184.8172474979651
 72
     1
 10
139.8211801737417
 20
184.8172474979651
 11
142.3523316175759
 21
185.2391060719376
 72
     1
 10
142.3523316175759
 20
185.2391060719376
 11
139.8211801737417
 21
185.6609646459101
 97
        1
330
193
 75
     0
 76
     1
 98
        1
 10
0.0
 20
0.0
450
        0
451
        0
460
0.0
461
0.0
452
        0
462
0.0
453
        0
470

  0
LINE
  5
195
330
18D
100
AcDbEntity
  8
Predeterminado
 62
    18
420
        0
370
     9
100
AcDbLine
 10
85.40142236330735
 20
172.2068031780579
 30
0.0
 11
85.40142236330735
 21
186.504681793855
 31
0.0
  0
LINE
  5
196
330
18D
100
AcDbEntity
  8
Predeterminado
 62
    18
420
        0
370
     9
100
AcDbLine
 10
142.3523293545505
 20
172.2068031780579
 30
0.0
 11
142.3523293545505
 21
186.504681793855
 31
0.0
  0
LINE
  5
197
330
18D
100
AcDbEntity
  8
Predeterminado
 62
    18
420
        0
370
     9
100
AcDbLine
 10
85.40142236330735
 20
185.2391060719379
 30
0.0
 11
142.3523316175759
 21
185.2391060719379
 31
0.0
  0
MTEXT
  5
198
330
18D
100
AcDbEntity
  8
Predeterminado
100
AcDbMText
 10
113.0949055706846
 20
185.8718586774903
 30
0.0
 40
0.2
 41
0.0
 46
0.0
 71
     7
 72
     1
  1
\C18;\c0;\FArial Bold|b1|i0|c1;\H2.497667;\W1.000000;270
 73
     1
 44
1.0
  0
ENDBLK
  5
190
330
18D
100
AcDbEntity
  8
0
100
AcDbBlockEnd
  0
BLOCK
  5
19B
330
199
100
AcDbEntity
  8
0
100
AcDbBlockBegin
  2
Block_2
 70
     0
 10
0.0
 20
0.0
 30
0.0
  3
Block_2
  1

  0
LWPOLYLINE
  5
19D
330
199
100
AcDbEntity
  8
Predeterminado
100
AcDbPolyline
 90
        3
 70
     1
 43
0.0
 10
177.5736439185618
 20
209.2670785093056
 10
177.1517853445899
 20
211.7982299531401
 10
176.7299267706168
 20
209.2670785093056
  0
HATCH
  5
19E
330
199
100
AcDbEntity
  8
Predeterminado
 62
    18
420
        0
440
 33554687
100
AcDbHatch
 10
0.0
 20
0.0
 30
0.0
210
0.0
220
0.0
230
1.0
  2
SOLID
 70
     1
 71
     1
 91
        1
 92
        1
 93
        3
 72
     1
 10
177.5736439185618
 20
209.2670785093056
 11
177.1517853445899
 21
211.7982299531401
 72
     1
 10
177.1517853445899
 20
211.7982299531401
 11
176.7299267706168
 21
209.2670785093056
 72
     1
 10
176.7299267706168
 20
209.2670785093056
 11
177.5736439185618
 21
209.2670785093056
 97
        1
330
19D
 75
     0
 76
     1
 98
        1
 10
0.0
 20
0.0
450
        0
451
        0
460
0.0
461
0.0
452
        0
462
0.0
453
        0
470

  0
LWPOLYLINE
  5
19F
330
199
100
AcDbEntity
  8
Predeterminado
100
AcDbPolyline
 90
        3
 70
     1
 43
0.0
 10
177.5736439185618
 20
183.7446359298912
 10
176.7299267706168
 20
183.7446359298912
 10
177.1517853445899
 20
181.2134844860563
  0
HATCH
  5
1A0
330
199
100
AcDbEntity
  8
Predeterminado
 62
    18
420
        0
440
 33554687
100
AcDbHatch
 10
0.0
 20
0.0
 30
0.0
210
0.0
220
0.0
230
1.0
  2
SOLID
 70
     1
 71
     1
 91
        1
 92
        1
 93
        3
 72
     1
 10
177.5736439185618
 20
183.7446359298912
 11
176.7299267706168
 21
183.7446359298912
 72
     1
 10
176.7299267706168
 20
183.7446359298912
 11
177.1517853445899
 21
181.2134844860563
 72
     1
 10
177.1517853445899
 20
181.2134844860563
 11
177.5736439185618
 21
183.7446359298912
 97
        1
330
19F
 75
     0
 76
     1
 98
        1
 10
0.0
 20
0.0
450
        0
451
        0
460
0.0
461
0.0
452
        0
462
0.0
453
        0
470

  0
LINE
  5
1A1
330
199
100
AcDbEntity
  8
Predeterminado
 62
    18
420
        0
370
     9
100
AcDbLine
 10
114.8893364757513
 20
211.7982299531401
 30
0.0
 11
178.4173610665068
 21
211.7982299531401
 31
0.0
  0
LINE
  5
1A2
330
199
100
AcDbEntity
  8
Predeterminado
 62
    18
420
        0
370
     9
100
AcDbLine
 10
149.4817392408023
 20
181.2134836059911
 30
0.0
 11
178.4173610665068
 21
181.2134836059911
 31
0.0
  0
LINE
  5
1A3
330
199
100
AcDbEntity
  8
Predeterminado
 62
    18
420
        0
370
     9
100
AcDbLine
 10
177.1517853445899
 20
211.7982299531401
 30
0.0
 11
177.1517853445899
 21
181.2134844860566
 31
0.0
  0
MTEXT
  5
1A4
330
199
100
AcDbEntity
  8
Predeterminado
100
AcDbMText
 10
176.5191134541347
 20
194.5211154027592
 30
0.0
 40
0.2
 41
0.0
 46
0.0
 71
     7
 72
     1
  1
\C18;\c0;\FArial Bold|b1|i0|c1;\H2.497667;\W1.000000;145
 11
-0.0000000000000002
 21
1.0
 31
0.0
 73
     1
 44
1.0
  0
ENDBLK
  5
19C
330
199
100
AcDbEntity
  8
0
100
AcDbBlockEnd
  0
ENDSEC
  0
SECTION
  2
ENTITIES
  0
CIRCLE
  5
79
330
70
100
AcDbEntity
  8
Predeterminado
 62
    18
420
        0
370
     9
100
AcDbCircle
 10
113.8768758589289
 20
148.5194444073146
 30
0.0
 40
63.06785626067275
  0
CIRCLE
  5
7A
330
70
100
AcDbEntity
  8
Predeterminado
 62
    18
420
        0
370
     9
100
AcDbCircle
 10
113.8768758589288
 20
148.5194444073145
 30
0.0
 40
63.27878554582554
  0
SPLINE
  5
7B
330
70
100
AcDbEntity
  8
Predeterminado
 62
    18
420
        0
370
     9
100
AcDbSpline
210
0.0
220
0.0
230
1.0
 70
     8
 71
     3
 72
     8
 73
     4
 74
     0
 42
0.0000000001
 43
0.0000000001
 40
0.0
 40
0.0
 40
0.0
 40
0.0
 40
1.0
 40
1.0
 40
1.0
 40
1.0
 10
118.8140407137474
 20
98.13774722177635
 30
0.0
 10
144.5352216932791
 20
100.658299681312
 30
0.0
 10
164.227945436783
 20
122.1491365564759
 30
0.0
 10
164.4971577471068
 20
147.992121299246
 30
0.0
  0
SPLINE
  5
7C
330
70
100
AcDbEntity
  8
Predeterminado
 62
    18
420
        0
370
     9
100
AcDbSpline
210
0.0
220
0.0
230
1.0
 70
     8
 71
     3
 72
     8
 73
     4
 74
     0
 42
0.0000000001
 43
0.0000000001
 40
0.0
 40
0.0
 40
0.0
 40
0.0
 40
1.0
 40
1.0
 40
1.0
 40
1.0
 10
109.9903441818174
 20
98.04582872920271
 30
0.0
 10
112.5775359778003
 20
97.8466117178042
 30
0.0
 10
115.1762157400575
 20
97.8466117178042
 30
0.0
 10
117.7634075360404
 20
98.04582872920271
 30
0.0
  0
SPLINE
  5
7D
330
70
100
AcDbEntity
  8
Predeterminado
 62
    18
420
        0
370
     9
100
AcDbSpline
210
0.0
220
0.0
230
1.0
 70
     8
 71
     3
 72
     8
 73
     4
 74
     0
 42
0.0000000001
 43
0.0000000001
 40
0.0
 40
0.0
 40
0.0
 40
0.0
 40
1.0
 40
1.0
 40
1.0
 40
1.0
 10
63.25659397220643
 20
147.9921211594955
 30
0.0
 10
63.52580635331953
 20
122.1491364708815
 30
0.0
 10
83.21853007774
 20
100.658299676102
 30
0.0
 10
108.9397110041104
 20
98.13774722177635
 30
0.0
  0
SPLINE
  5
7E
330
70
100
AcDbEntity
  8
Predeterminado
 62
    18
420
        0
370
     9
100
AcDbSpline
210
0.0
220
0.0
230
1.0
 70
     8
 71
     3
 72
     8
 73
     4
 74
     0
 42
0.0000000001
 43
0.0000000001
 40
0.0
 40
0.0
 40
0.0
 40
0.0
 40
1.0
 40
1.0
 40
1.0
 40
1.0
 10
113.3495526460465
 20
199.1397262944009
 30
0.0
 10
85.80371016009973
 20
198.8527748666388
 30
0.0
 10
63.54354538022922
 20
176.5926100714048
 30
0.0
 10
63.25659397147875
 20
149.0467675852594
 30
0.0
  0
SPLINE
  5
7F
330
70
100
AcDbEntity
  8
Predeterminado
 62
    18
420
        0
370
     9
100
AcDbSpline
210
0.0
220
0.0
230
1.0
 70
     8
 71
     3
 72
     8
 73
     4
 74
     0
 42
0.0000000001
 43
0.0000000001
 40
0.0
 40
0.0
 40
0.0
 40
0.0
 40
1.0
 40
1.0
 40
1.0
 40
1.0
 10
164.4971577449231
 20
149.0467677250092
 30
0.0
 10
164.2102062606915
 20
176.5926101560198
 30
0.0
 10
141.9500415034155
 20
198.8527748672048
 30
0.0
 10
114.4041990718107
 20
199.1397262944009
 30
0.0
  0
CIRCLE
  5
80
330
70
100
AcDbEntity
  8
Predeterminado
 62
    18
420
        0
370
     9
100
AcDbCircle
 10
113.876875858929
 20
148.5194444073146
 30
0.0
 40
48.51373558513298
  0
LINE
  5
81
330
70
100
AcDbEntity
  8
Predeterminado
 62
    18
420
        0
370
     9
100
AcDbLine
 10
113.8768758589289
 20
97.54414861570044
 30
0.0
 11
113.8768758589289
 21
97.36909275777236
 31
0.0
  0
SPLINE
  5
82
330
70
100
AcDbEntity
  8
Predeterminado
 62
    18
420
        0
370
     9
100
AcDbSpline
210
0.0
220
0.0
230
1.0
 70
     8
 71
     3
 72
    17
 73
    13
 74
     0
 42
0.0000000001
 43
0.0000000001
 40
0.0
 40
0.0
 40
0.0
 40
0.0
 40
1.0
 40
1.0
 40
1.0
 40
2.0
 40
2.0
 40
2.0
 40
3.0
 40
3.0
 40
3.0
 40
4.0
 40
4.0
 40
4.0
 40
4.0
 10
115.5073301487309
 20
97.59433694563901
 30
0.0
 10
115.6829251939111
 20
97.52965679553321
 30
0.0
 10
115.8660684892509
 20
97.48455417554119
 30
0.0
 10
116.0505087737225
 20
97.46101963839651
 30
0.0
 10
116.3617628341359
 20
97.42130369311134
 30
0.0
 10
116.6767105367324
 20
97.44301060686568
 30
0.0
 10
116.9900385240151
 20
97.46391882901866
 30
0.0
 10
117.2638180645201
 20
97.48218800281112
 30
0.0
 10
117.5363609678703
 20
97.49984738320296
 30
0.0
 10
117.8090349002081
 20
97.52045815133037
 30
0.0
 10
117.809146352631
 20
97.52046657575171
 30
0.0
 10
117.8092578050762
 20
97.5204750006659
 30
0.0
 10
117.8093692575427
 20
97.52048342607354
 30
0.0
  0
SPLINE
  5
83
330
70
100
AcDbEntity
  8
Predeterminado
 62
    18
420
        0
370
     9
100
AcDbSpline
210
0.0
220
0.0
230
1.0
 70
     8
 71
     3
 72
    74
 73
    70
 74
     0
 42
0.0000000001
 43
0.0000000001
 40
0.0
 40
0.0
 40
0.0
 40
0.0
 40
1.0
 40
1.0
 40
1.0
 40
2.0
 40
2.0
 40
2.0
 40
3.0
 40
3.0
 40
3.0
 40
4.0
 40
4.0
 40
4.0
 40
5.0
 40
5.0
 40
5.0
 40
6.0
 40
6.0
 40
6.0
 40
7.0
 40
7.0
 40
7.0
 40
8.0
 40
8.0
 40
8.0
 40
9.0
 40
9.0
 40
9.0
 40
10.0
 40
10.0
 40
10.0
 40
11.0
 40
11.0
 40
11.0
 40
12.0
 40
12.0
 40
12.0
 40
13.0
 40
13.0
 40
13.0
 40
14.0
 40
14.0
 40
14.0
 40
15.0
 40
15.0
 40
15.0
 40
16.0
 40
16.0
 40
16.0
 40
17.0
 40
17.0
 40
17.0
 40
18.0
 40
18.0
 40
18.0
 40
19.0
 40
19.0
 40
19.0
 40
20.0
 40
20.0
 40
20.0
 40
21.0
 40
21.0
 40
21.0
 40
22.0
 40
22.0
 40
22.0
 40
23.0
 40
23.0
 40
23.0
 40
23.0
 10
118.8600108330148
 20
97.61245451513229
 30
0.0
 10
119.0310364624613
 20
97.62920158736863
 30
0.0
 10
119.2019592365394
 20
97.64676345581165
 30
0.0
 10
119.3727980844236
 20
97.66520863761122
 30
0.0
 10
119.6211937754819
 20
97.69202750074839
 30
0.0
 10
119.8694120425351
 20
97.72071373073838
 30
0.0
 10
120.1173985998559
 20
97.75120359680862
 30
0.0
 10
120.3576854033473
 20
97.78074678066538
 30
0.0
 10
120.597754662474
 20
97.81198333691612
 30
0.0
 10
120.8376029390378
 20
97.84492710247038
 30
0.0
 10
121.9552928834725
 20
97.99844463455436
 30
0.0
 10
123.0681840849349
 20
98.18903504038145
 30
0.0
 10
124.1734862746567
 20
98.416180123689
 30
0.0
 10
125.287504503952
 20
98.6451163963691
 30
0.0
 10
126.3938135608299
 20
98.9111861353024
 30
0.0
 10
127.4900302600526
 20
99.21389418439176
 30
0.0
 10
128.5834971984428
 20
99.51584291761086
 30
0.0
 10
129.6669223472161
 20
99.85424638371714
 30
0.0
 10
130.737907264138
 20
100.2281945043411
 30
0.0
 10
131.7970043310555
 20
100.5979918296576
 30
0.0
 10
132.8439358046109
 20
101.0025491030383
 30
0.0
 10
133.8764829534611
 20
101.4411497053913
 30
0.0
 10
135.0947571785731
 20
101.9586425962105
 30
0.0
 10
136.2930069901102
 20
102.5235271938188
 30
0.0
 10
137.4674885354873
 20
103.1340515610387
 30
0.0
 10
138.6222096583017
 20
103.734303975048
 30
0.0
 10
139.7539555796461
 20
104.3786733176869
 30
0.0
 10
140.8595609197835
 20
105.0651613007343
 30
0.0
 10
141.9617521228002
 20
105.7495293916084
 30
0.0
 10
143.0379639408813
 20
106.4757563976882
 30
0.0
 10
144.0849287279182
 20
107.2419464177845
 30
0.0
 10
145.131893448891
 20
108.0081363895339
 30
0.0
 10
146.149611142512
 20
108.8142893702588
 30
0.0
 10
147.1352747654243
 20
109.6578889014088
 30
0.0
 10
148.1209403051071
 20
110.5014900730637
 30
0.0
 10
149.0745516494151
 20
111.3825379407839
 30
0.0
 10
149.9932952505433
 20
112.298564350757
 30
0.0
 10
150.9120365068751
 20
113.2145884228691
 30
0.0
 10
151.7959101980047
 20
114.1655908586896
 30
0.0
 10
152.6422928837319
 20
115.1488594537798
 30
0.0
 10
153.4886771749901
 20
116.1321299140665
 30
0.0
 10
154.2975703186099
 20
117.1476666560365
 30
0.0
 10
155.0668015498517
 20
118.192407680321
 30
0.0
 10
155.8360322454584
 20
119.237147977128
 30
0.0
 10
156.5656010839227
 20
120.3110925155785
 30
0.0
 10
157.2531876438201
 20
121.4112774883148
 30
0.0
 10
157.9407736771951
 20
122.5114616185784
 30
0.0
 10
158.5863774963002
 20
123.6378861429414
 30
0.0
 10
159.1882842122132
 20
124.7871899685913
 30
0.0
 10
159.7901922946988
 20
125.9364964036269
 30
0.0
 10
160.348403075572
 20
127.1086822438405
 30
0.0
 10
160.8612858754665
 20
128.3003819634106
 30
0.0
 10
161.3741674124062
 20
129.4920787484647
 30
0.0
 10
161.8417211916035
 20
130.7032893167706
 30
0.0
 10
162.2624557858278
 20
131.9305473686754
 30
0.0
 10
162.6831909058371
 20
133.1578069542615
 30
0.0
 10
163.0571067238552
 20
134.4011140635539
 30
0.0
 10
163.383354570317
 20
135.6568057797405
 30
0.0
 10
163.709602460766
 20
136.9124976652259
 30
0.0
 10
163.9881823668055
 20
138.1805741609448
 30
0.0
 10
164.2180609964435
 20
139.4574221897706
 30
0.0
 10
164.4479392910139
 20
140.7342683574832
 30
0.0
 10
164.629116451156
 20
142.0198860327329
 30
0.0
 10
164.7611878546123
 20
143.3105234069964
 30
0.0
 10
164.893259591462
 20
144.6011640392674
 30
0.0
 10
164.976225323708
 20
145.8968243958953
 30
0.0
 10
165.0098938585461
 20
147.1937691553245
 30
0.0
 10
165.0167989489649
 20
147.4597599646798
 30
0.0
 10
165.0216304988249
 20
147.7258047986356
 30
0.0
 10
165.0243871782555
 20
147.991871135801
 30
0.0
  0
SPLINE
  5
84
330
70
100
AcDbEntity
  8
Predeterminado
 62
    18
420
        0
370
     9
100
AcDbSpline
210
0.0
220
0.0
230
1.0
 70
     8
 71
     3
 72
    68
 73
    64
 74
     0
 42
0.0000000001
 43
0.0000000001
 40
0.0
 40
0.0
 40
0.0
 40
0.0
 40
1.0
 40
1.0
 40
1.0
 40
2.0
 40
2.0
 40
2.0
 40
3.0
 40
3.0
 40
3.0
 40
4.0
 40
4.0
 40
4.0
 40
5.0
 40
5.0
 40
5.0
 40
6.0
 40
6.0
 40
6.0
 40
7.0
 40
7.0
 40
7.0
 40
8.0
 40
8.0
 40
8.0
 40
9.0
 40
9.0
 40
9.0
 40
10.0
 40
10.0
 40
10.0
 40
11.0
 40
11.0
 40
11.0
 40
12.0
 40
12.0
 40
12.0
 40
13.0
 40
13.0
 40
13.0
 40
14.0
 40
14.0
 40
14.0
 40
15.0
 40
15.0
 40
15.0
 40
16.0
 40
16.0
 40
16.0
 40
17.0
 40
17.0
 40
17.0
 40
18.0
 40
18.0
 40
18.0
 40
19.0
 40
19.0
 40
19.0
 40
20.0
 40
20.0
 40
20.0
 40
21.0
 40
21.0
 40
21.0
 40
21.0
 10
165.0244382453761
 20
149.0471470554956
 30
0.0
 10
165.017461843765
 20
149.7266448919958
 30
0.0
 10
164.9969411890006
 20
150.4060025602087
 30
0.0
 10
164.9628541295312
 20
151.084678354403
 30
0.0
 10
164.8977744242087
 20
152.3804199461685
 30
0.0
 10
164.783243517432
 20
153.6736760238885
 30
0.0
 10
164.6198480070174
 20
154.9607267391806
 30
0.0
 10
164.4564523429543
 20
156.2477786647442
 30
0.0
 10
164.2441919833522
 20
157.5286252162094
 30
0.0
 10
163.9834857094715
 20
158.7995385063508
 30
0.0
 10
163.7227799728277
 20
160.0704491775243
 30
0.0
 10
163.4136285215686
 20
161.3314266283121
 30
0.0
 10
163.05698107853
 20
162.5788187979636
 30
0.0
 10
162.7003327325361
 20
163.8262141257461
 30
0.0
 10
162.2961881542617
 20
165.0600241036019
 30
0.0
 10
161.8458230048721
 20
166.2767294437045
 30
0.0
 10
161.3954586368917
 20
167.4934326727531
 30
0.0
 10
160.8988738581857
 20
168.6930313234034
 30
0.0
 10
160.3572875982674
 20
169.8719563939869
 30
0.0
 10
159.8157013059504
 20
171.0508815350979
 30
0.0
 10
159.2291135270379
 20
172.2091330936686
 30
0.0
 10
158.5994461066613
 20
173.3434675322022
 30
0.0
 10
157.9697777065668
 20
174.4778037356794
 30
0.0
 10
157.2970295309509
 20
175.5882227446929
 30
0.0
 10
156.5830180996484
 20
176.671449128124
 30
0.0
 10
155.869008416999
 20
177.7546728586754
 30
0.0
 10
155.113735680774
 20
178.8107040968365
 30
0.0
 10
154.3193779098369
 20
179.8364613456351
 30
0.0
 10
153.525018344681
 20
180.8622209113154
 30
0.0
 10
152.6915735682484
 20
181.8577063508725
 30
0.0
 10
151.8215817349452
 20
182.8201590371647
 30
0.0
 10
150.9515909807398
 20
183.782610529675
 30
0.0
 10
150.0450532603262
 20
184.7120293508648
 30
0.0
 10
149.1044102691053
 20
185.6055457804211
 30
0.0
 10
148.1637675715599
 20
186.4990619310154
 30
0.0
 10
147.1890196245025
 20
187.356675712394
 30
0.0
 10
146.1831386173814
 20
188.176063737297
 30
0.0
 10
145.1772556264157
 20
188.9954533782342
 30
0.0
 10
144.1402394525811
 20
189.7766171119149
 30
0.0
 10
143.0750304677614
 20
190.5172416641519
 30
0.0
 10
142.0098242124542
 20
191.2578643185975
 30
0.0
 10
140.9164252906451
 20
191.9579479993563
 30
0.0
 10
139.7979603017108
 20
192.615379858907
 30
0.0
 10
138.6794933702842
 20
193.2728128602521
 30
0.0
 10
137.5359602846656
 20
193.8875938922382
 30
0.0
 10
136.3707668165089
 20
194.4581414186519
 30
0.0
 10
135.2055739270589
 20
195.0286886616968
 30
0.0
 10
134.0187206765865
 20
195.5550024431074
 30
0.0
 10
132.8135374064995
 20
196.0353317164035
 30
0.0
 10
131.6083552801942
 20
196.515660533842
 30
0.0
 10
130.3848431690673
 20
196.9500049304491
 30
0.0
 10
129.146610099791
 20
197.3372632422951
 30
0.0
 10
127.9083741234159
 20
197.7245224633385
 30
0.0
 10
126.6554171197682
 20
198.0646953785252
 30
0.0
 10
125.3913463620133
 20
198.3567959430329
 30
0.0
 10
124.1272786461826
 20
198.6488958046149
 30
0.0
 10
122.8520972297336
 20
198.892923546885
 30
0.0
 10
121.5694751991081
 20
199.0880145205274
 30
0.0
 10
120.2868518043029
 20
199.2831057016653
 30
0.0
 10
118.9967877794932
 20
199.4292600100787
 30
0.0
 10
117.7030405407394
 20
199.5263009962945
 30
0.0
 10
116.6053827248262
 20
199.6086337687198
 30
0.0
 10
115.505073589678
 20
199.6556128805006
 30
0.0
 10
114.4043963896085
 20
199.6670159323771
 30
0.0
  0
SPLINE
  5
85
330
70
100
AcDbEntity
  8
Predeterminado
 62
    18
420
        0
370
     9
100
AcDbSpline
210
0.0
220
0.0
230
1.0
 70
     8
 71
     3
 72
    68
 73
    64
 74
     0
 42
0.0000000001
 43
0.0000000001
 40
0.0
 40
0.0
 40
0.0
 40
0.0
 40
1.0
 40
1.0
 40
1.0
 40
2.0
 40
2.0
 40
2.0
 40
3.0
 40
3.0
 40
3.0
 40
4.0
 40
4.0
 40
4.0
 40
5.0
 40
5.0
 40
5.0
 40
6.0
 40
6.0
 40
6.0
 40
7.0
 40
7.0
 40
7.0
 40
8.0
 40
8.0
 40
8.0
 40
9.0
 40
9.0
 40
9.0
 40
10.0
 40
10.0
 40
10.0
 40
11.0
 40
11.0
 40
11.0
 40
12.0
 40
12.0
 40
12.0
 40
13.0
 40
13.0
 40
13.0
 40
14.0
 40
14.0
 40
14.0
 40
15.0
 40
15.0
 40
15.0
 40
16.0
 40
16.0
 40
16.0
 40
17.0
 40
17.0
 40
17.0
 40
18.0
 40
18.0
 40
18.0
 40
19.0
 40
19.0
 40
19.0
 40
20.0
 40
20.0
 40
20.0
 40
21.0
 40
21.0
 40
21.0
 40
21.0
 10
113.3493918614808
 20
199.6670450572885
 30
0.0
 10
112.2071118254761
 20
199.655271721633
 30
0.0
 10
111.0652234927782
 20
199.6051629735599
 30
0.0
 10
109.9262970083439
 20
199.5168920377261
 30
0.0
 10
108.6327959305753
 20
199.4166410099407
 30
0.0
 10
107.3431152191586
 20
199.267166144515
 30
0.0
 10
106.0609625663291
 20
199.0689638338461
 30
0.0
 10
104.7788125457517
 20
198.8707619300859
 30
0.0
 10
103.5041905528516
 20
198.6238327811565
 30
0.0
 10
102.2408349000737
 20
198.3286851921229
 30
0.0
 10
100.9774787381137
 20
198.0335374841337
 30
0.0
 10
99.72538892535691
 20
197.6901712971721
 30
0.0
 10
98.48812217596755
 20
197.2998279282825
 30
0.0
 10
97.25085404520903
 20
196.9094841235865
 30
0.0
 10
96.02840901091648
 20
196.4721630320651
 30
0.0
 10
94.82437542601482
 20
195.9889527927178
 30
0.0
 10
93.62034447878082
 20
195.5057436119359
 30
0.0
 10
92.43472490027006
 20
194.9766454843859
 30
0.0
 10
91.27094865012598
 20
194.4032271932394
 30
0.0
 10
90.10716951134382
 20
193.8298074787968
 30
0.0
 10
88.96523380936397
 20
193.2120673807416
 30
0.0
 10
87.84836971368514
 20
192.5519043910508
 30
0.0
 10
86.73150744887633
 20
191.8917424835619
 30
0.0
 10
85.63971670816888
 20
191.1891578235252
 30
0.0
 10
84.57629447768722
 20
190.4459801992777
 30
0.0
 10
83.51287226440948
 20
189.7028025870534
 30
0.0
 10
82.47781856043962
 20
188.9190320119313
 30
0.0
 10
81.47398637118367
 20
188.0971343180125
 30
0.0
 10
80.47015251770469
 20
187.2752352614945
 30
0.0
 10
79.49754028246267
 20
186.4152089597596
 30
0.0
 10
78.5590376562456
 20
185.5194383010529
 30
0.0
 10
77.62053738653254
 20
184.6236698915535
 30
0.0
 10
76.71614655455184
 20
183.6921573045841
 30
0.0
 10
75.848522247081
 20
182.7275799691395
 30
0.0
 10
74.98089608266342
 20
181.7630005692432
 30
0.0
 10
74.1500366001356
 20
180.7653562793364
 30
0.0
 10
73.35819620952013
 20
179.7376455603933
 30
0.0
 10
72.56635666871277
 20
178.7099359443963
 30
0.0
 10
71.81353613606578
 20
177.6521599638985
 30
0.0
 10
71.10212262946745
 20
176.567230596451
 30
0.0
 10
70.39070945289046
 20
175.482301732297
 30
0.0
 10
69.72070326394426
 20
174.3702195063863
 30
0.0
 10
69.09387009927086
 20
173.234317940963
 30
0.0
 10
68.46703563496889
 20
172.0984140204478
 30
0.0
 10
67.88337437396286
 20
170.9386906616495
 30
0.0
 10
67.34462170929285
 20
169.7584615212632
 30
0.0
 10
66.80587041896316
 20
168.5782353916033
 30
0.0
 10
66.31202749584861
 20
167.3775035849743
 30
0.0
 10
65.86463042500901
 20
166.1597122485203
 30
0.0
 10
65.4172326524054
 20
164.9419190019016
 30
0.0
 10
65.01628087778191
 20
163.7070661719406
 30
0.0
 10
64.66271574433645
 20
162.4587908591923
 30
0.0
 10
64.30915071276167
 20
161.2105159061013
 30
0.0
 10
64.00297229505873
 20
159.9488184779583
 30
0.0
 10
63.74530467915807
 20
158.6772876869217
 30
0.0
 10
63.48763735496994
 20
157.4057583354213
 30
0.0
 10
63.27848072274385
 20
156.1243956432929
 30
0.0
 10
63.11829022522386
 20
154.8369455283461
 30
0.0
 10
62.95809934068716
 20
153.549492302947
 30
0.0
 10
62.84687482745937
 20
152.2559516253156
 30
0.0
 10
62.78492470817112
 20
150.9600504285303
 30
0.0
 10
62.75446302017573
 20
150.3228387753043
 30
0.0
 10
62.73591498468259
 20
149.6850563914679
 30
0.0
 10
62.72930563926673
 20
149.0471511892021
 30
0.0
  0
SPLINE
  5
86
330
70
100
AcDbEntity
  8
Predeterminado
 62
    18
420
        0
370
     9
100
AcDbSpline
210
0.0
220
0.0
230
1.0
 70
     8
 71
     3
 72
    86
 73
    82
 74
     0
 42
0.0000000001
 43
0.0000000001
 40
0.0
 40
0.0
 40
0.0
 40
0.0
 40
1.0
 40
1.0
 40
1.0
 40
2.0
 40
2.0
 40
2.0
 40
3.0
 40
3.0
 40
3.0
 40
4.0
 40
4.0
 40
4.0
 40
5.0
 40
5.0
 40
5.0
 40
6.0
 40
6.0
 40
6.0
 40
7.0
 40
7.0
 40
7.0
 40
8.0
 40
8.0
 40
8.0
 40
9.0
 40
9.0
 40
9.0
 40
10.0
 40
10.0
 40
10.0
 40
11.0
 40
11.0
 40
11.0
 40
12.0
 40
12.0
 40
12.0
 40
13.0
 40
13.0
 40
13.0
 40
14.0
 40
14.0
 40
14.0
 40
15.0
 40
15.0
 40
15.0
 40
16.0
 40
16.0
 40
16.0
 40
17.0
 40
17.0
 40
17.0
 40
18.0
 40
18.0
 40
18.0
 40
19.0
 40
19.0
 40
19.0
 40
20.0
 40
20.0
 40
20.0
 40
21.0
 40
21.0
 40
21.0
 40
22.0
 40
22.0
 40
22.0
 40
23.0
 40
23.0
 40
23.0
 40
24.0
 40
24.0
 40
24.0
 40
25.0
 40
25.0
 40
25.0
 40
26.0
 40
26.0
 40
26.0
 40
27.0
 40
27.0
 40
27.0
 40
27.0
 10
62.72926672169269
 20
147.9918452241875
 30
0.0
 10
62.73243279018137
 20
147.6841984857625
 30
0.0
 10
62.73837890465614
 20
147.3765806284639
 30
0.0
 10
62.7471078736672
 20
147.0690418961432
 30
0.0
 10
62.78391685709303
 20
145.7721890735271
 30
0.0
 10
62.87021068951137
 20
144.4767432549338
 30
0.0
 10
63.00548853971832
 20
143.1864340554483
 30
0.0
 10
63.14076646457094
 20
141.8961241439739
 30
0.0
 10
63.32502846127082
 20
140.6109508572767
 30
0.0
 10
63.55795704573896
 20
139.3346553140043
 30
0.0
 10
63.79088521171182
 20
138.0583620638082
 30
0.0
 10
64.07247979057743
 20
136.7909465251361
 30
0.0
 10
64.40183697269478
 20
135.5360722645014
 30
0.0
 10
64.73119499582833
 20
134.2811947995355
 30
0.0
 10
65.10831586613786
 20
133.0388586766556
 30
0.0
 10
65.53203219954816
 20
131.8126192177203
 30
0.0
 10
65.95574770768537
 20
130.5863821471349
 30
0.0
 10
66.42605849741558
 20
129.3762416777905
 30
0.0
 10
66.94180872779168
 20
128.1857865774124
 30
0.0
 10
67.45755909244296
 20
126.9953311671001
 30
0.0
 10
68.01874892140087
 20
125.8245611360033
 30
0.0
 10
68.62351836888589
 20
124.6767631480866
 30
0.0
 10
69.22828859187674
 20
123.528963688329
 30
0.0
 10
69.8766385451604
 20
122.4041363306673
 30
0.0
 10
70.5668635593173
 20
121.3055851570133
 30
0.0
 10
71.25708698659417
 20
120.2070365090137
 30
0.0
 10
71.98918528219606
 20
119.1347639242002
 30
0.0
 10
72.76095491615951
 20
118.0919695807589
 30
0.0
 10
73.40414503727119
 20
117.2229084120674
 30
0.0
 10
74.07488887638213
 20
116.3743213484469
 30
0.0
 10
74.77179204980429
 20
115.5477677161742
 30
0.0
 10
75.46869482101879
 20
114.721214560936
 30
0.0
 10
76.19175689634964
 20
113.9166948116119
 30
0.0
 10
76.93961934408999
 20
113.1359340176912
 30
0.0
 10
77.68748092722076
 20
112.3551741264152
 30
0.0
 10
78.46014282541715
 20
111.5981731356062
 30
0.0
 10
79.25603458420528
 20
110.8664377991132
 30
0.0
 10
80.05192754431176
 20
110.1347013581399
 30
0.0
 10
80.87105043513581
 20
109.4282306477556
 30
0.0
 10
81.71167763389343
 20
108.7483628216437
 30
0.0
 10
82.54942202954037
 20
108.0708264988267
 30
0.0
 10
83.40852349451424
 20
107.4197109120538
 30
0.0
 10
84.28737241925539
 20
106.796385492797
 30
0.0
 10
85.13053183731207
 20
106.1983729300407
 30
0.0
 10
85.9918674170473
 20
105.6259392814214
 30
0.0
 10
86.86966176383227
 20
105.0802438075573
 30
0.0
 10
87.29119760955292
 20
104.8181890290956
 30
0.0
 10
87.71652905810368
 20
104.5623004167543
 30
0.0
 10
88.14549682269483
 20
104.3126441900852
 30
0.0
 10
88.56265262364528
 20
104.0698624433084
 30
0.0
 10
88.98324724013697
 20
103.8329745804707
 30
0.0
 10
89.40710317098366
 20
103.6020789646686
 30
0.0
 10
89.8189570010872
 20
103.377721496007
 30
0.0
 10
90.23389006276532
 20
103.1590217206159
 30
0.0
 10
90.65174792682363
 20
102.9460606322787
 30
0.0
 10
91.07242444021364
 20
102.7316630204711
 30
0.0
 10
91.49606534742238
 20
102.5230817771643
 30
0.0
 10
91.92251289784534
 20
102.3203990473357
 30
0.0
 10
92.4343110020917
 20
102.0771507585676
 30
0.0
 10
92.95015163683837
 20
101.8423983557489
 30
0.0
 10
93.46976611413827
 20
101.6162946037077
 30
0.0
 10
94.08861185987554
 20
101.3470116041777
 30
0.0
 10
94.71281046840191
 20
101.0899959529203
 30
0.0
 10
95.3418446389695
 20
100.8454603802731
 30
0.0
 10
95.96130547637413
 20
100.604646418655
 30
0.0
 10
96.58545581004444
 20
100.3759355551973
 30
0.0
 10
97.21386066749056
 20
100.1594525370424
 30
0.0
 10
97.91743771297257
 20
99.91707299381458
 30
0.0
 10
98.62634804861285
 20
99.69002175768693
 30
0.0
 10
99.3397282237246
 20
99.47854005128105
 30
0.0
 10
100.1293225625353
 20
99.24446463964761
 30
0.0
 10
100.924392831574
 20
99.0294632146714
 30
0.0
 10
101.724824068103
 20
98.83366995999736
 30
0.0
 10
102.6025102702492
 20
98.61897939039019
 30
0.0
 10
103.4866422253839
 20
98.42738374186872
 30
0.0
 10
104.3725637508643
 20
98.2598575841712
 30
0.0
 10
105.336456421947
 20
98.07758722390147
 30
0.0
 10
106.3024675303699
 20
97.92380957321078
 30
0.0
 10
107.28347825804
 20
97.7959764996323
 30
0.0
 10
107.8183462695941
 20
97.72627917630302
 30
0.0
 10
108.357673163075
 20
97.66429430247479
 30
0.0
 10
108.8933849007441
 20
97.6114971122878
 30
0.0
  0
SPLINE
  5
87
330
70
100
AcDbEntity
  8
Predeterminado
 62
    18
420
        0
370
     9
100
AcDbSpline
210
0.0
220
0.0
230
1.0
 70
     8
 71
     3
 72
    11
 73
     7
 74
     0
 42
0.0000000001
 43
0.0000000001
 40
0.0
 40
0.0
 40
0.0
 40
0.0
 40
1.0
 40
1.0
 40
1.0
 40
2.0
 40
2.0
 40
2.0
 40
2.0
 10
109.9444696201716
 20
97.51958506268884
 30
0.0
 10
110.1154253270453
 20
97.5066009799656
 30
0.0
 10
110.2854428349474
 20
97.49468410690965
 30
0.0
 10
110.4542472321841
 20
97.48388467354523
 30
0.0
 10
111.5640322408459
 20
97.41288504648341
 30
0.0
 10
112.6213835359097
 20
97.39018399138508
 30
0.0
 10
113.8768758589289
 20
97.36909275777236
 30
0.0
  0
LINE
  5
88
330
70
100
AcDbEntity
  8
Predeterminado
 62
    18
420
        0
370
     9
100
AcDbLine
 10
164.0991387916343
 20
147.9921212984214
 30
0.0
 11
163.4768974004337
 21
147.9921212971335
 31
0.0
  0
LINE
  5
89
330
70
100
AcDbEntity
  8
Predeterminado
 62
    18
420
        0
370
     9
100
AcDbLine
 10
162.8335630807175
 20
147.9921212958013
 30
0.0
 11
162.3906115818966
 21
147.9921212948837
 31
0.0
  0
LINE
  5
8A
330
70
100
AcDbEntity
  8
Predeterminado
 62
    18
420
        0
370
     9
100
AcDbLine
 10
164.5420902904552
 20
147.9921212993384
 30
0.0
 11
165.2804974603604
 21
147.9921213008669
 31
0.0
  0
LINE
  5
8B
330
70
100
AcDbEntity
  8
Predeterminado
 62
    18
420
        0
370
     9
100
AcDbLine
 10
164.5420902904552
 20
147.9921212993384
 30
0.0
 11
164.0991387916343
 21
147.9921212984214
 31
0.0
  0
LINE
  5
8C
330
70
100
AcDbEntity
  8
Predeterminado
 62
    18
420
        0
370
     9
100
AcDbLine
 10
164.5420902882708
 20
149.0467677251023
 30
0.0
 11
165.2804974581767
 21
149.0467677266314
 31
0.0
  0
LINE
  5
8D
330
70
100
AcDbEntity
  8
Predeterminado
 62
    18
420
        0
370
     9
100
AcDbLine
 10
162.8335630785338
 20
149.0467677215646
 30
0.0
 11
162.3906115797129
 21
149.0467677206476
 31
0.0
  0
LINE
  5
8E
330
70
100
AcDbEntity
  8
Predeterminado
 62
    18
420
        0
370
     9
100
AcDbLine
 10
164.0991387894506
 20
149.0467677241853
 30
0.0
 11
163.4768973982494
 21
149.0467677228968
 31
0.0
  0
LINE
  5
8F
330
70
100
AcDbEntity
  8
Predeterminado
 62
    18
420
        0
370
     9
100
AcDbLine
 10
164.5420902882708
 20
149.0467677251023
 30
0.0
 11
164.0991387894506
 21
149.0467677241853
 31
0.0
  0
LINE
  5
90
330
70
100
AcDbEntity
  8
Predeterminado
 62
    18
420
        0
370
     9
100
AcDbLine
 10
164.5420902904552
 20
147.9921212993384
 30
0.0
 11
164.5420902882708
 21
149.0467677251023
 31
0.0
  0
LINE
  5
91
330
70
100
AcDbEntity
  8
Predeterminado
 62
    18
420
        0
370
     9
100
AcDbLine
 10
163.455804469735
 20
149.0467677228531
 30
0.0
 11
162.8335630785338
 21
149.0467677215646
 31
0.0
  0
LINE
  5
92
330
70
100
AcDbEntity
  8
Predeterminado
 62
    18
420
        0
370
     9
100
AcDbLine
 10
163.455804471918
 20
147.9921212970892
 30
0.0
 11
162.8335630807175
 21
147.9921212958013
 31
0.0
  0
LINE
  5
93
330
70
100
AcDbEntity
  8
Predeterminado
 62
    18
420
        0
370
     9
100
AcDbLine
 10
163.4768973982494
 20
149.0467677228968
 30
0.0
 11
163.4768974004337
 21
147.9921212971335
 31
0.0
  0
LINE
  5
94
330
70
100
AcDbEntity
  8
Predeterminado
 62
    18
420
        0
370
     9
100
AcDbLine
 10
163.455804471918
 20
147.9921212970892
 30
0.0
 11
163.455804469735
 21
149.0467677228531
 31
0.0
  0
LINE
  5
95
330
70
100
AcDbEntity
  8
Predeterminado
 62
    18
420
        0
370
     9
100
AcDbLine
 10
163.455804469735
 20
149.0467677228531
 30
0.0
 11
163.4768973982494
 21
149.0467677228968
 31
0.0
  0
LINE
  5
96
330
70
100
AcDbEntity
  8
Predeterminado
 62
    18
420
        0
370
     9
100
AcDbLine
 10
163.4768974004337
 20
147.9921212971335
 30
0.0
 11
163.455804471918
 21
147.9921212970892
 31
0.0
  0
LINE
  5
97
330
70
100
AcDbEntity
  8
Predeterminado
 62
    18
420
        0
370
     9
100
AcDbLine
 10
165.2804974603604
 20
147.9921213008669
 30
0.0
 11
165.2804974581767
 21
149.0467677266314
 31
0.0
  0
LINE
  5
98
330
70
100
AcDbEntity
  8
Predeterminado
 62
    18
420
        0
370
     9
100
AcDbLine
 10
63.65461292695158
 20
149.046767585534
 30
0.0
 11
64.27685431815212
 21
149.0467675859633
 31
0.0
  0
LINE
  5
99
330
70
100
AcDbEntity
  8
Predeterminado
 62
    18
420
        0
370
     9
100
AcDbLine
 10
64.92018863786805
 20
149.0467675864073
 30
0.0
 11
65.36314013668894
 21
149.0467675867131
 31
0.0
  0
LINE
  5
9A
330
70
100
AcDbEntity
  8
Predeterminado
 62
    18
420
        0
370
     9
100
AcDbLine
 10
63.21166142813069
 20
149.0467675852283
 30
0.0
 11
62.47325425822515
 21
149.0467675847184
 31
0.0
  0
LINE
  5
9B
330
70
100
AcDbEntity
  8
Predeterminado
 62
    18
420
        0
370
     9
100
AcDbLine
 10
63.21166142813069
 20
149.0467675852283
 30
0.0
 11
63.65461292695158
 21
149.046767585534
 31
0.0
  0
LINE
  5
9C
330
70
100
AcDbEntity
  8
Predeterminado
 62
    18
420
        0
370
     9
100
AcDbLine
 10
63.2116614288587
 20
147.9921211594647
 30
0.0
 11
62.47325425895315
 21
147.9921211589552
 31
0.0
  0
LINE
  5
9D
330
70
100
AcDbEntity
  8
Predeterminado
 62
    18
420
        0
370
     9
100
AcDbLine
 10
64.92018863859605
 20
147.9921211606435
 30
0.0
 11
65.36314013741694
 21
147.9921211609496
 31
0.0
  0
LINE
  5
9E
330
70
100
AcDbEntity
  8
Predeterminado
 62
    18
420
        0
370
     9
100
AcDbLine
 10
63.65461292767959
 20
147.9921211597701
 30
0.0
 11
64.27685431888012
 21
147.9921211602001
 31
0.0
  0
LINE
  5
9F
330
70
100
AcDbEntity
  8
Predeterminado
 62
    18
420
        0
370
     9
100
AcDbLine
 10
63.2116614288587
 20
147.9921211594647
 30
0.0
 11
63.65461292767959
 21
147.9921211597701
 31
0.0
  0
LINE
  5
A0
330
70
100
AcDbEntity
  8
Predeterminado
 62
    18
420
        0
370
     9
100
AcDbLine
 10
63.21166142813069
 20
149.0467675852283
 30
0.0
 11
63.2116614288587
 21
147.9921211594647
 31
0.0
  0
LINE
  5
A1
330
70
100
AcDbEntity
  8
Predeterminado
 62
    18
420
        0
370
     9
100
AcDbLine
 10
64.29794724739551
 20
147.9921211602142
 30
0.0
 11
64.92018863859605
 21
147.9921211606435
 31
0.0
  0
LINE
  5
A2
330
70
100
AcDbEntity
  8
Predeterminado
 62
    18
420
        0
370
     9
100
AcDbLine
 10
64.29794724666752
 20
149.0467675859781
 30
0.0
 11
64.92018863786805
 21
149.0467675864073
 31
0.0
  0
LINE
  5
A3
330
70
100
AcDbEntity
  8
Predeterminado
 62
    18
420
        0
370
     9
100
AcDbLine
 10
64.27685431888012
 20
147.9921211602001
 30
0.0
 11
64.27685431815212
 21
149.0467675859633
 31
0.0
  0
LINE
  5
A4
330
70
100
AcDbEntity
  8
Predeterminado
 62
    18
420
        0
370
     9
100
AcDbLine
 10
64.29794724666752
 20
149.0467675859781
 30
0.0
 11
64.29794724739551
 21
147.9921211602142
 31
0.0
  0
LINE
  5
A5
330
70
100
AcDbEntity
  8
Predeterminado
 62
    18
420
        0
370
     9
100
AcDbLine
 10
64.29794724739551
 20
147.9921211602142
 30
0.0
 11
64.27685431888012
 21
147.9921211602001
 31
0.0
  0
LINE
  5
A6
330
70
100
AcDbEntity
  8
Predeterminado
 62
    18
420
        0
370
     9
100
AcDbLine
 10
64.27685431815212
 20
149.0467675859633
 30
0.0
 11
64.29794724666752
 21
149.0467675859781
 31
0.0
  0
LINE
  5
A7
330
70
100
AcDbEntity
  8
Predeterminado
 62
    18
420
        0
370
     9
100
AcDbLine
 10
62.47325425822515
 20
149.0467675847184
 30
0.0
 11
62.47325425895315
 21
147.9921211589552
 31
0.0
  0
LINE
  5
A8
330
70
100
AcDbEntity
  8
Predeterminado
 62
    18
420
        0
370
     9
100
AcDbLine
 10
118.6298672825377
 20
100.2428591732835
 30
0.0
 11
118.6684730494187
 21
99.8015932386461
 31
0.0
  0
LINE
  5
A9
330
70
100
AcDbEntity
  8
Predeterminado
 62
    18
420
        0
370
     9
100
AcDbLine
 10
118.6684730494187
 20
99.8015932386461
 30
0.0
 11
118.7787752405067
 21
98.54083342539723
 31
0.0
  0
LINE
  5
AA
330
70
100
AcDbEntity
  8
Predeterminado
 62
    18
420
        0
370
     9
100
AcDbLine
 10
118.7787752405067
 20
98.54083342539723
 30
0.0
 11
118.8143170576354
 21
98.13458859668468
 31
0.0
  0
LINE
  5
AB
330
70
100
AcDbEntity
  8
Predeterminado
 62
    18
420
        0
370
     9
100
AcDbLine
 10
118.8143170576354
 20
98.13458859668468
 30
0.0
 11
118.8817374327314
 21
97.36397018306821
 31
0.0
  0
LINE
  5
AC
330
70
100
AcDbEntity
  8
Predeterminado
 62
    18
420
        0
370
     9
100
AcDbLine
 10
117.7636838799278
 20
98.04267010411038
 30
0.0
 11
117.8311042550238
 21
97.27205169049454
 31
0.0
  0
LINE
  5
AD
330
70
100
AcDbEntity
  8
Predeterminado
 62
    18
420
        0
370
     9
100
AcDbLine
 10
117.7281420627997
 20
98.44891493282421
 30
0.0
 11
117.7636838799278
 21
98.04267010411038
 31
0.0
  0
LINE
  5
AE
330
70
100
AcDbEntity
  8
Predeterminado
 62
    18
420
        0
370
     9
100
AcDbLine
 10
117.6178398717111
 20
99.70967474607244
 30
0.0
 11
117.7281420627997
 21
98.44891493282421
 31
0.0
  0
LINE
  5
AF
330
70
100
AcDbEntity
  8
Predeterminado
 62
    18
420
        0
370
     9
100
AcDbLine
 10
117.5792341048308
 20
100.1509406807099
 30
0.0
 11
117.6178398717111
 21
99.70967474607244
 31
0.0
  0
LINE
  5
B0
330
70
100
AcDbEntity
  8
Predeterminado
 62
    18
420
        0
370
     9
100
AcDbLine
 10
118.8143170576354
 20
98.13458859668468
 30
0.0
 11
117.7636838799278
 21
98.04267010411038
 31
0.0
  0
LINE
  5
B1
330
70
100
AcDbEntity
  8
Predeterminado
 62
    18
420
        0
370
     9
100
AcDbLine
 10
118.6298672825377
 20
100.2428591732835
 30
0.0
 11
117.5792341048308
 21
100.1509406807099
 31
0.0
  0
LINE
  5
B2
330
70
100
AcDbEntity
  8
Predeterminado
 62
    18
420
        0
370
     9
100
AcDbLine
 10
117.8311042550238
 20
97.27205169049454
 30
0.0
 11
118.8817374327314
 21
97.36397018306821
 31
0.0
  0
LINE
  5
B3
330
70
100
AcDbEntity
  8
Predeterminado
 62
    18
420
        0
370
     9
100
AcDbLine
 10
112.189441577707
 20
100.0451141161461
 30
0.0
 11
115.5643101401509
 21
100.0451141161461
 31
0.0
  0
LINE
  5
B4
330
70
100
AcDbEntity
  8
Predeterminado
 62
    18
420
        0
370
     9
100
AcDbLine
 10
112.4003708628595
 20
100.4142403651633
 30
0.0
 11
115.3533808549977
 21
100.4142403651633
 31
0.0
  0
LINE
  5
B5
330
70
100
AcDbEntity
  8
Predeterminado
 62
    18
420
        0
370
     9
100
AcDbLine
 10
112.189441577707
 20
100.2033110800101
 30
0.0
 11
112.189441577707
 21
100.0451141161461
 31
0.0
  0
LINE
  5
B6
330
70
100
AcDbEntity
  8
Predeterminado
 62
    18
420
        0
370
     9
100
AcDbLine
 10
115.5643101401509
 20
100.0451141161461
 30
0.0
 11
115.5643101401509
 21
100.2033110800101
 31
0.0
  0
LINE
  5
B7
330
70
100
AcDbEntity
  8
Predeterminado
 62
    18
420
        0
370
     9
100
AcDbLine
 10
112.6113001480121
 20
100.0451141161461
 30
0.0
 11
112.6113001480121
 21
100.0222191408712
 31
0.0
  0
LINE
  5
B8
330
70
100
AcDbEntity
  8
Predeterminado
 62
    18
420
        0
370
     9
100
AcDbLine
 10
115.1424515698457
 20
100.0222191408712
 30
0.0
 11
115.1424515698457
 21
100.0451141161461
 31
0.0
  0
SPLINE
  5
B9
330
70
100
AcDbEntity
  8
Predeterminado
 62
    18
420
        0
370
     9
100
AcDbSpline
210
0.0
220
0.0
230
1.0
 70
     8
 71
     3
 72
     8
 73
     4
 74
     0
 42
0.0000000001
 43
0.0000000001
 40
0.0
 40
0.0
 40
0.0
 40
0.0
 40
1.0
 40
1.0
 40
1.0
 40
1.0
 10
115.5643101401509
 20
100.2033110800101
 30
0.0
 10
115.5643101401509
 20
100.3198041074935
 30
0.0
 10
115.4698738824804
 20
100.4142403651633
 30
0.0
 10
115.3533808549977
 20
100.4142403651633
 30
0.0
  0
SPLINE
  5
BA
330
70
100
AcDbEntity
  8
Predeterminado
 62
    18
420
        0
370
     9
100
AcDbSpline
210
0.0
220
0.0
230
1.0
 70
     8
 71
     3
 72
     8
 73
     4
 74
     0
 42
0.0000000001
 43
0.0000000001
 40
0.0
 40
0.0
 40
0.0
 40
0.0
 40
1.0
 40
1.0
 40
1.0
 40
1.0
 10
112.4003708628595
 20
100.4142403651633
 30
0.0
 10
112.2838778353774
 20
100.4142403651633
 30
0.0
 10
112.189441577707
 20
100.3198041074935
 30
0.0
 10
112.189441577707
 20
100.2033110800101
 30
0.0
  0
LINE
  5
BB
330
70
100
AcDbEntity
  8
Predeterminado
 62
    18
420
        0
370
     9
100
AcDbLine
 10
114.4041990718107
 20
198.7417073389281
 30
0.0
 11
114.4041990718107
 21
198.1194659477279
 31
0.0
  0
LINE
  5
BC
330
70
100
AcDbEntity
  8
Predeterminado
 62
    18
420
        0
370
     9
100
AcDbLine
 10
114.4041990718107
 20
197.4761316280119
 30
0.0
 11
114.4041990718107
 21
197.033180129191
 31
0.0
  0
LINE
  5
BD
330
70
100
AcDbEntity
  8
Predeterminado
 62
    18
420
        0
370
     9
100
AcDbLine
 10
114.4041990718107
 20
199.184658837749
 30
0.0
 11
114.4041990718107
 21
199.9230660076545
 31
0.0
  0
LINE
  5
BE
330
70
100
AcDbEntity
  8
Predeterminado
 62
    18
420
        0
370
     9
100
AcDbLine
 10
114.4041990718107
 20
199.184658837749
 30
0.0
 11
114.4041990718107
 21
198.7417073389284
 31
0.0
  0
LINE
  5
BF
330
70
100
AcDbEntity
  8
Predeterminado
 62
    18
420
        0
370
     9
100
AcDbLine
 10
113.3495526460465
 20
199.184658837749
 30
0.0
 11
113.3495526460465
 21
199.9230660076545
 31
0.0
  0
LINE
  5
C0
330
70
100
AcDbEntity
  8
Predeterminado
 62
    18
420
        0
370
     9
100
AcDbLine
 10
113.3495526460465
 20
197.4761316280119
 30
0.0
 11
113.3495526460465
 21
197.033180129191
 31
0.0
  0
LINE
  5
C1
330
70
100
AcDbEntity
  8
Predeterminado
 62
    18
420
        0
370
     9
100
AcDbLine
 10
113.3495526460465
 20
198.7417073389281
 30
0.0
 11
113.3495526460465
 21
198.1194659477279
 31
0.0
  0
LINE
  5
C2
330
70
100
AcDbEntity
  8
Predeterminado
 62
    18
420
        0
370
     9
100
AcDbLine
 10
113.3495526460465
 20
199.184658837749
 30
0.0
 11
113.3495526460465
 21
198.7417073389284
 31
0.0
  0
LINE
  5
C3
330
70
100
AcDbEntity
  8
Predeterminado
 62
    18
420
        0
370
     9
100
AcDbLine
 10
114.4041990718107
 20
199.184658837749
 30
0.0
 11
113.3495526460465
 21
199.184658837749
 31
0.0
  0
LINE
  5
C4
330
70
100
AcDbEntity
  8
Predeterminado
 62
    18
420
        0
370
     9
100
AcDbLine
 10
113.3495526460465
 20
198.0983730192125
 30
0.0
 11
113.3495526460465
 21
197.4761316280119
 31
0.0
  0
LINE
  5
C5
330
70
100
AcDbEntity
  8
Predeterminado
 62
    18
420
        0
370
     9
100
AcDbLine
 10
114.4041990718107
 20
198.0983730192125
 30
0.0
 11
114.4041990718107
 21
197.4761316280119
 31
0.0
  0
LINE
  5
C6
330
70
100
AcDbEntity
  8
Predeterminado
 62
    18
420
        0
370
     9
100
AcDbLine
 10
113.3495526460465
 20
198.1194659477279
 30
0.0
 11
114.4041990718107
 21
198.1194659477279
 31
0.0
  0
LINE
  5
C7
330
70
100
AcDbEntity
  8
Predeterminado
 62
    18
420
        0
370
     9
100
AcDbLine
 10
114.4041990718107
 20
198.0983730192125
 30
0.0
 11
113.3495526460465
 21
198.0983730192125
 31
0.0
  0
LINE
  5
C8
330
70
100
AcDbEntity
  8
Predeterminado
 62
    18
420
        0
370
     9
100
AcDbLine
 10
113.3495526460465
 20
198.0983730192125
 30
0.0
 11
113.3495526460465
 21
198.1194659477279
 31
0.0
  0
LINE
  5
C9
330
70
100
AcDbEntity
  8
Predeterminado
 62
    18
420
        0
370
     9
100
AcDbLine
 10
114.4041990718107
 20
198.1194659477279
 30
0.0
 11
114.4041990718107
 21
198.0983730192125
 31
0.0
  0
LINE
  5
CA
330
70
100
AcDbEntity
  8
Predeterminado
 62
    18
420
        0
370
     9
100
AcDbLine
 10
114.4041990718107
 20
199.9230660076545
 30
0.0
 11
113.3495526460465
 21
199.9230660076545
 31
0.0
  0
LINE
  5
CB
330
70
100
AcDbEntity
  8
Predeterminado
 62
    18
420
        0
370
     9
100
AcDbLine
 10
112.4185638837109
 20
97.91327486471764
 30
0.0
 11
112.5705021280102
 21
97.91327486471764
 31
0.0
  0
LINE
  5
CC
330
70
100
AcDbEntity
  8
Predeterminado
 62
    18
420
        0
370
     9
100
AcDbLine
 10
115.1832495898476
 20
97.91327486471764
 30
0.0
 11
115.5643101401509
 21
97.91327486471764
 31
0.0
  0
LINE
  5
CD
330
70
100
AcDbEntity
  8
Predeterminado
 62
    18
420
        0
370
     9
100
AcDbLine
 10
112.4003708628595
 20
97.54414861570044
 30
0.0
 11
115.3533808549977
 21
97.54414861570044
 31
0.0
  0
SPLINE
  5
CE
330
70
100
AcDbEntity
  8
Predeterminado
 62
    18
420
        0
370
     9
100
AcDbSpline
210
0.0
220
0.0
230
1.0
 70
     8
 71
     3
 72
     8
 73
     4
 74
     0
 42
0.0000000001
 43
0.0000000001
 40
0.0
 40
0.0
 40
0.0
 40
0.0
 40
1.0
 40
1.0
 40
1.0
 40
1.0
 10
115.3533808549977
 20
97.54414861570044
 30
0.0
 10
115.4221956200288
 20
97.54414861570044
 30
0.0
 10
115.486683981627
 20
97.57771693656764
 30
0.0
 10
115.5261575289207
 20
97.63408457755302
 30
0.0
  0
LINE
  5
CF
330
70
100
AcDbEntity
  8
Predeterminado
 62
    18
420
        0
370
     9
100
AcDbLine
 10
110.1745176130277
 20
100.1509406807099
 30
0.0
 11
110.1359118461467
 21
99.70967474607244
 31
0.0
  0
LINE
  5
D0
330
70
100
AcDbEntity
  8
Predeterminado
 62
    18
420
        0
370
     9
100
AcDbLine
 10
110.1359118461467
 20
99.70967474607244
 30
0.0
 11
110.0256096550581
 21
98.44891493282421
 31
0.0
  0
LINE
  5
D1
330
70
100
AcDbEntity
  8
Predeterminado
 62
    18
420
        0
370
     9
100
AcDbLine
 10
110.0256096550581
 20
98.44891493282421
 30
0.0
 11
109.9900678379301
 21
98.04267010411038
 31
0.0
  0
LINE
  5
D2
330
70
100
AcDbEntity
  8
Predeterminado
 62
    18
420
        0
370
     9
100
AcDbLine
 10
109.9900678379301
 20
98.04267010411038
 30
0.0
 11
109.9226474628346
 21
97.27205169049454
 31
0.0
  0
LINE
  5
D3
330
70
100
AcDbEntity
  8
Predeterminado
 62
    18
420
        0
370
     9
100
AcDbLine
 10
108.9394346602225
 20
98.13458859668468
 30
0.0
 11
108.8720142851264
 21
97.36397018306821
 31
0.0
  0
LINE
  5
D4
330
70
100
AcDbEntity
  8
Predeterminado
 62
    18
420
        0
370
     9
100
AcDbLine
 10
108.9749764773511
 20
98.54083342539723
 30
0.0
 11
108.9394346602225
 21
98.13458859668468
 31
0.0
  0
LINE
  5
D5
330
70
100
AcDbEntity
  8
Predeterminado
 62
    18
420
        0
370
     9
100
AcDbLine
 10
109.0852786684398
 20
99.8015932386461
 30
0.0
 11
108.9749764773511
 21
98.54083342539723
 31
0.0
  0
LINE
  5
D6
330
70
100
AcDbEntity
  8
Predeterminado
 62
    18
420
        0
370
     9
100
AcDbLine
 10
109.1238844353201
 20
100.2428591732835
 30
0.0
 11
109.0852786684398
 21
99.8015932386461
 31
0.0
  0
LINE
  5
D7
330
70
100
AcDbEntity
  8
Predeterminado
 62
    18
420
        0
370
     9
100
AcDbLine
 10
109.9900678379301
 20
98.04267010411038
 30
0.0
 11
108.9394346602225
 21
98.13458859668468
 31
0.0
  0
LINE
  5
D8
330
70
100
AcDbEntity
  8
Predeterminado
 62
    18
420
        0
370
     9
100
AcDbLine
 10
110.1745176130277
 20
100.1509406807099
 30
0.0
 11
109.1238844353201
 21
100.2428591732835
 31
0.0
  0
LINE
  5
D9
330
70
100
AcDbEntity
  8
Predeterminado
 62
    18
420
        0
370
     9
100
AcDbLine
 10
108.8720142851264
 20
97.36397018306821
 30
0.0
 11
109.9226474628346
 21
97.27205169049454
 31
0.0
  0
LINE
  5
DA
330
70
100
AcDbEntity
  8
Predeterminado
 62
    18
420
        0
370
     9
100
AcDbLine
 10
155.9206228811767
 20
124.3139517093051
 30
0.0
 11
155.8613564798771
 21
124.2112991178571
 31
0.0
  0
LINE
  5
DB
330
70
100
AcDbEntity
  8
Predeterminado
 62
    18
420
        0
370
     9
100
AcDbLine
 10
71.83312880327465
 20
172.7249370472994
 30
0.0
 11
71.89239520441923
 21
172.8275896388064
 31
0.0
  0
CIRCLE
  5
DC
330
70
100
AcDbEntity
  8
Predeterminado
 62
    18
420
        0
370
     9
100
AcDbCircle
 10
135.741203731661
 20
134.0023663396641
 30
0.0
 40
0.3480333205022803
  0
CIRCLE
  5
DD
330
70
100
AcDbEntity
  8
Predeterminado
 62
    18
420
        0
370
     9
100
AcDbCircle
 10
138.4832844386469
 20
134.0023663396641
 30
0.0
 40
0.3480333205024407
  0
LINE
  5
DE
330
70
100
AcDbEntity
  8
Predeterminado
 62
    18
420
        0
370
     9
100
AcDbLine
 10
136.3212592658308
 20
133.4798506705295
 30
0.0
 11
135.4909186454211
 21
132.6495100501204
 31
0.0
  0
SPLINE
  5
DF
330
70
100
AcDbEntity
  8
Predeterminado
 62
    18
420
        0
370
     9
100
AcDbSpline
210
0.0
220
0.0
230
1.0
 70
     8
 71
     3
 72
     8
 73
     4
 74
     0
 42
0.0000000001
 43
0.0000000001
 40
0.0
 40
0.0
 40
0.0
 40
0.0
 40
1.0
 40
1.0
 40
1.0
 40
1.0
 10
135.4909186454211
 20
132.6495100501198
 30
0.0
 10
135.370497361323
 20
132.529088766021
 30
0.0
 10
135.3062648815636
 20
132.398079768074
 30
0.0
 10
135.3474513864104
 20
132.3568932632266
 30
0.0
  0
SPLINE
  5
E0
330
70
100
AcDbEntity
  8
Predeterminado
 62
    18
420
        0
370
     9
100
AcDbSpline
210
0.0
220
0.0
230
1.0
 70
     8
 71
     3
 72
     8
 73
     4
 74
     0
 42
0.0000000001
 43
0.0000000001
 40
0.0
 40
0.0
 40
0.0
 40
0.0
 40
1.0
 40
1.0
 40
1.0
 40
1.0
 10
135.4667710087166
 20
132.237573640921
 30
0.0
 10
135.5079575135633
 20
132.1963871360742
 30
0.0
 10
135.6389665115104
 20
132.2606196158336
 30
0.0
 10
135.7593877956098
 20
132.3810408999317
 30
0.0
  0
LINE
  5
E1
330
70
100
AcDbEntity
  8
Predeterminado
 62
    18
420
        0
370
     9
100
AcDbLine
 10
135.7593877956098
 20
132.3810408999317
 30
0.0
 11
136.5897284160189
 21
133.2113815203414
 31
0.0
  0
LINE
  5
E2
330
70
100
AcDbEntity
  8
Predeterminado
 62
    18
420
        0
370
     9
100
AcDbLine
 10
136.5897284160189
 20
134.7933511589874
 30
0.0
 11
135.7593877956098
 21
135.6236917793965
 31
0.0
  0
SPLINE
  5
E3
330
70
100
AcDbEntity
  8
Predeterminado
 62
    18
420
        0
370
     9
100
AcDbSpline
210
0.0
220
0.0
230
1.0
 70
     8
 71
     3
 72
     8
 73
     4
 74
     0
 42
0.0000000001
 43
0.0000000001
 40
0.0
 40
0.0
 40
0.0
 40
0.0
 40
1.0
 40
1.0
 40
1.0
 40
1.0
 10
135.7593877956098
 20
135.6236917793965
 30
0.0
 10
135.6389665115104
 20
135.7441130634952
 30
0.0
 10
135.5079575135633
 20
135.8083455432546
 30
0.0
 10
135.4667710087166
 20
135.7671590384079
 30
0.0
  0
SPLINE
  5
E4
330
70
100
AcDbEntity
  8
Predeterminado
 62
    18
420
        0
370
     9
100
AcDbSpline
210
0.0
220
0.0
230
1.0
 70
     8
 71
     3
 72
     8
 73
     4
 74
     0
 42
0.0000000001
 43
0.0000000001
 40
0.0
 40
0.0
 40
0.0
 40
0.0
 40
1.0
 40
1.0
 40
1.0
 40
1.0
 10
135.3474513864104
 20
135.6478394161017
 30
0.0
 10
135.3062648815636
 20
135.6066529112549
 30
0.0
 10
135.370497361323
 20
135.4756439133071
 30
0.0
 10
135.4909186454211
 20
135.3552226292084
 30
0.0
  0
LINE
  5
E5
330
70
100
AcDbEntity
  8
Predeterminado
 62
    18
420
        0
370
     9
100
AcDbLine
 10
135.4909186454211
 20
135.3552226292084
 30
0.0
 11
136.3212592658308
 21
134.5248820087987
 31
0.0
  0
LINE
  5
E6
330
70
100
AcDbEntity
  8
Predeterminado
 62
    18
420
        0
370
     9
100
AcDbLine
 10
137.9032289044768
 20
134.5248820087987
 30
0.0
 11
138.7335695248859
 21
135.3552226292084
 31
0.0
  0
SPLINE
  5
E7
330
70
100
AcDbEntity
  8
Predeterminado
 62
    18
420
        0
370
     9
100
AcDbSpline
210
0.0
220
0.0
230
1.0
 70
     8
 71
     3
 72
     8
 73
     4
 74
     0
 42
0.0000000001
 43
0.0000000001
 40
0.0
 40
0.0
 40
0.0
 40
0.0
 40
1.0
 40
1.0
 40
1.0
 40
1.0
 10
138.7335695248859
 20
135.3552226292084
 30
0.0
 10
138.8539908089853
 20
135.4756439133071
 30
0.0
 10
138.918223288744
 20
135.6066529112549
 30
0.0
 10
138.8770367838973
 20
135.6478394161017
 30
0.0
  0
SPLINE
  5
E8
330
70
100
AcDbEntity
  8
Predeterminado
 62
    18
420
        0
370
     9
100
AcDbSpline
210
0.0
220
0.0
230
1.0
 70
     8
 71
     3
 72
     8
 73
     4
 74
     0
 42
0.0000000001
 43
0.0000000001
 40
0.0
 40
0.0
 40
0.0
 40
0.0
 40
1.0
 40
1.0
 40
1.0
 40
1.0
 10
138.757717161591
 20
135.7671590384079
 30
0.0
 10
138.7165306567443
 20
135.8083455432546
 30
0.0
 10
138.5855216587966
 20
135.7441130634952
 30
0.0
 10
138.4651003746978
 20
135.6236917793965
 30
0.0
  0
LINE
  5
E9
330
70
100
AcDbEntity
  8
Predeterminado
 62
    18
420
        0
370
     9
100
AcDbLine
 10
138.4651003746978
 20
135.6236917793965
 30
0.0
 11
137.6347597542881
 21
134.7933511589874
 31
0.0
  0
LINE
  5
EA
330
70
100
AcDbEntity
  8
Predeterminado
 62
    18
420
        0
370
     9
100
AcDbLine
 10
135.4667710087166
 20
132.237573640921
 30
0.0
 11
135.3474513864104
 21
132.3568932632266
 31
0.0
  0
LINE
  5
EB
330
70
100
AcDbEntity
  8
Predeterminado
 62
    18
420
        0
370
     9
100
AcDbLine
 10
135.3474513864104
 20
135.6478394161017
 30
0.0
 11
135.4667710087166
 21
135.7671590384079
 31
0.0
  0
LINE
  5
EC
330
70
100
AcDbEntity
  8
Predeterminado
 62
    18
420
        0
370
     9
100
AcDbLine
 10
138.757717161591
 20
135.7671590384079
 30
0.0
 11
138.8770367838973
 21
135.6478394161017
 31
0.0
  0
LINE
  5
ED
330
70
100
AcDbEntity
  8
Predeterminado
 62
    18
420
        0
370
     9
100
AcDbLine
 10
137.9032289044768
 20
133.2113815203414
 30
0.0
 11
137.3653592273372
 21
133.2113815203414
 31
0.0
  0
LINE
  5
EE
330
70
100
AcDbEntity
  8
Predeterminado
 62
    18
420
        0
370
     9
100
AcDbLine
 10
136.8591289429704
 20
133.2113815203414
 30
0.0
 11
136.3212592658308
 21
133.2113815203414
 31
0.0
  0
LINE
  5
EF
330
70
100
AcDbEntity
  8
Predeterminado
 62
    18
420
        0
370
     9
100
AcDbLine
 10
137.6347597542881
 20
133.2113815203414
 30
0.0
 11
138.4651003746978
 21
132.3810408999317
 31
0.0
  0
SPLINE
  5
F0
330
70
100
AcDbEntity
  8
Predeterminado
 62
    18
420
        0
370
     9
100
AcDbSpline
210
0.0
220
0.0
230
1.0
 70
     8
 71
     3
 72
     8
 73
     4
 74
     0
 42
0.0000000001
 43
0.0000000001
 40
0.0
 40
0.0
 40
0.0
 40
0.0
 40
1.0
 40
1.0
 40
1.0
 40
1.0
 10
138.4651003746978
 20
132.3810408999317
 30
0.0
 10
138.5855216587966
 20
132.2606196158336
 30
0.0
 10
138.7165306567443
 20
132.1963871360742
 30
0.0
 10
138.757717161591
 20
132.237573640921
 30
0.0
  0
SPLINE
  5
F1
330
70
100
AcDbEntity
  8
Predeterminado
 62
    18
420
        0
370
     9
100
AcDbSpline
210
0.0
220
0.0
230
1.0
 70
     8
 71
     3
 72
     8
 73
     4
 74
     0
 42
0.0000000001
 43
0.0000000001
 40
0.0
 40
0.0
 40
0.0
 40
0.0
 40
1.0
 40
1.0
 40
1.0
 40
1.0
 10
138.8770367838973
 20
132.3568932632266
 30
0.0
 10
138.918223288744
 20
132.398079768074
 30
0.0
 10
138.8539908089853
 20
132.529088766021
 30
0.0
 10
138.7335695248859
 20
132.6495100501204
 30
0.0
  0
LINE
  5
F2
330
70
100
AcDbEntity
  8
Predeterminado
 62
    18
420
        0
370
     9
100
AcDbLine
 10
138.7335695248859
 20
132.6495100501204
 30
0.0
 11
137.9032289044768
 21
133.4798506705295
 31
0.0
  0
LINE
  5
F3
330
70
100
AcDbEntity
  8
Predeterminado
 62
    18
420
        0
370
     9
100
AcDbLine
 10
138.8770367838973
 20
132.3568932632266
 30
0.0
 11
138.757717161591
 21
132.237573640921
 31
0.0
  0
LINE
  5
F4
330
70
100
AcDbEntity
  8
Predeterminado
 62
    18
420
        0
370
     9
100
AcDbLine
 10
137.9032289044768
 20
134.7933511589874
 30
0.0
 11
137.9032289044768
 21
133.2113815203414
 31
0.0
  0
LINE
  5
F5
330
70
100
AcDbEntity
  8
Predeterminado
 62
    18
420
        0
370
     9
100
AcDbLine
 10
136.3212592658308
 20
134.7933511589874
 30
0.0
 11
136.8591289429704
 21
134.7933511589874
 31
0.0
  0
LINE
  5
F6
330
70
100
AcDbEntity
  8
Predeterminado
 62
    18
420
        0
370
     9
100
AcDbLine
 10
137.3653592273372
 20
134.7933511589874
 30
0.0
 11
137.9032289044768
 21
134.7933511589874
 31
0.0
  0
LINE
  5
F7
330
70
100
AcDbEntity
  8
Predeterminado
 62
    18
420
        0
370
     9
100
AcDbLine
 10
136.3212592658308
 20
133.2113815203414
 30
0.0
 11
136.3212592658308
 21
134.7933511589874
 31
0.0
  0
LINE
  5
F8
330
70
100
AcDbEntity
  8
Predeterminado
 62
    18
420
        0
370
     9
100
AcDbLine
 10
135.108415876202
 20
136.006194548615
 30
0.0
 11
139.116072294105
 21
136.006194548615
 31
0.0
  0
LINE
  5
F9
330
70
100
AcDbEntity
  8
Predeterminado
 62
    18
420
        0
370
     9
100
AcDbLine
 10
139.116072294105
 20
136.006194548615
 30
0.0
 11
139.116072294105
 21
131.9985381307126
 31
0.0
  0
LINE
  5
FA
330
70
100
AcDbEntity
  8
Predeterminado
 62
    18
420
        0
370
     9
100
AcDbLine
 10
139.116072294105
 20
131.9985381307126
 30
0.0
 11
135.108415876202
 21
131.9985381307126
 31
0.0
  0
LINE
  5
FB
330
70
100
AcDbEntity
  8
Predeterminado
 62
    18
420
        0
370
     9
100
AcDbLine
 10
135.108415876202
 20
131.9985381307126
 30
0.0
 11
135.108415876202
 21
136.006194548615
 31
0.0
  0
LINE
  5
FC
330
70
100
AcDbEntity
  8
Predeterminado
 62
    18
420
        0
370
     9
100
AcDbLine
 10
137.3653592273372
 20
132.7367906287483
 30
0.0
 11
137.3653592273372
 21
133.7914370545119
 31
0.0
  0
LINE
  5
FD
330
70
100
AcDbEntity
  8
Predeterminado
 62
    18
420
        0
370
     9
100
AcDbLine
 10
136.8591289429704
 20
132.7367906287483
 30
0.0
 11
136.8591289429704
 21
133.7914370545119
 31
0.0
  0
LINE
  5
FE
330
70
100
AcDbEntity
  8
Predeterminado
 62
    18
420
        0
370
     9
100
AcDbLine
 10
136.8591289429704
 20
134.213295624817
 30
0.0
 11
137.3653592273372
 21
134.213295624817
 31
0.0
  0
LINE
  5
FF
330
70
100
AcDbEntity
  8
Predeterminado
 62
    18
420
        0
370
     9
100
AcDbLine
 10
136.8591289429704
 20
133.7914370545119
 30
0.0
 11
136.8591289429704
 21
134.213295624817
 31
0.0
  0
LINE
  5
100
330
70
100
AcDbEntity
  8
Predeterminado
 62
    18
420
        0
370
     9
100
AcDbLine
 10
137.3653592273372
 20
133.7914370545119
 30
0.0
 11
137.3653592273372
 21
134.213295624817
 31
0.0
  0
LINE
  5
101
330
70
100
AcDbEntity
  8
Predeterminado
 62
    18
420
        0
370
     9
100
AcDbLine
 10
136.8591289429704
 20
133.7914370545119
 30
0.0
 11
137.3653592273372
 21
133.7914370545119
 31
0.0
  0
LINE
  5
102
330
70
100
AcDbEntity
  8
Predeterminado
 62
    18
420
        0
370
     9
100
AcDbLine
 10
137.3653592273372
 20
135.2679420505806
 30
0.0
 11
137.3653592273372
 21
134.213295624817
 31
0.0
  0
LINE
  5
103
330
70
100
AcDbEntity
  8
Predeterminado
 62
    18
420
        0
370
     9
100
AcDbLine
 10
136.8591289429704
 20
135.2679420505806
 30
0.0
 11
136.8591289429704
 21
134.213295624817
 31
0.0
  0
LINE
  5
104
330
70
100
AcDbEntity
  8
Predeterminado
 62
    18
420
        0
370
     9
100
AcDbLine
 10
137.3653592273372
 20
135.2679420505806
 30
0.0
 11
136.8591289429704
 21
135.2679420505806
 31
0.0
  0
LINE
  5
105
330
70
100
AcDbEntity
  8
Predeterminado
 62
    18
420
        0
370
     9
100
AcDbLine
 10
136.8591289429704
 20
135.2679420505806
 30
0.0
 11
136.9645935855471
 21
135.3734066931572
 31
0.0
  0
LINE
  5
106
330
70
100
AcDbEntity
  8
Predeterminado
 62
    18
420
        0
370
     9
100
AcDbLine
 10
137.2598945847606
 20
135.3734066931572
 30
0.0
 11
137.3653592273372
 21
135.2679420505806
 31
0.0
  0
LINE
  5
107
330
70
100
AcDbEntity
  8
Predeterminado
 62
    18
420
        0
370
     9
100
AcDbLine
 10
136.9645935855471
 20
135.3734066931572
 30
0.0
 11
137.2598945847606
 21
135.3734066931572
 31
0.0
  0
LINE
  5
108
330
70
100
AcDbEntity
  8
Predeterminado
 62
    18
420
        0
370
     9
100
AcDbLine
 10
136.8591289429704
 20
132.7367906287483
 30
0.0
 11
137.3653592273372
 21
132.7367906287483
 31
0.0
  0
SPLINE
  5
109
330
70
100
AcDbEntity
  8
Predeterminado
 62
    18
420
        0
370
     9
100
AcDbSpline
210
0.0
220
0.0
230
1.0
 70
     8
 71
     3
 72
     8
 73
     4
 74
     0
 42
0.0000000001
 43
0.0000000001
 40
0.0
 40
0.0
 40
0.0
 40
0.0
 40
1.0
 40
1.0
 40
1.0
 40
1.0
 10
119.8856536387619
 20
101.8029897836298
 30
0.0
 10
119.8015158739
 20
101.8154633209603
 30
0.0
 10
119.7385611357105
 20
101.7756019041591
 30
0.0
 10
119.7450402954246
 20
101.7139568172844
 30
0.0
  0
LINE
  5
10A
330
70
100
AcDbEntity
  8
Predeterminado
 62
    18
420
        0
370
     9
100
AcDbLine
 10
119.7897160314193
 20
101.2888955827653
 30
0.0
 11
119.7450402954246
 21
101.7139568172844
 31
0.0
  0
SPLINE
  5
10B
330
70
100
AcDbEntity
  8
Predeterminado
 62
    18
420
        0
370
     9
100
AcDbSpline
210
0.0
220
0.0
230
1.0
 70
     8
 71
     3
 72
     8
 73
     4
 74
     0
 42
0.0000000001
 43
0.0000000001
 40
0.0
 40
0.0
 40
0.0
 40
0.0
 40
1.0
 40
1.0
 40
1.0
 40
1.0
 10
118.7057337481697
 20
101.6047212974282
 30
0.0
 10
118.6992545884555
 20
101.6663663843035
 30
0.0
 10
118.6293879077752
 20
101.6922677074475
 30
0.0
 10
118.5496821491811
 20
101.6625735218809
 30
0.0
  0
LINE
  5
10C
330
70
100
AcDbEntity
  8
Predeterminado
 62
    18
420
        0
370
     9
100
AcDbLine
 10
118.7057337481697
 20
101.6047212974282
 30
0.0
 11
118.750409484165
 21
101.1796600629097
 31
0.0
  0
LINE
  5
10D
330
70
100
AcDbEntity
  8
Predeterminado
 62
    18
420
        0
370
     9
100
AcDbLine
 10
119.8856536387619
 20
101.8029897836298
 30
0.0
 11
120.0075295585842
 21
101.7849215138338
 31
0.0
  0
LINE
  5
10E
330
70
100
AcDbEntity
  8
Predeterminado
 62
    18
420
        0
370
     9
100
AcDbLine
 10
118.4342261151434
 20
101.61956065857
 30
0.0
 11
118.5496821491811
 21
101.6625735218809
 31
0.0
  0
LINE
  5
10F
330
70
100
AcDbEntity
  8
Predeterminado
 62
    18
420
        0
370
     9
100
AcDbLine
 10
120.0075295585842
 20
101.7849215138338
 30
0.0
 11
119.9949797602139
 21
101.9043248693538
 31
0.0
  0
LINE
  5
110
330
70
100
AcDbEntity
  8
Predeterminado
 62
    18
420
        0
370
     9
100
AcDbLine
 10
119.7219744754083
 20
101.7271670578343
 30
0.0
 11
119.7682755148816
 21
101.2866420936712
 31
0.0
  0
LINE
  5
111
330
70
100
AcDbEntity
  8
Predeterminado
 62
    18
420
        0
370
     9
100
AcDbLine
 10
118.7718500007021
 20
101.1819135520038
 30
0.0
 11
118.7255489612289
 21
101.6224385161675
 31
0.0
  0
LINE
  5
112
330
70
100
AcDbEntity
  8
Predeterminado
 62
    18
420
        0
370
     9
100
AcDbLine
 10
118.7255489612289
 20
101.6224385161675
 30
0.0
 11
119.7219744754083
 21
101.7271670578343
 31
0.0
  0
LINE
  5
113
330
70
100
AcDbEntity
  8
Predeterminado
 62
    18
420
        0
370
     9
100
AcDbLine
 10
118.4342261151434
 20
101.61956065857
 30
0.0
 11
118.4216763167731
 21
101.7389640140901
 31
0.0
  0
LINE
  5
114
330
70
100
AcDbEntity
  8
Predeterminado
 62
    18
420
        0
370
     9
100
AcDbLine
 10
119.9949797602139
 20
101.9043248693538
 30
0.0
 11
118.4216763167731
 21
101.7389640140901
 31
0.0
  0
LINE
  5
115
330
70
100
AcDbEntity
  8
Predeterminado
 62
    18
420
        0
370
     9
100
AcDbLine
 10
117.3257175803115
 20
100.5633183960939
 30
0.0
 11
117.2772117294335
 21
101.0248207395032
 31
0.0
  0
LINE
  5
116
330
70
100
AcDbEntity
  8
Predeterminado
 62
    18
420
        0
370
     9
100
AcDbLine
 10
121.3114196370281
 20
100.9822325627625
 30
0.0
 11
121.2629137861508
 21
101.4437349061718
 31
0.0
  0
LINE
  5
117
330
70
100
AcDbEntity
  8
Predeterminado
 62
    18
420
        0
370
     9
100
AcDbLine
 10
121.2629137861508
 20
101.4437349061718
 30
0.0
 11
117.2772117294335
 21
101.0248207395032
 31
0.0
  0
LINE
  5
118
330
70
100
AcDbEntity
  8
Predeterminado
 62
    18
420
        0
370
     9
100
AcDbLine
 10
117.3257175803115
 20
100.5633183960939
 30
0.0
 11
121.3114196370281
 21
100.9822325627625
 31
0.0
  0
LINE
  5
119
330
70
100
AcDbEntity
  8
Predeterminado
 62
    18
420
        0
370
     9
100
AcDbLine
 10
121.0375202259811
 20
101.4200450883963
 30
0.0
 11
120.0036524221989
 21
101.8218100024397
 31
0.0
  0
LINE
  5
11A
330
70
100
AcDbEntity
  8
Predeterminado
 62
    18
420
        0
370
     9
100
AcDbLine
 10
118.4303489787581
 20
101.6564491471753
 30
0.0
 11
117.5026052896026
 21
101.0485105572793
 31
0.0
  0
SPLINE
  5
11B
330
70
100
AcDbEntity
  8
Predeterminado
 62
    18
420
        0
370
     9
100
AcDbSpline
210
0.0
220
0.0
230
1.0
 70
     8
 71
     3
 72
    11
 73
     7
 74
     0
 42
0.0000000001
 43
0.0000000001
 40
0.0
 40
0.0
 40
0.0
 40
0.0
 40
1.0
 40
1.0
 40
1.0
 40
2.0
 40
2.0
 40
2.0
 40
2.0
 10
118.8464447596113
 20
103.2468214184698
 30
0.0
 10
118.2910509825219
 20
103.0713124766124
 30
0.0
 10
117.9830934767355
 20
102.4787987529162
 30
0.0
 10
118.1586024185936
 20
101.9234049758268
 30
0.0
 10
118.1964612008267
 20
101.8036017804003
 30
0.0
 10
118.255422736156
 20
101.6915273625648
 30
0.0
 10
118.3327071576812
 20
101.5924657089535
 30
0.0
  0
SPLINE
  5
11C
330
70
100
AcDbEntity
  8
Predeterminado
 62
    18
420
        0
370
     9
100
AcDbSpline
210
0.0
220
0.0
230
1.0
 70
     8
 71
     3
 72
     8
 73
     4
 74
     0
 42
0.0000000001
 43
0.0000000001
 40
0.0
 40
0.0
 40
0.0
 40
0.0
 40
1.0
 40
1.0
 40
1.0
 40
1.0
 10
118.7630291891581
 20
101.2658379678145
 30
0.0
 10
118.8317481890356
 20
101.2375710603959
 30
0.0
 10
118.9032620911342
 20
101.2166456841106
 30
0.0
 10
118.9763794483498
 20
101.203410463188
 30
0.0
  0
SPLINE
  5
11D
330
70
100
AcDbEntity
  8
Predeterminado
 62
    18
420
        0
370
     9
100
AcDbSpline
210
0.0
220
0.0
230
1.0
 70
     8
 71
     3
 72
     8
 73
     4
 74
     0
 42
0.0000000001
 43
0.0000000001
 40
0.0
 40
0.0
 40
0.0
 40
0.0
 40
1.0
 40
1.0
 40
1.0
 40
1.0
 10
119.5637460672346
 20
101.265145182487
 30
0.0
 10
119.6325138776062
 20
101.2932931354441
 30
0.0
 10
119.6981143989995
 20
101.3286298183545
 30
0.0
 10
119.7594547033375
 20
101.370566509482
 30
0.0
  0
SPLINE
  5
11E
330
70
100
AcDbEntity
  8
Predeterminado
 62
    18
420
        0
370
     9
100
AcDbSpline
210
0.0
220
0.0
230
1.0
 70
     8
 71
     3
 72
    11
 73
     7
 74
     0
 42
0.0000000001
 43
0.0000000001
 40
0.0
 40
0.0
 40
0.0
 40
0.0
 40
1.0
 40
1.0
 40
1.0
 40
2.0
 40
2.0
 40
2.0
 40
2.0
 10
120.1124634400428
 20
101.7795256319707
 30
0.0
 10
120.3674347493272
 20
102.3032195003171
 30
0.0
 10
120.1495920734378
 20
102.9344523469737
 30
0.0
 10
119.6258982050921
 20
103.1894236562582
 30
0.0
 10
119.5129329515349
 20
103.2444231518502
 30
0.0
 10
119.3910488361217
 20
103.2787946544583
 30
0.0
 10
119.2659923445282
 20
103.2909176465403
 30
0.0
  0
SPLINE
  5
11F
330
70
100
AcDbEntity
  8
Predeterminado
 62
    18
420
        0
370
     9
100
AcDbSpline
210
0.0
220
0.0
230
1.0
 70
     8
 71
     3
 72
    11
 73
     7
 74
     0
 42
0.0000000001
 43
0.0000000001
 40
0.0
 40
0.0
 40
0.0
 40
0.0
 40
1.0
 40
1.0
 40
1.0
 40
2.0
 40
2.0
 40
2.0
 40
2.0
 10
120.309627410283
 20
101.7029069721522
 30
0.0
 10
120.6069140369378
 20
102.3354914944772
 30
0.0
 10
120.3351013872369
 20
103.0893009998436
 30
0.0
 10
119.7025168649118
 20
103.3865876264984
 30
0.0
 10
119.5583066484525
 20
103.4543600225466
 30
0.0
 10
119.4025952199481
 20
103.4942899674477
 30
0.0
 10
119.2435672011836
 20
103.5042786332645
 30
0.0
  0
SPLINE
  5
120
330
70
100
AcDbEntity
  8
Predeterminado
 62
    18
420
        0
370
     9
100
AcDbSpline
210
0.0
220
0.0
230
1.0
 70
     8
 71
     3
 72
    11
 73
     7
 74
     0
 42
0.0000000001
 43
0.0000000001
 40
0.0
 40
0.0
 40
0.0
 40
0.0
 40
1.0
 40
1.0
 40
1.0
 40
2.0
 40
2.0
 40
2.0
 40
2.0
 10
118.8240196162654
 20
103.4601824051947
 30
0.0
 10
118.15078982
 20
103.2722883986544
 30
0.0
 10
117.7573474253298
 20
102.5742096287482
 30
0.0
 10
117.9452414318687
 20
101.9009798324822
 30
0.0
 10
117.98807560564
 20
101.7475037178758
 30
0.0
 10
118.0595072118235
 20
101.6034968600374
 30
0.0
 10
118.15578160835
 20
101.4765286562589
 30
0.0
  0
LINE
  5
121
330
70
100
AcDbEntity
  8
Predeterminado
 62
    18
420
        0
370
     9
100
AcDbLine
 10
118.7946091912096
 20
103.7400039079307
 30
0.0
 11
118.796814002613
 21
103.7190265286851
 31
0.0
  0
LINE
  5
122
330
70
100
AcDbEntity
  8
Predeterminado
 62
    18
420
        0
370
     9
100
AcDbLine
 10
119.2435672011836
 20
103.5042786332645
 30
0.0
 11
119.2141567761271
 21
103.7841001360012
 31
0.0
  0
LINE
  5
123
330
70
100
AcDbEntity
  8
Predeterminado
 62
    18
420
        0
370
     9
100
AcDbLine
 10
119.2141567761271
 20
103.7841001360012
 30
0.0
 11
118.7946091912096
 21
103.7400039079307
 31
0.0
  0
LINE
  5
124
330
70
100
AcDbEntity
  8
Predeterminado
 62
    18
420
        0
370
     9
100
AcDbLine
 10
119.2692770612146
 20
103.2596656548545
 30
0.0
 11
119.2659923445282
 21
103.2909176465403
 31
0.0
  0
LINE
  5
125
330
70
100
AcDbEntity
  8
Predeterminado
 62
    18
420
        0
370
     9
100
AcDbLine
 10
118.8464447596113
 20
103.2468214184698
 30
0.0
 11
118.8497294762978
 21
103.2155694267833
 31
0.0
  0
LINE
  5
126
330
70
100
AcDbEntity
  8
Predeterminado
 62
    18
420
        0
370
     9
100
AcDbLine
 10
118.8497294762978
 20
103.2155694267833
 30
0.0
 11
119.2692770612146
 21
103.2596656548545
 31
0.0
  0
LINE
  5
127
330
70
100
AcDbEntity
  8
Predeterminado
 62
    18
420
        0
370
     9
100
AcDbLine
 10
118.8188621166483
 20
103.509252736226
 30
0.0
 11
118.8240196162654
 21
103.4601824051947
 31
0.0
  0
LINE
  5
128
330
70
100
AcDbEntity
  8
Predeterminado
 62
    18
420
        0
370
     9
100
AcDbLine
 10
117.7699931543542
 20
103.3990121660504
 30
0.0
 11
118.8188621166483
 21
103.509252736226
 31
0.0
  0
LINE
  5
129
330
70
100
AcDbEntity
  8
Predeterminado
 62
    18
420
        0
370
     9
100
AcDbLine
 10
117.747945040319
 20
103.6087859585088
 30
0.0
 11
118.796814002613
 21
103.7190265286851
 31
0.0
  0
LINE
  5
12A
330
70
100
AcDbEntity
  8
Predeterminado
 62
    18
420
        0
370
     9
100
AcDbLine
 10
117.747945040319
 20
103.6087859585088
 30
0.0
 11
117.7699931543542
 21
103.3990121660504
 31
0.0
  0
LINE
  5
12B
330
70
100
AcDbEntity
  8
Predeterminado
 62
    18
420
        0
370
     9
100
AcDbLine
 10
117.747945040319
 20
103.6087859585088
 30
0.0
 11
117.6540822011074
 21
103.492875005262
 31
0.0
  0
LINE
  5
12C
330
70
100
AcDbEntity
  8
Predeterminado
 62
    18
420
        0
370
     9
100
AcDbLine
 10
117.7699931543542
 20
103.3990121660504
 30
0.0
 11
117.6540822011074
 21
103.492875005262
 31
0.0
  0
LINE
  5
12D
330
70
100
AcDbEntity
  8
Predeterminado
 62
    18
420
        0
370
     9
100
AcDbLine
 10
125.0222642983886
 20
130.5983618507591
 30
0.0
 11
122.9129714468614
 21
130.5983618507591
 31
0.0
  0
LINE
  5
12E
330
70
100
AcDbEntity
  8
Predeterminado
 62
    18
420
        0
370
     9
100
AcDbLine
 10
150.8611017296006
 20
122.1611904446487
 30
0.0
 11
152.9703945811283
 21
122.1611904446487
 31
0.0
  0
LINE
  5
12F
330
70
100
AcDbEntity
  8
Predeterminado
 62
    18
420
        0
370
     9
100
AcDbLine
 10
152.1266774405174
 20
123.2158368704129
 30
0.0
 11
152.5485360108225
 21
123.2158368704129
 31
0.0
  0
SPLINE
  5
130
330
70
100
AcDbEntity
  8
Predeterminado
 62
    18
420
        0
370
     9
100
AcDbSpline
210
0.0
220
0.0
230
1.0
 70
     8
 71
     3
 72
    11
 73
     7
 74
     0
 42
0.0000000001
 43
0.0000000001
 40
0.0
 40
0.0
 40
0.0
 40
0.0
 40
1.0
 40
1.0
 40
1.0
 40
2.0
 40
2.0
 40
2.0
 40
2.0
 10
152.5485360108225
 20
122.5830490149551
 30
0.0
 10
152.7232755520472
 20
122.5830490149551
 30
0.0
 10
152.8649299385517
 20
122.7247034014596
 30
0.0
 10
152.8649299385517
 20
122.8994429426843
 30
0.0
 10
152.8649299385517
 20
123.0741824839078
 30
0.0
 10
152.7232755520472
 20
123.2158368704129
 30
0.0
 10
152.5485360108225
 20
123.2158368704129
 30
0.0
  0
LINE
  5
131
330
70
100
AcDbEntity
  8
Predeterminado
 62
    18
420
        0
370
     9
100
AcDbLine
 10
152.5485360108225
 20
122.5830490149551
 30
0.0
 11
152.1266774405174
 21
122.5830490149551
 31
0.0
  0
SPLINE
  5
132
330
70
100
AcDbEntity
  8
Predeterminado
 62
    18
420
        0
370
     9
100
AcDbSpline
210
0.0
220
0.0
230
1.0
 70
     8
 71
     3
 72
    11
 73
     7
 74
     0
 42
0.0000000001
 43
0.0000000001
 40
0.0
 40
0.0
 40
0.0
 40
0.0
 40
1.0
 40
1.0
 40
1.0
 40
2.0
 40
2.0
 40
2.0
 40
2.0
 10
152.1266774405174
 20
123.2158368704129
 30
0.0
 10
151.9519378992939
 20
123.2158368704129
 30
0.0
 10
151.8102835127882
 20
123.0741824839078
 30
0.0
 10
151.8102835127882
 20
122.8994429426843
 30
0.0
 10
151.8102835127882
 20
122.7247034014596
 30
0.0
 10
151.9519378992939
 20
122.5830490149551
 30
0.0
 10
152.1266774405174
 20
122.5830490149551
 30
0.0
  0
LINE
  5
133
330
70
100
AcDbEntity
  8
Predeterminado
 62
    18
420
        0
370
     9
100
AcDbLine
 10
123.7566885874724
 20
130.176503280454
 30
0.0
 11
123.3348300171666
 21
130.176503280454
 31
0.0
  0
SPLINE
  5
134
330
70
100
AcDbEntity
  8
Predeterminado
 62
    18
420
        0
370
     9
100
AcDbSpline
210
0.0
220
0.0
230
1.0
 70
     8
 71
     3
 72
    11
 73
     7
 74
     0
 42
0.0000000001
 43
0.0000000001
 40
0.0
 40
0.0
 40
0.0
 40
0.0
 40
1.0
 40
1.0
 40
1.0
 40
2.0
 40
2.0
 40
2.0
 40
2.0
 10
123.3348300171666
 20
130.176503280454
 30
0.0
 10
123.1600904759432
 20
130.176503280454
 30
0.0
 10
123.0184360894374
 20
130.0348488939482
 30
0.0
 10
123.0184360894374
 20
129.8601093527241
 30
0.0
 10
123.0184360894374
 20
129.6853698115007
 30
0.0
 10
123.1600904759432
 20
129.5437154249949
 30
0.0
 10
123.3348300171666
 20
129.5437154249949
 30
0.0
  0
LINE
  5
135
330
70
100
AcDbEntity
  8
Predeterminado
 62
    18
420
        0
370
     9
100
AcDbLine
 10
123.3348300171666
 20
129.5437154249949
 30
0.0
 11
123.7566885874724
 21
129.5437154249949
 31
0.0
  0
SPLINE
  5
136
330
70
100
AcDbEntity
  8
Predeterminado
 62
    18
420
        0
370
     9
100
AcDbSpline
210
0.0
220
0.0
230
1.0
 70
     8
 71
     3
 72
    11
 73
     7
 74
     0
 42
0.0000000001
 43
0.0000000001
 40
0.0
 40
0.0
 40
0.0
 40
0.0
 40
1.0
 40
1.0
 40
1.0
 40
2.0
 40
2.0
 40
2.0
 40
2.0
 10
123.7566885874724
 20
129.5437154249949
 30
0.0
 10
123.9314281286965
 20
129.5437154249949
 30
0.0
 10
124.0730825152016
 20
129.6853698115007
 30
0.0
 10
124.0730825152016
 20
129.8601093527241
 30
0.0
 10
124.0730825152016
 20
130.0348488939482
 30
0.0
 10
123.9314281286965
 20
130.176503280454
 30
0.0
 10
123.7566885874724
 20
130.176503280454
 30
0.0
  0
LINE
  5
137
330
70
100
AcDbEntity
  8
Predeterminado
 62
    18
420
        0
370
     9
100
AcDbLine
 10
129.0510136448066
 20
122.1611904446487
 30
0.0
 11
129.0299207162909
 21
122.1611904446487
 31
0.0
  0
LINE
  5
138
330
70
100
AcDbEntity
  8
Predeterminado
 62
    18
420
        0
370
     9
100
AcDbLine
 10
129.0299207162909
 20
130.5983618507591
 30
0.0
 11
129.0510136448066
 21
130.5983618507591
 31
0.0
  0
LINE
  5
139
330
70
100
AcDbEntity
  8
Predeterminado
 62
    18
420
        0
370
     9
100
AcDbLine
 10
146.8534453116989
 20
130.5983618507591
 30
0.0
 11
146.8323523831838
 21
130.5983618507591
 31
0.0
  0
LINE
  5
13A
330
70
100
AcDbEntity
  8
Predeterminado
 62
    18
420
        0
370
     9
100
AcDbLine
 10
146.8323523831838
 20
122.1611904446487
 30
0.0
 11
146.8534453116989
 21
122.1611904446487
 31
0.0
  0
LINE
  5
13B
330
70
100
AcDbEntity
  8
Predeterminado
 62
    18
420
        0
370
     9
100
AcDbLine
 10
125.0222642983886
 20
130.5983618507591
 30
0.0
 11
129.0299207162909
 21
130.5983618507591
 31
0.0
  0
LINE
  5
13C
330
70
100
AcDbEntity
  8
Predeterminado
 62
    18
420
        0
370
     9
100
AcDbLine
 10
129.0299207162909
 20
122.3721197298019
 30
0.0
 11
129.0299207162909
 21
130.3874325656066
 31
0.0
  0
LINE
  5
13D
330
70
100
AcDbEntity
  8
Predeterminado
 62
    18
420
        0
370
     9
100
AcDbLine
 10
129.0299207162909
 20
122.3721197298019
 30
0.0
 11
129.0299207162909
 21
122.1611904446487
 31
0.0
  0
LINE
  5
13E
330
70
100
AcDbEntity
  8
Predeterminado
 62
    18
420
        0
370
     9
100
AcDbLine
 10
129.0299207162909
 20
130.5983618507591
 30
0.0
 11
129.0299207162909
 21
130.3874325656066
 31
0.0
  0
LINE
  5
13F
330
70
100
AcDbEntity
  8
Predeterminado
 62
    18
420
        0
370
     9
100
AcDbLine
 10
124.811335013236
 20
129.5437154249949
 30
0.0
 11
124.811335013236
 21
130.3874325656066
 31
0.0
  0
SPLINE
  5
140
330
70
100
AcDbEntity
  8
Predeterminado
 62
    18
420
        0
370
     9
100
AcDbSpline
210
0.0
220
0.0
230
1.0
 70
     8
 71
     3
 72
     8
 73
     4
 74
     0
 42
0.0000000001
 43
0.0000000001
 40
0.0
 40
0.0
 40
0.0
 40
0.0
 40
1.0
 40
1.0
 40
1.0
 40
1.0
 10
123.7566885874724
 20
128.4890689992314
 30
0.0
 10
124.3391537248853
 20
128.4890689992314
 30
0.0
 10
124.811335013236
 20
128.9612502875826
 30
0.0
 10
124.811335013236
 20
129.5437154249949
 30
0.0
  0
LINE
  5
141
330
70
100
AcDbEntity
  8
Predeterminado
 62
    18
420
        0
370
     9
100
AcDbLine
 10
122.9129714468614
 20
128.4890689992314
 30
0.0
 11
123.7566885874724
 21
128.4890689992314
 31
0.0
  0
LINE
  5
142
330
70
100
AcDbEntity
  8
Predeterminado
 62
    18
420
        0
370
     9
100
AcDbLine
 10
122.7020421617082
 20
122.3721197298019
 30
0.0
 11
122.7020421617082
 21
128.2781397140794
 31
0.0
  0
LINE
  5
143
330
70
100
AcDbEntity
  8
Predeterminado
 62
    18
420
        0
370
     9
100
AcDbLine
 10
129.0299207162909
 20
122.1611904446487
 30
0.0
 11
122.9129714468614
 21
122.1611904446487
 31
0.0
  0
SPLINE
  5
144
330
70
100
AcDbEntity
  8
Predeterminado
 62
    18
420
        0
370
     9
100
AcDbSpline
210
0.0
220
0.0
230
1.0
 70
     8
 71
     3
 72
     8
 73
     4
 74
     0
 42
0.0000000001
 43
0.0000000001
 40
0.0
 40
0.0
 40
0.0
 40
0.0
 40
1.0
 40
1.0
 40
1.0
 40
1.0
 10
122.7020421617082
 20
122.3721197298019
 30
0.0
 10
122.7020421617082
 20
122.2556267023192
 30
0.0
 10
122.7964784193787
 20
122.1611904446487
 30
0.0
 10
122.9129714468614
 20
122.1611904446487
 30
0.0
  0
SPLINE
  5
145
330
70
100
AcDbEntity
  8
Predeterminado
 62
    18
420
        0
370
     9
100
AcDbSpline
210
0.0
220
0.0
230
1.0
 70
     8
 71
     3
 72
     8
 73
     4
 74
     0
 42
0.0000000001
 43
0.0000000001
 40
0.0
 40
0.0
 40
0.0
 40
0.0
 40
1.0
 40
1.0
 40
1.0
 40
1.0
 10
122.9129714468614
 20
128.4890689992314
 30
0.0
 10
122.7964784193787
 20
128.4890689992314
 30
0.0
 10
122.7020421617082
 20
128.3946327415615
 30
0.0
 10
122.7020421617082
 20
128.2781397140794
 30
0.0
  0
SPLINE
  5
146
330
70
100
AcDbEntity
  8
Predeterminado
 62
    18
420
        0
370
     9
100
AcDbSpline
210
0.0
220
0.0
230
1.0
 70
     8
 71
     3
 72
     8
 73
     4
 74
     0
 42
0.0000000001
 43
0.0000000001
 40
0.0
 40
0.0
 40
0.0
 40
0.0
 40
1.0
 40
1.0
 40
1.0
 40
1.0
 10
125.0222642983886
 20
130.5983618507591
 30
0.0
 10
124.9057712709058
 20
130.5983618507591
 30
0.0
 10
124.811335013236
 20
130.5039255930893
 30
0.0
 10
124.811335013236
 20
130.3874325656066
 30
0.0
  0
LINE
  5
147
330
70
100
AcDbEntity
  8
Predeterminado
 62
    18
420
        0
370
     9
100
AcDbLine
 10
129.0510136448066
 20
130.5983618507591
 30
0.0
 11
146.8323523831838
 21
130.5983618507591
 31
0.0
  0
LINE
  5
148
330
70
100
AcDbEntity
  8
Predeterminado
 62
    18
420
        0
370
     9
100
AcDbLine
 10
146.8323523831838
 20
130.3874325656066
 30
0.0
 11
146.8323523831838
 21
122.3721197298019
 31
0.0
  0
LINE
  5
149
330
70
100
AcDbEntity
  8
Predeterminado
 62
    18
420
        0
370
     9
100
AcDbLine
 10
146.8323523831838
 20
130.5983618507591
 30
0.0
 11
146.8323523831838
 21
130.3874325656066
 31
0.0
  0
LINE
  5
14A
330
70
100
AcDbEntity
  8
Predeterminado
 62
    18
420
        0
370
     9
100
AcDbLine
 10
129.0510136448066
 20
130.3874325656066
 30
0.0
 11
129.0510136448066
 21
122.3721197298019
 31
0.0
  0
LINE
  5
14B
330
70
100
AcDbEntity
  8
Predeterminado
 62
    18
420
        0
370
     9
100
AcDbLine
 10
129.0510136448066
 20
130.3874325656066
 30
0.0
 11
129.0510136448066
 21
130.5983618507591
 31
0.0
  0
LINE
  5
14C
330
70
100
AcDbEntity
  8
Predeterminado
 62
    18
420
        0
370
     9
100
AcDbLine
 10
150.8611017296006
 20
122.1611904446487
 30
0.0
 11
146.8534453116989
 21
122.1611904446487
 31
0.0
  0
LINE
  5
14D
330
70
100
AcDbEntity
  8
Predeterminado
 62
    18
420
        0
370
     9
100
AcDbLine
 10
146.8534453116989
 20
122.3721197298019
 30
0.0
 11
146.8534453116989
 21
130.3874325656066
 31
0.0
  0
LINE
  5
14E
330
70
100
AcDbEntity
  8
Predeterminado
 62
    18
420
        0
370
     9
100
AcDbLine
 10
146.8534453116989
 20
130.3874325656066
 30
0.0
 11
146.8534453116989
 21
130.5983618507591
 31
0.0
  0
LINE
  5
14F
330
70
100
AcDbEntity
  8
Predeterminado
 62
    18
420
        0
370
     9
100
AcDbLine
 10
146.8534453116989
 20
122.1611904446487
 30
0.0
 11
146.8534453116989
 21
122.3721197298019
 31
0.0
  0
LINE
  5
150
330
70
100
AcDbEntity
  8
Predeterminado
 62
    18
420
        0
370
     9
100
AcDbLine
 10
151.0720310147538
 20
123.2158368704129
 30
0.0
 11
151.0720310147538
 21
122.3721197298019
 31
0.0
  0
SPLINE
  5
151
330
70
100
AcDbEntity
  8
Predeterminado
 62
    18
420
        0
370
     9
100
AcDbSpline
210
0.0
220
0.0
230
1.0
 70
     8
 71
     3
 72
     8
 73
     4
 74
     0
 42
0.0000000001
 43
0.0000000001
 40
0.0
 40
0.0
 40
0.0
 40
0.0
 40
1.0
 40
1.0
 40
1.0
 40
1.0
 10
152.1266774405174
 20
124.2704832961764
 30
0.0
 10
151.5442123031044
 20
124.2704832961764
 30
0.0
 10
151.0720310147538
 20
123.7983020078258
 30
0.0
 10
151.0720310147538
 20
123.2158368704129
 30
0.0
  0
LINE
  5
152
330
70
100
AcDbEntity
  8
Predeterminado
 62
    18
420
        0
370
     9
100
AcDbLine
 10
152.9703945811283
 20
124.2704832961764
 30
0.0
 11
152.1266774405174
 21
124.2704832961764
 31
0.0
  0
LINE
  5
153
330
70
100
AcDbEntity
  8
Predeterminado
 62
    18
420
        0
370
     9
100
AcDbLine
 10
153.1813238662809
 20
130.3874325656066
 30
0.0
 11
153.1813238662809
 21
124.481412581329
 31
0.0
  0
LINE
  5
154
330
70
100
AcDbEntity
  8
Predeterminado
 62
    18
420
        0
370
     9
100
AcDbLine
 10
146.8534453116989
 20
130.5983618507591
 30
0.0
 11
152.9703945811283
 21
130.5983618507591
 31
0.0
  0
SPLINE
  5
155
330
70
100
AcDbEntity
  8
Predeterminado
 62
    18
420
        0
370
     9
100
AcDbSpline
210
0.0
220
0.0
230
1.0
 70
     8
 71
     3
 72
     8
 73
     4
 74
     0
 42
0.0000000001
 43
0.0000000001
 40
0.0
 40
0.0
 40
0.0
 40
0.0
 40
1.0
 40
1.0
 40
1.0
 40
1.0
 10
153.1813238662809
 20
130.3874325656066
 30
0.0
 10
153.1813238662809
 20
130.5039255930893
 30
0.0
 10
153.0868876086111
 20
130.5983618507591
 30
0.0
 10
152.9703945811283
 20
130.5983618507591
 30
0.0
  0
SPLINE
  5
156
330
70
100
AcDbEntity
  8
Predeterminado
 62
    18
420
        0
370
     9
100
AcDbSpline
210
0.0
220
0.0
230
1.0
 70
     8
 71
     3
 72
     8
 73
     4
 74
     0
 42
0.0000000001
 43
0.0000000001
 40
0.0
 40
0.0
 40
0.0
 40
0.0
 40
1.0
 40
1.0
 40
1.0
 40
1.0
 10
152.9703945811283
 20
124.2704832961764
 30
0.0
 10
153.0868876086111
 20
124.2704832961764
 30
0.0
 10
153.1813238662809
 20
124.3649195538463
 30
0.0
 10
153.1813238662809
 20
124.481412581329
 30
0.0
  0
SPLINE
  5
157
330
70
100
AcDbEntity
  8
Predeterminado
 62
    18
420
        0
370
     9
100
AcDbSpline
210
0.0
220
0.0
230
1.0
 70
     8
 71
     3
 72
     8
 73
     4
 74
     0
 42
0.0000000001
 43
0.0000000001
 40
0.0
 40
0.0
 40
0.0
 40
0.0
 40
1.0
 40
1.0
 40
1.0
 40
1.0
 10
150.8611017296006
 20
122.1611904446487
 30
0.0
 10
150.9775947570833
 20
122.1611904446487
 30
0.0
 10
151.0720310147538
 20
122.2556267023192
 30
0.0
 10
151.0720310147538
 20
122.3721197298019
 30
0.0
  0
LINE
  5
158
330
70
100
AcDbEntity
  8
Predeterminado
 62
    18
420
        0
370
     9
100
AcDbLine
 10
146.8323523831838
 20
122.1611904446487
 30
0.0
 11
129.0510136448066
 21
122.1611904446487
 31
0.0
  0
LINE
  5
159
330
70
100
AcDbEntity
  8
Predeterminado
 62
    18
420
        0
370
     9
100
AcDbLine
 10
129.0510136448066
 20
122.1611904446487
 30
0.0
 11
129.0510136448066
 21
122.3721197298019
 31
0.0
  0
LINE
  5
15A
330
70
100
AcDbEntity
  8
Predeterminado
 62
    18
420
        0
370
     9
100
AcDbLine
 10
146.8323523831838
 20
122.3721197298019
 30
0.0
 11
146.8323523831838
 21
122.1611904446487
 31
0.0
  0
LINE
  5
15B
330
70
100
AcDbEntity
  8
Predeterminado
 62
    18
420
        0
370
     9
100
AcDbLine
 10
122.7020421617082
 20
130.3874325656066
 30
0.0
 11
122.7020421617082
 21
128.2781397140794
 31
0.0
  0
SPLINE
  5
15C
330
70
100
AcDbEntity
  8
Predeterminado
 62
    18
420
        0
370
     9
100
AcDbSpline
210
0.0
220
0.0
230
1.0
 70
     8
 71
     3
 72
     8
 73
     4
 74
     0
 42
0.0000000001
 43
0.0000000001
 40
0.0
 40
0.0
 40
0.0
 40
0.0
 40
1.0
 40
1.0
 40
1.0
 40
1.0
 10
122.9129714468614
 20
130.5983618507591
 30
0.0
 10
122.7964784193787
 20
130.5983618507591
 30
0.0
 10
122.7020421617082
 20
130.5039255930893
 30
0.0
 10
122.7020421617082
 20
130.3874325656066
 30
0.0
  0
LINE
  5
15D
330
70
100
AcDbEntity
  8
Predeterminado
 62
    18
420
        0
370
     9
100
AcDbLine
 10
153.1813238662809
 20
122.3721197298019
 30
0.0
 11
153.1813238662809
 21
124.481412581329
 31
0.0
  0
SPLINE
  5
15E
330
70
100
AcDbEntity
  8
Predeterminado
 62
    18
420
        0
370
     9
100
AcDbSpline
210
0.0
220
0.0
230
1.0
 70
     8
 71
     3
 72
     8
 73
     4
 74
     0
 42
0.0000000001
 43
0.0000000001
 40
0.0
 40
0.0
 40
0.0
 40
0.0
 40
1.0
 40
1.0
 40
1.0
 40
1.0
 10
152.9703945811283
 20
122.1611904446487
 30
0.0
 10
153.0868876086111
 20
122.1611904446487
 30
0.0
 10
153.1813238662809
 20
122.2556267023192
 30
0.0
 10
153.1813238662809
 20
122.3721197298019
 30
0.0
  0
LINE
  5
15F
330
70
100
AcDbEntity
  8
Predeterminado
 62
    18
420
        0
370
     9
100
AcDbLine
 10
91.72930091789007
 20
180.7283462501397
 30
0.0
 11
91.72930091789007
 21
181.0447401778689
 31
0.0
  0
LINE
  5
160
330
70
100
AcDbEntity
  8
Predeterminado
 62
    18
420
        0
370
     9
100
AcDbLine
 10
79.07354380872496
 20
180.7283462501397
 30
0.0
 11
79.07354380872496
 21
181.0447401778689
 31
0.0
  0
CIRCLE
  5
161
330
70
100
AcDbEntity
  8
Predeterminado
 62
    18
420
        0
370
     9
100
AcDbCircle
 10
85.40142236330735
 20
176.1511807623251
 30
0.0
 40
1.054646425763772
  0
CIRCLE
  5
162
330
70
100
AcDbEntity
  8
Predeterminado
 62
    18
420
        0
370
     9
100
AcDbCircle
 10
85.40142236330735
 20
171.1943425612355
 30
0.0
 40
1.371040353492811
  0
LINE
  5
163
330
70
100
AcDbEntity
  8
Predeterminado
 62
    18
420
        0
370
     9
100
AcDbLine
 10
91.51837163273716
 20
181.2134836059911
 30
0.0
 11
79.28447309387755
 21
181.2134836059911
 31
0.0
  0
LINE
  5
164
330
70
100
AcDbEntity
  8
Predeterminado
 62
    18
420
        0
370
     9
100
AcDbLine
 10
91.51837163273716
 20
181.0447401778689
 30
0.0
 11
79.28447309387755
 21
181.0447401778689
 31
0.0
  0
LINE
  5
165
330
70
100
AcDbEntity
  8
Predeterminado
 62
    18
420
        0
370
     9
100
AcDbLine
 10
91.72930091789007
 20
181.0447401778689
 30
0.0
 11
91.51837163273716
 21
181.0447401778689
 31
0.0
  0
LINE
  5
166
330
70
100
AcDbEntity
  8
Predeterminado
 62
    18
420
        0
370
     9
100
AcDbLine
 10
79.28447309387755
 20
181.0447401778689
 30
0.0
 11
79.07354380872496
 21
181.0447401778689
 31
0.0
  0
LINE
  5
167
330
70
100
AcDbEntity
  8
Predeterminado
 62
    18
420
        0
370
     9
100
AcDbLine
 10
79.07354380872496
 20
164.4446054363473
 30
0.0
 11
79.07354380872496
 21
180.7283462501397
 31
0.0
  0
LINE
  5
168
330
70
100
AcDbEntity
  8
Predeterminado
 62
    18
420
        0
370
     9
100
AcDbLine
 10
79.07354380872496
 20
181.0447401778689
 30
0.0
 11
79.07354380872496
 21
181.2134836059911
 31
0.0
  0
LINE
  5
169
330
70
100
AcDbEntity
  8
Predeterminado
 62
    18
420
        0
370
     9
100
AcDbLine
 10
91.51837163273716
 20
181.2134836059911
 30
0.0
 11
91.72930091789007
 21
181.2134836059911
 31
0.0
  0
LINE
  5
16A
330
70
100
AcDbEntity
  8
Predeterminado
 62
    18
420
        0
370
     9
100
AcDbLine
 10
79.07354380872496
 20
181.2134836059911
 30
0.0
 11
79.28447309387755
 21
181.2134836059911
 31
0.0
  0
LINE
  5
16B
330
70
100
AcDbEntity
  8
Predeterminado
 62
    18
420
        0
370
     9
100
AcDbLine
 10
91.72930091789007
 20
164.4446054363473
 30
0.0
 11
91.72930091789007
 21
180.7283462501397
 31
0.0
  0
LINE
  5
16C
330
70
100
AcDbEntity
  8
Predeterminado
 62
    18
420
        0
370
     9
100
AcDbLine
 10
91.72930091789007
 20
181.2134836059911
 30
0.0
 11
91.72930091789007
 21
181.0447401778689
 31
0.0
  0
LINE
  5
16D
330
70
100
AcDbEntity
  8
Predeterminado
 62
    18
420
        0
370
     9
100
AcDbLine
 10
91.51837163273716
 20
164.2336761511944
 30
0.0
 11
79.28447309387755
 21
164.2336761511944
 31
0.0
  0
SPLINE
  5
16E
330
70
100
AcDbEntity
  8
Predeterminado
 62
    18
420
        0
370
     9
100
AcDbSpline
210
0.0
220
0.0
230
1.0
 70
     8
 71
     3
 72
     8
 73
     4
 74
     0
 42
0.0000000001
 43
0.0000000001
 40
0.0
 40
0.0
 40
0.0
 40
0.0
 40
1.0
 40
1.0
 40
1.0
 40
1.0
 10
79.07354380872496
 20
164.4446054363473
 30
0.0
 10
79.07354380872496
 20
164.3281124088646
 30
0.0
 10
79.16798006639514
 20
164.2336761511944
 30
0.0
 10
79.28447309387755
 20
164.2336761511944
 30
0.0
  0
SPLINE
  5
16F
330
70
100
AcDbEntity
  8
Predeterminado
 62
    18
420
        0
370
     9
100
AcDbSpline
210
0.0
220
0.0
230
1.0
 70
     8
 71
     3
 72
     8
 73
     4
 74
     0
 42
0.0000000001
 43
0.0000000001
 40
0.0
 40
0.0
 40
0.0
 40
0.0
 40
1.0
 40
1.0
 40
1.0
 40
1.0
 10
91.51837163273716
 20
164.2336761511944
 30
0.0
 10
91.63486466021989
 20
164.2336761511944
 30
0.0
 10
91.72930091789007
 20
164.3281124088646
 30
0.0
 10
91.72930091789007
 20
164.4446054363473
 30
0.0
  0
LINE
  5
170
330
70
100
AcDbEntity
  8
Predeterminado
 62
    18
420
        0
370
     9
100
AcDbLine
 10
148.6802079091326
 20
180.7283462501397
 30
0.0
 11
148.6802079091326
 21
181.0447401778689
 31
0.0
  0
LINE
  5
171
330
70
100
AcDbEntity
  8
Predeterminado
 62
    18
420
        0
370
     9
100
AcDbLine
 10
136.0244507999678
 20
180.7283462501397
 30
0.0
 11
136.0244507999678
 21
181.0447401778689
 31
0.0
  0
CIRCLE
  5
172
330
70
100
AcDbEntity
  8
Predeterminado
 62
    18
420
        0
370
     9
100
AcDbCircle
 10
142.3523293545503
 20
176.1511807623251
 30
0.0
 40
1.054646425763852
  0
CIRCLE
  5
173
330
70
100
AcDbEntity
  8
Predeterminado
 62
    18
420
        0
370
     9
100
AcDbCircle
 10
142.3523293545505
 20
171.1943425612355
 30
0.0
 40
1.371040353492811
  0
LINE
  5
174
330
70
100
AcDbEntity
  8
Predeterminado
 62
    18
420
        0
370
     9
100
AcDbLine
 10
148.46927862398
 20
181.2134836059911
 30
0.0
 11
136.2353800851204
 21
181.2134836059911
 31
0.0
  0
LINE
  5
175
330
70
100
AcDbEntity
  8
Predeterminado
 62
    18
420
        0
370
     9
100
AcDbLine
 10
148.46927862398
 20
181.0447401778689
 30
0.0
 11
136.2353800851204
 21
181.0447401778689
 31
0.0
  0
LINE
  5
176
330
70
100
AcDbEntity
  8
Predeterminado
 62
    18
420
        0
370
     9
100
AcDbLine
 10
148.6802079091326
 20
181.0447401778689
 30
0.0
 11
148.46927862398
 21
181.0447401778689
 31
0.0
  0
LINE
  5
177
330
70
100
AcDbEntity
  8
Predeterminado
 62
    18
420
        0
370
     9
100
AcDbLine
 10
136.2353800851204
 20
181.0447401778689
 30
0.0
 11
136.0244507999678
 21
181.0447401778689
 31
0.0
  0
LINE
  5
178
330
70
100
AcDbEntity
  8
Predeterminado
 62
    18
420
        0
370
     9
100
AcDbLine
 10
136.0244507999678
 20
164.4446054363473
 30
0.0
 11
136.0244507999678
 21
180.7283462501397
 31
0.0
  0
LINE
  5
179
330
70
100
AcDbEntity
  8
Predeterminado
 62
    18
420
        0
370
     9
100
AcDbLine
 10
136.0244507999678
 20
181.0447401778689
 30
0.0
 11
136.0244507999678
 21
181.2134836059911
 31
0.0
  0
LINE
  5
17A
330
70
100
AcDbEntity
  8
Predeterminado
 62
    18
420
        0
370
     9
100
AcDbLine
 10
148.46927862398
 20
181.2134836059911
 30
0.0
 11
148.6802079091326
 21
181.2134836059911
 31
0.0
  0
LINE
  5
17B
330
70
100
AcDbEntity
  8
Predeterminado
 62
    18
420
        0
370
     9
100
AcDbLine
 10
136.0244507999678
 20
181.2134836059911
 30
0.0
 11
136.2353800851204
 21
181.2134836059911
 31
0.0
  0
LINE
  5
17C
330
70
100
AcDbEntity
  8
Predeterminado
 62
    18
420
        0
370
     9
100
AcDbLine
 10
148.6802079091326
 20
164.4446054363473
 30
0.0
 11
148.6802079091326
 21
180.7283462501397
 31
0.0
  0
LINE
  5
17D
330
70
100
AcDbEntity
  8
Predeterminado
 62
    18
420
        0
370
     9
100
AcDbLine
 10
148.6802079091326
 20
181.2134836059911
 30
0.0
 11
148.6802079091326
 21
181.0447401778689
 31
0.0
  0
LINE
  5
17E
330
70
100
AcDbEntity
  8
Predeterminado
 62
    18
420
        0
370
     9
100
AcDbLine
 10
148.46927862398
 20
164.2336761511944
 30
0.0
 11
136.2353800851204
 21
164.2336761511944
 31
0.0
  0
SPLINE
  5
17F
330
70
100
AcDbEntity
  8
Predeterminado
 62
    18
420
        0
370
     9
100
AcDbSpline
210
0.0
220
0.0
230
1.0
 70
     8
 71
     3
 72
     8
 73
     4
 74
     0
 42
0.0000000001
 43
0.0000000001
 40
0.0
 40
0.0
 40
0.0
 40
0.0
 40
1.0
 40
1.0
 40
1.0
 40
1.0
 10
136.0244507999678
 20
164.4446054363473
 30
0.0
 10
136.0244507999678
 20
164.3281124088646
 30
0.0
 10
136.1188870576376
 20
164.2336761511944
 30
0.0
 10
136.2353800851204
 20
164.2336761511944
 30
0.0
  0
SPLINE
  5
180
330
70
100
AcDbEntity
  8
Predeterminado
 62
    18
420
        0
370
     9
100
AcDbSpline
210
0.0
220
0.0
230
1.0
 70
     8
 71
     3
 72
     8
 73
     4
 74
     0
 42
0.0000000001
 43
0.0000000001
 40
0.0
 40
0.0
 40
0.0
 40
0.0
 40
1.0
 40
1.0
 40
1.0
 40
1.0
 10
148.46927862398
 20
164.2336761511944
 30
0.0
 10
148.5857716514627
 20
164.2336761511944
 30
0.0
 10
148.6802079091326
 20
164.3281124088646
 30
0.0
 10
148.6802079091326
 20
164.4446054363473
 30
0.0
  0
INSERT
  5
182
330
70
100
AcDbEntity
  8
Predeterminado
100
AcDbBlockReference
  2
Block_0
 10
0.0
 20
0.0
 30
0.0
  0
INSERT
  5
18E
330
70
100
AcDbEntity
  8
Predeterminado
100
AcDbBlockReference
  2
Block_1
 10
0.0
 20
0.0
 30
0.0
  0
INSERT
  5
19A
330
70
100
AcDbEntity
  8
Predeterminado
100
AcDbBlockReference
  2
Block_2
 10
0.0
 20
0.0
 30
0.0
  0
ENDSEC
  0
SECTION
  2
OBJECTS
  0
DICTIONARY
  5
C
330
0
100
AcDbDictionary
281
     1
  3
ACAD_COLOR
350
63
  3
ACAD_DETAILVIEWSTYLE
350
6A
  3
ACAD_GROUP
350
D
  3
ACAD_LAYOUT
350
62
  3
ACAD_MATERIAL
350
10
  3
ACAD_MLEADERSTYLE
350
66
  3
ACAD_MLINESTYLE
350
5F
  3
ACAD_PLOTSETTINGS
350
61
  3
ACAD_PLOTSTYLENAME
350
E
  3
ACAD_SCALELIST
350
42
  3
ACAD_SECTIONVIEWSTYLE
350
68
  3
ACAD_TABLESTYLE
350
64
  3
ACAD_VISUALSTYLE
350
29
  3
ACDB_RECOMPOSE_DATA
350
1AE
  3
AcDbVariableDictionary
350
1A5
  0
DICTIONARY
  5
63
102
{ACAD_REACTORS
330
C
102
}
330
C
100
AcDbDictionary
281
     1
  0
DICTIONARY
  5
6A
102
{ACAD_REACTORS
330
C
102
}
330
C
100
AcDbDictionary
281
     1
  3
Imperial24
350
6B
  0
DICTIONARY
  5
D
102
{ACAD_REACTORS
330
C
102
}
330
C
100
AcDbDictionary
281
     1
  0
DICTIONARY
  5
62
102
{ACAD_REACTORS
330
C
102
}
330
C
100
AcDbDictionary
281
     1
  3
Layout1
350
6F
  3
Layout2
350
77
  3
Model
350
73
  0
DICTIONARY
  5
10
102
{ACAD_REACTORS
330
C
102
}
330
C
100
AcDbDictionary
281
     1
  3
ByBlock
350
19
  3
ByLayer
350
11
  3
Global
350
21
  0
DICTIONARY
  5
66
102
{ACAD_REACTORS
330
C
102
}
330
C
100
AcDbDictionary
281
     1
  3
Standard
350
67
  0
DICTIONARY
  5
5F
102
{ACAD_REACTORS
330
C
102
}
330
C
100
AcDbDictionary
281
     1
  3
Standard
350
60
  0
DICTIONARY
  5
61
102
{ACAD_REACTORS
330
C
102
}
330
C
100
AcDbDictionary
281
     1
  0
ACDBDICTIONARYWDFLT
  5
E
102
{ACAD_REACTORS
330
C
102
}
330
C
100
AcDbDictionary
281
     1
  3
Normal
350
F
100
AcDbDictionaryWithDefault
340
F
  0
DICTIONARY
  5
42
102
{ACAD_REACTORS
330
C
102
}
330
C
100
AcDbDictionary
281
     1
  3
A0
350
43
  3
A1
350
44
  3
A2
350
45
  3
A3
350
46
  3
A4
350
47
  3
A5
350
48
  3
A6
350
49
  3
A7
350
4A
  3
A8
350
4B
  3
A9
350
4C
  3
B0
350
4D
  3
B1
350
4E
  3
B2
350
4F
  3
B3
350
50
  3
B4
350
51
  3
B5
350
52
  3
B6
350
53
  0
DICTIONARY
  5
68
102
{ACAD_REACTORS
330
C
102
}
330
C
100
AcDbDictionary
281
     1
  3
Imperial24
350
69
  0
DICTIONARY
  5
64
102
{ACAD_REACTORS
330
C
102
}
330
C
100
AcDbDictionary
281
     1
  3
Standard
350
65
  0
DICTIONARY
  5
29
102
{ACAD_REACTORS
330
C
102
}
330
C
100
AcDbDictionary
281
     1
  3
2dWireframe
350
2F
  3
Basic
350
2E
  3
Brighten
350
35
  3
ColorChange
350
39
  3
Conceptual
350
32
  3
Dim
350
34
  3
EdgeColorOff
350
41
  3
Facepattern
350
38
  3
Flat
350
2A
  3
FlatWithEdges
350
2B
  3
Gouraud
350
2C
  3
GouraudWithEdges
350
2D
  3
Hidden
350
31
  3
JitterOff
350
3F
  3
Linepattern
350
37
  3
OverhangOff
350
40
  3
Realistic
350
33
  3
Shaded
350
3E
  3
Shaded with edges
350
3D
  3
Shades of Gray
350
3A
  3
Sketchy
350
3B
  3
Thicken
350
36
  3
Wireframe
350
30
  3
X-Ray
350
3C
  0
XRECORD
  5
1AE
102
{ACAD_REACTORS
330
C
102
}
330
C
100
AcDbXrecord
280
     1
 90
        1
330
65
  0
DICTIONARY
  5
1A5
102
{ACAD_REACTORS
330
C
102
}
330
C
100
AcDbDictionary
281
     1
  3
CANNOSCALE
350
1AA
  3
CMLEADERSTYLE
350
1A7
  3
CTABLESTYLE
350
1A6
  3
CVIEWDETAILSTYLE
350
1A8
  3
CVIEWSECTIONSTYLE
350
1A9
  0
ACDBDETAILVIEWSTYLE
  5
6B
102
{ACAD_XDICTIONARY
360
1E3
102
}
102
{ACAD_REACTORS
330
6A
102
}
330
6A
100
AcDbModelDocViewStyle
 70
     0
  3
Imperial24
290
     0
100
AcDbDetailViewStyle
 70
     0
 71
     0
 90
        3
 71
     1
340
55
 62
   256
 40
0.24
340
0
 62
   256
 40
0.24
300

 40
0.36
280
     3
 71
     2
340
5D
 90
       25
 62
   256
 71
     3
340
55
 62
   256
 40
0.24
 90
        1
 40
0.75
 90
        1
300
%<\AcVar ViewType \f "%tc1">% %<\AcVar ViewDetailId>%\PSCALE %<\AcVar ViewScale \f "%sn">%
 71
     4
340
5D
 90
       25
 62
   256
340
5D
 90
       25
 62
   256
280
     0
  0
LAYOUT
  5
6F
102
{ACAD_REACTORS
330
62
102
}
330
62
100
AcDbPlotSettings
  1

  2

  4

  6

 40
0.0
 41
0.0
 42
0.0
 43
0.0
 44
0.0
 45
0.0
 46
0.0
 47
0.0
 48
0.0
 49
0.0
140
0.0
141
0.0
142
1.0
143
1.0
 70
   688
 72
     0
 73
     0
 74
     5
  7

 75
    16
147
1.0
 76
     0
 77
     2
 78
   300
148
0.0
149
0.0
100
AcDbLayout
  1
Layout1
 70
     1
 71
     1
 10
0.0
 20
0.0
 11
12.0
 21
9.0
 12
0.0
 22
0.0
 32
0.0
 14
0.0
 24
0.0
 34
0.0
 15
0.0
 25
0.0
 35
0.0
146
0.0
 13
0.0
 23
0.0
 33
0.0
 16
1.0
 26
0.0
 36
0.0
 17
0.0
 27
1.0
 37
0.0
 76
     0
330
6C
  0
LAYOUT
  5
77
102
{ACAD_REACTORS
330
62
102
}
330
62
100
AcDbPlotSettings
  1

  2

  4

  6

 40
0.0
 41
0.0
 42
0.0
 43
0.0
 44
0.0
 45
0.0
 46
0.0
 47
0.0
 48
0.0
 49
0.0
140
0.0
141
0.0
142
1.0
143
1.0
 70
   688
 72
     0
 73
     0
 74
     5
  7

 75
    16
147
1.0
 76
     0
 77
     2
 78
   300
148
0.0
149
0.0
100
AcDbLayout
  1
Layout2
 70
     1
 71
     2
 10
0.0
 20
0.0
 11
12.0
 21
9.0
 12
0.0
 22
0.0
 32
0.0
 14
0.0
 24
0.0
 34
0.0
 15
0.0
 25
0.0
 35
0.0
146
0.0
 13
0.0
 23
0.0
 33
0.0
 16
1.0
 26
0.0
 36
0.0
 17
0.0
 27
1.0
 37
0.0
 76
     0
330
74
  0
LAYOUT
  5
73
102
{ACAD_REACTORS
330
62
102
}
330
62
100
AcDbPlotSettings
  1

  2

  4

  6

 40
0.0
 41
0.0
 42
0.0
 43
0.0
 44
0.0
 45
0.0
 46
0.0
 47
0.0
 48
0.0
 49
0.0
140
0.0
141
0.0
142
1.0
143
1.0
 70
  1712
 72
     0
 73
     0
 74
     0
  7

 75
     0
147
1.0
 76
     0
 77
     2
 78
   300
148
0.0
149
0.0
100
AcDbLayout
  1
Model
 70
     1
 71
     0
 10
0.0
 20
0.0
 11
12.0
 21
9.0
 12
0.0
 22
0.0
 32
0.0
 14
0.0
 24
0.0
 34
0.0
 15
0.0
 25
0.0
 35
0.0
146
0.0
 13
0.0
 23
0.0
 33
0.0
 16
1.0
 26
0.0
 36
0.0
 17
0.0
 27
1.0
 37
0.0
 76
     0
330
70
  0
MATERIAL
  5
19
102
{ACAD_XDICTIONARY
360
1A
102
}
102
{ACAD_REACTORS
330
10
102
}
330
10
100
AcDbMaterial
  1
ByBlock
 72
     0
 43
0.0208333333333333
 43
0.0
 43
0.0
 43
0.0
 43
0.0
 43
0.0208333333333333
 43
0.0
 43
0.0
 43
0.0
 43
0.0
 43
1.0
 43
0.0
 43
0.0
 43
0.0
 43
0.0
 43
1.0
 77
     0
 47
0.0208333333333333
 47
0.0
 47
0.0
 47
0.0
 47
0.0
 47
0.0208333333333333
 47
0.0
 47
0.0
 47
0.0
 47
0.0
 47
1.0
 47
0.0
 47
0.0
 47
0.0
 47
0.0
 47
1.0
171
     0
 49
0.0208333333333333
 49
0.0
 49
0.0
 49
0.0
 49
0.0
 49
0.0208333333333333
 49
0.0
 49
0.0
 49
0.0
 49
0.0
 49
1.0
 49
0.0
 49
0.0
 49
0.0
 49
0.0
 49
1.0
175
     0
142
0.0208333333333333
142
0.0
142
0.0
142
0.0
142
0.0
142
0.0208333333333333
142
0.0
142
0.0
142
0.0
142
0.0
142
1.0
142
0.0
142
0.0
142
0.0
142
0.0
142
1.0
179
     0
144
0.0208333333333333
144
0.0
144
0.0
144
0.0
144
0.0
144
0.0208333333333333
144
0.0
144
0.0
144
0.0
144
0.0
144
1.0
144
0.0
144
0.0
144
0.0
144
0.0
144
1.0
147
0.0208333333333333
147
0.0
147
0.0
147
0.0
147
0.0
147
0.0208333333333333
147
0.0
147
0.0
147
0.0
147
0.0
147
1.0
147
0.0
147
0.0
147
0.0
147
0.0
147
1.0
  0
MATERIAL
  5
11
102
{ACAD_XDICTIONARY
360
12
102
}
102
{ACAD_REACTORS
330
10
102
}
330
10
100
AcDbMaterial
  1
ByLayer
 72
     0
 43
0.0208333333333333
 43
0.0
 43
0.0
 43
0.0
 43
0.0
 43
0.0208333333333333
 43
0.0
 43
0.0
 43
0.0
 43
0.0
 43
1.0
 43
0.0
 43
0.0
 43
0.0
 43
0.0
 43
1.0
 77
     0
 47
0.0208333333333333
 47
0.0
 47
0.0
 47
0.0
 47
0.0
 47
0.0208333333333333
 47
0.0
 47
0.0
 47
0.0
 47
0.0
 47
1.0
 47
0.0
 47
0.0
 47
0.0
 47
0.0
 47
1.0
171
     0
 49
0.0208333333333333
 49
0.0
 49
0.0
 49
0.0
 49
0.0
 49
0.0208333333333333
 49
0.0
 49
0.0
 49
0.0
 49
0.0
 49
1.0
 49
0.0
 49
0.0
 49
0.0
 49
0.0
 49
1.0
175
     0
142
0.0208333333333333
142
0.0
142
0.0
142
0.0
142
0.0
142
0.0208333333333333
142
0.0
142
0.0
142
0.0
142
0.0
142
1.0
142
0.0
142
0.0
142
0.0
142
0.0
142
1.0
179
     0
144
0.0208333333333333
144
0.0
144
0.0
144
0.0
144
0.0
144
0.0208333333333333
144
0.0
144
0.0
144
0.0
144
0.0
144
1.0
144
0.0
144
0.0
144
0.0
144
0.0
144
1.0
147
0.0208333333333333
147
0.0
147
0.0
147
0.0
147
0.0
147
0.0208333333333333
147
0.0
147
0.0
147
0.0
147
0.0
147
1.0
147
0.0
147
0.0
147
0.0
147
0.0
147
1.0
  0
MATERIAL
  5
21
102
{ACAD_XDICTIONARY
360
22
102
}
102
{ACAD_REACTORS
330
10
102
}
330
10
100
AcDbMaterial
  1
Global
 72
     0
 43
0.0208333333333333
 43
0.0
 43
0.0
 43
0.0
 43
0.0
 43
0.0208333333333333
 43
0.0
 43
0.0
 43
0.0
 43
0.0
 43
1.0
 43
0.0
 43
0.0
 43
0.0
 43
0.0
 43
1.0
 77
     0
 47
0.0208333333333333
 47
0.0
 47
0.0
 47
0.0
 47
0.0
 47
0.0208333333333333
 47
0.0
 47
0.0
 47
0.0
 47
0.0
 47
1.0
 47
0.0
 47
0.0
 47
0.0
 47
0.0
 47
1.0
171
     0
 49
0.0208333333333333
 49
0.0
 49
0.0
 49
0.0
 49
0.0
 49
0.0208333333333333
 49
0.0
 49
0.0
 49
0.0
 49
0.0
 49
1.0
 49
0.0
 49
0.0
 49
0.0
 49
0.0
 49
1.0
175
     0
142
0.0208333333333333
142
0.0
142
0.0
142
0.0
142
0.0
142
0.0208333333333333
142
0.0
142
0.0
142
0.0
142
0.0
142
1.0
142
0.0
142
0.0
142
0.0
142
0.0
142
1.0
179
     0
144
0.0208333333333333
144
0.0
144
0.0
144
0.0
144
0.0
144
0.0208333333333333
144
0.0
144
0.0
144
0.0
144
0.0
144
1.0
144
0.0
144
0.0
144
0.0
144
0.0
144
1.0
147
0.0208333333333333
147
0.0
147
0.0
147
0.0
147
0.0
147
0.0208333333333333
147
0.0
147
0.0
147
0.0
147
0.0
147
1.0
147
0.0
147
0.0
147
0.0
147
0.0
147
1.0
  0
MLEADERSTYLE
  5
67
102
{ACAD_XDICTIONARY
360
1DF
102
}
102
{ACAD_REACTORS
330
66
102
}
330
66
100
AcDbMLeaderStyle
179
     2
170
     2
171
     1
172
     0
 90
        2
 40
0.0
 41
0.0
173
     1
 91
-1056964608
340
5B
 92
       -2
290
     1
 42
0.09
291
     1
 43
0.36
  3
Standard
 44
0.18
300

342
55
174
     1
178
     6
175
     1
176
     0
 93
-1056964608
 45
0.18
292
     0
297
     0
 46
0.18
 94
-1056964608
 47
1.0
 49
1.0
140
1.0
293
     1
141
0.0
294
     1
177
     0
142
1.0
295
     0
296
     0
143
0.125
271
     0
272
     9
273
     9
  0
MLINESTYLE
  5
60
102
{ACAD_REACTORS
330
5F
102
}
330
5F
100
AcDbMlineStyle
  2
STANDARD
 70
     0
  3

 62
   256
 51
90.0
 52
90.0
 71
     2
 49
0.5
 62
   256
  6
BYLAYER
 49
-0.5
 62
   256
  6
BYLAYER
  0
ACDBPLACEHOLDER
  5
F
102
{ACAD_REACTORS
330
E
102
}
330
E
  0
SCALE
  5
43
102
{ACAD_REACTORS
330
42
102
}
330
42
100
AcDbScale
 70
     0
300
1:1
140
1.0
141
1.0
290
     1
  0
SCALE
  5
44
102
{ACAD_REACTORS
330
42
102
}
330
42
100
AcDbScale
 70
     0
300
1/128" = 1'-0"
140
0.0078125
141
12.0
290
     0
  0
SCALE
  5
45
102
{ACAD_REACTORS
330
42
102
}
330
42
100
AcDbScale
 70
     0
300
1/64" = 1'-0"
140
0.015625
141
12.0
290
     0
  0
SCALE
  5
46
102
{ACAD_REACTORS
330
42
102
}
330
42
100
AcDbScale
 70
     0
300
1/32" = 1'-0"
140
0.03125
141
12.0
290
     0
  0
SCALE
  5
47
102
{ACAD_REACTORS
330
42
102
}
330
42
100
AcDbScale
 70
     0
300
1/16" = 1'-0"
140
0.0625
141
12.0
290
     0
  0
SCALE
  5
48
102
{ACAD_REACTORS
330
42
102
}
330
42
100
AcDbScale
 70
     0
300
3/32" = 1'-0"
140
0.09375
141
12.0
290
     0
  0
SCALE
  5
49
102
{ACAD_REACTORS
330
42
102
}
330
42
100
AcDbScale
 70
     0
300
1/8" = 1'-0"
140
0.125
141
12.0
290
     0
  0
SCALE
  5
4A
102
{ACAD_REACTORS
330
42
102
}
330
42
100
AcDbScale
 70
     0
300
3/16" = 1'-0"
140
0.1875
141
12.0
290
     0
  0
SCALE
  5
4B
102
{ACAD_REACTORS
330
42
102
}
330
42
100
AcDbScale
 70
     0
300
1/4" = 1'-0"
140
0.25
141
12.0
290
     0
  0
SCALE
  5
4C
102
{ACAD_REACTORS
330
42
102
}
330
42
100
AcDbScale
 70
     0
300
3/8" = 1'-0"
140
0.375
141
12.0
290
     0
  0
SCALE
  5
4D
102
{ACAD_REACTORS
330
42
102
}
330
42
100
AcDbScale
 70
     0
300
1/2" = 1'-0"
140
0.5
141
12.0
290
     0
  0
SCALE
  5
4E
102
{ACAD_REACTORS
330
42
102
}
330
42
100
AcDbScale
 70
     0
300
3/4" = 1'-0"
140
0.75
141
12.0
290
     0
  0
SCALE
  5
4F
102
{ACAD_REACTORS
330
42
102
}
330
42
100
AcDbScale
 70
     0
300
1" = 1'-0"
140
1.0
141
12.0
290
     0
  0
SCALE
  5
50
102
{ACAD_REACTORS
330
42
102
}
330
42
100
AcDbScale
 70
     0
300
1-1/2" = 1'-0"
140
1.5
141
12.0
290
     0
  0
SCALE
  5
51
102
{ACAD_REACTORS
330
42
102
}
330
42
100
AcDbScale
 70
     0
300
3" = 1'-0"
140
3.0
141
12.0
290
     0
  0
SCALE
  5
52
102
{ACAD_REACTORS
330
42
102
}
330
42
100
AcDbScale
 70
     0
300
6" = 1'-0"
140
6.0
141
12.0
290
     0
  0
SCALE
  5
53
102
{ACAD_REACTORS
330
42
102
}
330
42
100
AcDbScale
 70
     0
300
1'-0" = 1'-0"
140
12.0
141
12.0
290
     0
  0
ACDBSECTIONVIEWSTYLE
  5
69
102
{ACAD_XDICTIONARY
360
1E1
102
}
102
{ACAD_REACTORS
330
68
102
}
330
68
100
AcDbModelDocViewStyle
 70
     0
  3
Imperial24
290
     0
100
AcDbSectionViewStyle
 70
     0
 71
     0
 90
       78
 71
     1
340
55
 62
   256
 40
0.24
340
0
340
0
 62
   256
 40
0.24
300
I, O, Q, S, X, Z
 40
0.48
 90
        3
 40
0.18
 90
        1
 71
     2
340
5D
 90
       25
 62
   256
340
5D
 90
       50
 62
   256
 40
0.24
 40
0.0
 40
0.24
 71
     3
340
55
 62
   256
 40
0.24
 90
        1
 40
0.75
 90
        1
300
%<\AcVar ViewType \f "%tc1">% %<\AcVar ViewSectionStartId>%-%<\AcVar ViewSectionEndId>%\PSCALE %<\AcVar ViewScale \f "%sn">%
 71
     4
 62
   256
 62
   257
300
ANSI31
 40
1.0
 90
        0
290
     0
290
     0
 90
        6
 40
0.0
 40
1.570796326794896
 40
0.2617993877991494
 40
1.308996938995747
 40
-0.2617993877991494
 40
1.832595714594046
  0
TABLESTYLE
  5
65
102
{ACAD_XDICTIONARY
360
1AB
102
}
102
{ACAD_REACTORS
330
64
102
}
330
64
100
AcDbTableStyle
280
     0
  3
Standard
 70
     0
 71
     0
 40
0.06
 41
0.06
280
     0
281
     0
  7
Standard
140
0.18
170
     2
 62
     0
 63
     7
283
     0
 90
      512
 91
        0
  1

274
    -2
284
     1
 64
     0
275
    -2
285
     1
 65
     0
276
    -2
286
     1
 66
     0
277
    -2
287
     1
 67
     0
278
    -2
288
     1
 68
     0
279
    -2
289
     1
 69
     0
  7
Standard
140
0.25
170
     5
 62
     0
 63
     7
283
     0
 90
      512
 91
        0
  1

274
    -2
284
     1
 64
     0
275
    -2
285
     1
 65
     0
276
    -2
286
     1
 66
     0
277
    -2
287
     1
 67
     0
278
    -2
288
     1
 68
     0
279
    -2
289
     1
 69
     0
  7
Standard
140
0.18
170
     5
 62
     0
 63
     7
283
     0
 90
      512
 91
        0
  1

274
    -2
284
     1
 64
     0
275
    -2
285
     1
 65
     0
276
    -2
286
     1
 66
     0
277
    -2
287
     1
 67
     0
278
    -2
288
     1
 68
     0
279
    -2
289
     1
 69
     0
  0
VISUALSTYLE
  5
2F
102
{ACAD_XDICTIONARY
360
1B9
102
}
102
{ACAD_REACTORS
330
29
102
}
330
29
100
AcDbVisualStyle
  2
2dWireframe
 70
     4
177
     2
291
     0
 71
     0
176
     1
 72
     2
176
     1
 73
     0
176
     1
 90
        0
176
     1
 40
0.6
176
     1
 41
30.0
176
     1
 63
     7
421
 16777215
176
     1
 74
     1
176
     1
 91
        4
176
     1
 64
     7
176
     1
 65
   257
176
     1
 75
     1
176
     1
175
     1
176
     1
 42
1.0
176
     1
 92
        0
176
     1
 66
   257
176
     1
 43
1.0
176
     1
 76
     1
176
     1
 77
     6
176
     1
 78
     2
176
     1
 67
     7
176
     1
 79
     5
176
     1
170
     0
176
     1
171
     0
176
     1
290
     0
176
     1
 93
        1
176
     1
 44
0.0
176
     1
173
     0
176
     1
1001
ACAD
1000
AcDbSavedByObjectVersion
1070
     0
  0
VISUALSTYLE
  5
2E
102
{ACAD_XDICTIONARY
360
1B7
102
}
102
{ACAD_REACTORS
330
29
102
}
330
29
100
AcDbVisualStyle
  2
Basic
 70
     7
177
     2
291
     1
 71
     1
176
     1
 72
     0
176
     1
 73
     1
176
     1
 90
        0
176
     1
 40
0.6
176
     1
 41
30.0
176
     1
 63
     7
421
 16777215
176
     1
 74
     0
176
     1
 91
        4
176
     1
 64
     7
176
     1
 65
   257
176
     1
 75
     1
176
     1
175
     1
176
     1
 42
1.0
176
     1
 92
        8
176
     1
 66
     7
176
     1
 43
1.0
176
     1
 76
     1
176
     1
 77
     6
176
     1
 78
     2
176
     1
 67
     7
176
     1
 79
     5
176
     1
170
     0
176
     1
171
     0
176
     1
290
     0
176
     1
 93
        1
176
     1
 44
0.0
176
     1
173
     0
176
     1
1001
ACAD
1000
AcDbSavedByObjectVersion
1070
     0
  0
VISUALSTYLE
  5
35
102
{ACAD_XDICTIONARY
360
1C5
102
}
102
{ACAD_REACTORS
330
29
102
}
330
29
100
AcDbVisualStyle
  2
Brighten
 70
    12
177
     2
291
     1
 71
     2
176
     1
 72
     2
176
     1
 73
     0
176
     1
 90
        0
176
     1
 40
0.6
176
     1
 41
30.0
176
     1
 63
     7
421
 16777215
176
     1
 74
     1
176
     1
 91
        4
176
     1
 64
     7
176
     1
 65
   257
176
     1
 75
     1
176
     1
175
     1
176
     1
 42
1.0
176
     1
 92
        8
176
     1
 66
     7
176
     1
 43
1.0
176
     1
 76
     1
176
     1
 77
     6
176
     1
 78
     2
176
     1
 67
     7
176
     1
 79
     5
176
     1
170
     0
176
     1
171
     0
176
     1
290
     0
176
     1
 93
        1
176
     1
 44
50.0
176
     1
173
     0
176
     1
1001
ACAD
1000
AcDbSavedByObjectVersion
1070
     0
  0
VISUALSTYLE
  5
39
102
{ACAD_XDICTIONARY
360
1CD
102
}
102
{ACAD_REACTORS
330
29
102
}
330
29
100
AcDbVisualStyle
  2
ColorChange
 70
    16
177
     2
291
     1
 71
     2
176
     1
 72
     2
176
     1
 73
     3
176
     1
 90
        0
176
     1
 40
0.6
176
     1
 41
30.0
176
     1
 63
     8
421
  8421504
176
     1
 74
     1
176
     1
 91
        4
176
     1
 64
     7
176
     1
 65
   257
176
     1
 75
     1
176
     1
175
     1
176
     1
 42
1.0
176
     1
 92
        8
176
     1
 66
     8
424
  8421504
176
     1
 43
1.0
176
     1
 76
     1
176
     1
 77
     6
176
     1
 78
     2
176
     1
 67
     7
176
     1
 79
     5
176
     1
170
     0
176
     1
171
     0
176
     1
290
     0
176
     1
 93
        1
176
     1
 44
0.0
176
     1
173
     0
176
     1
1001
ACAD
1000
AcDbSavedByObjectVersion
1070
     0
  0
VISUALSTYLE
  5
32
102
{ACAD_XDICTIONARY
360
1BF
102
}
102
{ACAD_REACTORS
330
29
102
}
330
29
100
AcDbVisualStyle
  2
Conceptual
 70
     9
177
     2
291
     0
 71
     3
176
     1
 72
     2
176
     1
 73
     0
176
     1
 90
        0
176
     1
 40
0.6
176
     1
 41
30.0
176
     1
 63
     7
421
 16777215
176
     1
 74
     2
176
     1
 91
        2
176
     1
 64
     7
176
     1
 65
   257
176
     1
 75
     1
176
     1
175
     1
176
     1
 42
179.0
176
     1
 92
        8
176
     1
 66
     7
176
     1
 43
1.0
176
     1
 76
     1
176
     1
 77
     6
176
     1
 78
     2
176
     1
 67
     7
176
     1
 79
     3
176
     1
170
     0
176
     1
171
     0
176
     1
290
     0
176
     1
 93
        1
176
     1
 44
0.0
176
     1
173
     0
176
     1
1001
ACAD
1000
AcDbSavedByObjectVersion
1070
     0
  0
VISUALSTYLE
  5
34
102
{ACAD_XDICTIONARY
360
1C3
102
}
102
{ACAD_REACTORS
330
29
102
}
330
29
100
AcDbVisualStyle
  2
Dim
 70
    11
177
     2
291
     1
 71
     2
176
     1
 72
     2
176
     1
 73
     0
176
     1
 90
        0
176
     1
 40
0.6
176
     1
 41
30.0
176
     1
 63
     7
421
 16777215
176
     1
 74
     1
176
     1
 91
        4
176
     1
 64
     7
176
     1
 65
   257
176
     1
 75
     1
176
     1
175
     1
176
     1
 42
1.0
176
     1
 92
        8
176
     1
 66
     7
176
     1
 43
1.0
176
     1
 76
     1
176
     1
 77
     6
176
     1
 78
     2
176
     1
 67
     7
176
     1
 79
     5
176
     1
170
     0
176
     1
171
     0
176
     1
290
     0
176
     1
 93
        1
176
     1
 44
-50.0
176
     1
173
     0
176
     1
1001
ACAD
1000
AcDbSavedByObjectVersion
1070
     0
  0
VISUALSTYLE
  5
41
102
{ACAD_XDICTIONARY
360
1DD
102
}
102
{ACAD_REACTORS
330
29
102
}
330
29
100
AcDbVisualStyle
  2
EdgeColorOff
 70
    22
177
     2
291
     1
 71
     2
176
     0
 72
     2
176
     0
 73
     0
176
     0
 90
        0
176
     0
 40
0.6
176
     0
 41
30.0
176
     0
 63
     7
421
 16777215
176
     0
 74
     1
176
     0
 91
        4
176
     0
 64
     7
176
     0
 65
   257
176
     0
 75
     1
176
     0
175
     1
176
     0
 42
1.0
176
     0
 92
        8
176
     2
 66
     7
176
     0
 43
1.0
176
     0
 76
     1
176
     0
 77
     6
176
     0
 78
     2
176
     0
 67
     7
176
     0
 79
     5
176
     0
170
     0
176
     0
171
     0
176
     0
290
     0
176
     0
 93
        1
176
     0
 44
0.0
176
     0
173
     0
176
     0
1001
ACAD
1000
AcDbSavedByObjectVersion
1070
     0
  0
VISUALSTYLE
  5
38
102
{ACAD_XDICTIONARY
360
1CB
102
}
102
{ACAD_REACTORS
330
29
102
}
330
29
100
AcDbVisualStyle
  2
Facepattern
 70
    15
177
     2
291
     1
 71
     2
176
     1
 72
     2
176
     1
 73
     0
176
     1
 90
        0
176
     1
 40
0.6
176
     1
 41
30.0
176
     1
 63
     7
421
 16777215
176
     1
 74
     1
176
     1
 91
        4
176
     1
 64
     7
176
     1
 65
   257
176
     1
 75
     1
176
     1
175
     1
176
     1
 42
1.0
176
     1
 92
        8
176
     1
 66
     7
176
     1
 43
1.0
176
     1
 76
     1
176
     1
 77
     6
176
     1
 78
     2
176
     1
 67
     7
176
     1
 79
     5
176
     1
170
     0
176
     1
171
     0
176
     1
290
     0
176
     1
 93
        1
176
     1
 44
0.0
176
     1
173
     0
176
     1
1001
ACAD
1000
AcDbSavedByObjectVersion
1070
     0
  0
VISUALSTYLE
  5
2A
102
{ACAD_XDICTIONARY
360
1AF
102
}
102
{ACAD_REACTORS
330
29
102
}
330
29
100
AcDbVisualStyle
  2
Flat
 70
     0
177
     2
291
     1
 71
     2
176
     1
 72
     1
176
     1
 73
     1
176
     1
 90
        2
176
     1
 40
0.6
176
     1
 41
30.0
176
     1
 63
     7
421
 16777215
176
     1
 74
     0
176
     1
 91
        0
176
     1
 64
     7
176
     1
 65
   257
176
     1
 75
     1
176
     1
175
     1
176
     1
 42
1.0
176
     1
 92
        8
176
     1
 66
     7
176
     1
 43
1.0
176
     1
 76
     1
176
     1
 77
     6
176
     1
 78
     2
176
     1
 67
     7
176
     1
 79
     5
176
     1
170
     0
176
     1
171
     0
176
     1
290
     0
176
     1
 93
       13
176
     1
 44
0.0
176
     1
173
     0
176
     1
1001
ACAD
1000
AcDbSavedByObjectVersion
1070
     0
  0
VISUALSTYLE
  5
2B
102
{ACAD_XDICTIONARY
360
1B1
102
}
102
{ACAD_REACTORS
330
29
102
}
330
29
100
AcDbVisualStyle
  2
FlatWithEdges
 70
     1
177
     2
291
     1
 71
     2
176
     1
 72
     1
176
     1
 73
     1
176
     1
 90
        2
176
     1
 40
0.6
176
     1
 41
30.0
176
     1
 63
     7
421
 16777215
176
     1
 74
     1
176
     1
 91
        0
176
     1
 64
     7
176
     1
 65
   257
176
     1
 75
     1
176
     1
175
     1
176
     1
 42
1.0
176
     1
 92
        0
176
     1
 66
   257
176
     1
 43
1.0
176
     1
 76
     1
176
     1
 77
     6
176
     1
 78
     2
176
     1
 67
     7
176
     1
 79
     5
176
     1
170
     0
176
     1
171
     0
176
     1
290
     0
176
     1
 93
       13
176
     1
 44
0.0
176
     1
173
     0
176
     1
1001
ACAD
1000
AcDbSavedByObjectVersion
1070
     0
  0
VISUALSTYLE
  5
2C
102
{ACAD_XDICTIONARY
360
1B3
102
}
102
{ACAD_REACTORS
330
29
102
}
330
29
100
AcDbVisualStyle
  2
Gouraud
 70
     2
177
     2
291
     1
 71
     2
176
     1
 72
     2
176
     1
 73
     1
176
     1
 90
        2
176
     1
 40
0.6
176
     1
 41
30.0
176
     1
 63
     7
421
 16777215
176
     1
 74
     0
176
     1
 91
        0
176
     1
 64
     7
176
     1
 65
   257
176
     1
 75
     1
176
     1
175
     1
176
     1
 42
1.0
176
     1
 92
        0
176
     1
 66
     7
176
     1
 43
1.0
176
     1
 76
     1
176
     1
 77
     6
176
     1
 78
     2
176
     1
 67
     7
176
     1
 79
     5
176
     1
170
     0
176
     1
171
     0
176
     1
290
     0
176
     1
 93
       13
176
     1
 44
0.0
176
     1
173
     0
176
     1
1001
ACAD
1000
AcDbSavedByObjectVersion
1070
     0
  0
VISUALSTYLE
  5
2D
102
{ACAD_XDICTIONARY
360
1B5
102
}
102
{ACAD_REACTORS
330
29
102
}
330
29
100
AcDbVisualStyle
  2
GouraudWithEdges
 70
     3
177
     2
291
     1
 71
     2
176
     1
 72
     2
176
     1
 73
     1
176
     1
 90
        2
176
     1
 40
0.6
176
     1
 41
30.0
176
     1
 63
     7
421
 16777215
176
     1
 74
     1
176
     1
 91
        0
176
     1
 64
     7
176
     1
 65
   257
176
     1
 75
     1
176
     1
175
     1
176
     1
 42
1.0
176
     1
 92
        0
176
     1
 66
   257
176
     1
 43
1.0
176
     1
 76
     1
176
     1
 77
     6
176
     1
 78
     2
176
     1
 67
     7
176
     1
 79
     5
176
     1
170
     0
176
     1
171
     0
176
     1
290
     0
176
     1
 93
       13
176
     1
 44
0.0
176
     1
173
     0
176
     1
1001
ACAD
1000
AcDbSavedByObjectVersion
1070
     0
  0
VISUALSTYLE
  5
31
102
{ACAD_XDICTIONARY
360
1BD
102
}
102
{ACAD_REACTORS
330
29
102
}
330
29
100
AcDbVisualStyle
  2
Hidden
 70
     6
177
     2
291
     0
 71
     1
176
     1
 72
     2
176
     1
 73
     2
176
     1
 90
        0
176
     1
 40
0.6
176
     1
 41
30.0
176
     1
 63
     7
421
 16777215
176
     1
 74
     2
176
     1
 91
        2
176
     1
 64
     7
176
     1
 65
   257
176
     1
 75
     2
176
     1
175
     1
176
     1
 42
40.0
176
     1
 92
        0
176
     1
 66
   257
176
     1
 43
1.0
176
     1
 76
     1
176
     1
 77
     6
176
     1
 78
     2
176
     1
 67
     7
176
     1
 79
     3
176
     1
170
     0
176
     1
171
     0
176
     1
290
     0
176
     1
 93
        1
176
     1
 44
0.0
176
     1
173
     0
176
     1
1001
ACAD
1000
AcDbSavedByObjectVersion
1070
     0
  0
VISUALSTYLE
  5
3F
102
{ACAD_XDICTIONARY
360
1D9
102
}
102
{ACAD_REACTORS
330
29
102
}
330
29
100
AcDbVisualStyle
  2
JitterOff
 70
    20
177
     2
291
     1
 71
     2
176
     0
 72
     2
176
     0
 73
     0
176
     0
 90
        0
176
     0
 40
0.6
176
     0
 41
30.0
176
     0
 63
     7
421
 16777215
176
     0
 74
     1
176
     0
 91
        4
176
     0
 64
     7
176
     0
 65
   257
176
     0
 75
     1
176
     0
175
     1
176
     0
 42
1.0
176
     0
 92
       10
176
     2
 66
     7
176
     0
 43
1.0
176
     0
 76
     1
176
     0
 77
     6
176
     0
 78
     2
176
     0
 67
     7
176
     0
 79
     5
176
     0
170
     0
176
     0
171
     0
176
     0
290
     0
176
     0
 93
        1
176
     0
 44
0.0
176
     0
173
     0
176
     0
1001
ACAD
1000
AcDbSavedByObjectVersion
1070
     0
  0
VISUALSTYLE
  5
37
102
{ACAD_XDICTIONARY
360
1C9
102
}
102
{ACAD_REACTORS
330
29
102
}
330
29
100
AcDbVisualStyle
  2
Linepattern
 70
    14
177
     2
291
     1
 71
     2
176
     1
 72
     2
176
     1
 73
     0
176
     1
 90
        0
176
     1
 40
0.6
176
     1
 41
30.0
176
     1
 63
     7
421
 16777215
176
     1
 74
     1
176
     1
 91
        4
176
     1
 64
     7
176
     1
 65
   257
176
     1
 75
     7
176
     1
175
     7
176
     1
 42
1.0
176
     1
 92
        8
176
     1
 66
     7
176
     1
 43
1.0
176
     1
 76
     1
176
     1
 77
     6
176
     1
 78
     2
176
     1
 67
     7
176
     1
 79
     5
176
     1
170
     0
176
     1
171
     0
176
     1
290
     0
176
     1
 93
        1
176
     1
 44
0.0
176
     1
173
     0
176
     1
1001
ACAD
1000
AcDbSavedByObjectVersion
1070
     0
  0
VISUALSTYLE
  5
40
102
{ACAD_XDICTIONARY
360
1DB
102
}
102
{ACAD_REACTORS
330
29
102
}
330
29
100
AcDbVisualStyle
  2
OverhangOff
 70
    21
177
     2
291
     1
 71
     2
176
     0
 72
     2
176
     0
 73
     0
176
     0
 90
        0
176
     0
 40
0.6
176
     0
 41
30.0
176
     0
 63
     7
421
 16777215
176
     0
 74
     1
176
     0
 91
        4
176
     0
 64
     7
176
     0
 65
   257
176
     0
 75
     1
176
     0
175
     1
176
     0
 42
1.0
176
     0
 92
        9
176
     2
 66
     7
176
     0
 43
1.0
176
     0
 76
     1
176
     0
 77
     6
176
     0
 78
     2
176
     0
 67
     7
176
     0
 79
     5
176
     0
170
     0
176
     0
171
     0
176
     0
290
     0
176
     0
 93
        1
176
     0
 44
0.0
176
     0
173
     0
176
     0
1001
ACAD
1000
AcDbSavedByObjectVersion
1070
     0
  0
VISUALSTYLE
  5
33
102
{ACAD_XDICTIONARY
360
1C1
102
}
102
{ACAD_REACTORS
330
29
102
}
330
29
100
AcDbVisualStyle
  2
Realistic
 70
     8
177
     2
291
     0
 71
     2
176
     1
 72
     3
176
     1
 73
     0
176
     1
 90
        2
176
     1
 40
0.6
176
     1
 41
30.0
176
     1
 63
     7
421
 16777215
176
     1
 74
     0
176
     1
 91
        0
176
     1
 64
     7
176
     1
 65
   257
176
     1
 75
     1
176
     1
175
     1
176
     1
 42
1.0
176
     1
 92
        8
176
     1
 66
   257
176
     1
 43
1.0
176
     1
 76
     1
176
     1
 77
     6
176
     1
 78
     2
176
     1
 67
     7
176
     1
 79
     3
176
     1
170
     0
176
     1
171
     0
176
     1
290
     0
176
     1
 93
       13
176
     1
 44
0.0
176
     1
173
     0
176
     1
1001
ACAD
1000
AcDbSavedByObjectVersion
1070
     0
  0
VISUALSTYLE
  5
3E
102
{ACAD_XDICTIONARY
360
1D7
102
}
102
{ACAD_REACTORS
330
29
102
}
330
29
100
AcDbVisualStyle
  2
Shaded
 70
    27
177
     2
291
     0
 71
     2
176
     1
 72
     2
176
     1
 73
     1
176
     1
 90
        2
176
     1
 40
0.6
176
     1
 41
30.0
176
     1
 63
     7
421
 16777215
176
     1
 74
     0
176
     1
 91
        4
176
     1
 64
     7
176
     1
 65
   257
176
     1
 75
     1
176
     1
175
     1
176
     1
 42
1.0
176
     1
 92
        8
176
     1
 66
   257
176
     1
 43
1.0
176
     1
 76
     1
176
     1
 77
     6
176
     1
 78
     2
176
     1
 67
     8
425
  7895160
176
     1
 79
     3
176
     1
170
     0
176
     1
171
     0
176
     1
290
     0
176
     1
 93
        5
176
     1
 44
0.0
176
     1
173
     0
176
     1
1001
ACAD
1000
AcDbSavedByObjectVersion
1070
     0
  0
VISUALSTYLE
  5
3D
102
{ACAD_XDICTIONARY
360
1D5
102
}
102
{ACAD_REACTORS
330
29
102
}
330
29
100
AcDbVisualStyle
  2
Shaded with edges
 70
    26
177
     2
291
     0
 71
     2
176
     1
 72
     2
176
     1
 73
     1
176
     1
 90
        2
176
     1
 40
0.6
176
     1
 41
30.0
176
     1
 63
     7
421
 16777215
176
     1
 74
     1
176
     1
 91
        2
176
     1
 64
     7
176
     1
 65
   257
176
     1
 75
     2
176
     1
175
     1
176
     1
 42
1.0
176
     1
 92
        8
176
     1
 66
   257
176
     1
 43
1.0
176
     1
 76
     1
176
     1
 77
     6
176
     1
 78
     2
176
     1
 67
     7
176
     1
 79
     3
176
     1
170
     0
176
     1
171
     0
176
     1
290
     0
176
     1
 93
        5
176
     1
 44
0.0
176
     1
173
     0
176
     1
1001
ACAD
1000
AcDbSavedByObjectVersion
1070
     0
  0
VISUALSTYLE
  5
3A
102
{ACAD_XDICTIONARY
360
1CF
102
}
102
{ACAD_REACTORS
330
29
102
}
330
29
100
AcDbVisualStyle
  2
Shades of Gray
 70
    23
177
     2
291
     0
 71
     2
176
     1
 72
     2
176
     1
 73
     3
176
     1
 90
        0
176
     1
 40
0.6
176
     1
 41
30.0
176
     1
 63
     7
421
 16777215
176
     1
 74
     2
176
     1
 91
        2
176
     1
 64
     7
176
     1
 65
     7
176
     1
 75
     1
176
     1
175
     1
176
     1
 42
40.0
176
     1
 92
        8
176
     1
 66
     7
176
     1
 43
1.0
176
     1
 76
     1
176
     1
 77
     6
176
     1
 78
     2
176
     1
 67
     7
176
     1
 79
     3
176
     1
170
     0
176
     1
171
     0
176
     1
290
     0
176
     1
 93
        1
176
     1
 44
0.0
176
     1
173
     0
176
     1
1001
ACAD
1000
AcDbSavedByObjectVersion
1070
     0
  0
VISUALSTYLE
  5
3B
102
{ACAD_XDICTIONARY
360
1D1
102
}
102
{ACAD_REACTORS
330
29
102
}
330
29
100
AcDbVisualStyle
  2
Sketchy
 70
    24
177
     2
291
     0
 71
     1
176
     1
 72
     2
176
     1
 73
     2
176
     1
 90
        0
176
     1
 40
0.6
176
     1
 41
30.0
176
     1
 63
     7
421
 16777215
176
     1
 74
     2
176
     1
 91
        2
176
     1
 64
     7
176
     1
 65
     7
176
     1
 75
     1
176
     1
175
     1
176
     1
 42
40.0
176
     1
 92
       11
176
     1
 66
     7
176
     1
 43
1.0
176
     1
 76
     1
176
     1
 77
     6
176
     1
 78
     2
176
     1
 67
     7
176
     1
 79
     6
176
     1
170
     0
176
     1
171
     0
176
     1
290
     0
176
     1
 93
        1
176
     1
 44
0.0
176
     1
173
     0
176
     1
1001
ACAD
1000
AcDbSavedByObjectVersion
1070
     0
  0
VISUALSTYLE
  5
36
102
{ACAD_XDICTIONARY
360
1C7
102
}
102
{ACAD_REACTORS
330
29
102
}
330
29
100
AcDbVisualStyle
  2
Thicken
 70
    13
177
     2
291
     1
 71
     2
176
     1
 72
     2
176
     1
 73
     0
176
     1
 90
        0
176
     1
 40
0.6
176
     1
 41
30.0
176
     1
 63
     7
421
 16777215
176
     1
 74
     1
176
     1
 91
        4
176
     1
 64
     7
176
     1
 65
   257
176
     1
 75
     1
176
     1
175
     1
176
     1
 42
1.0
176
     1
 92
       12
176
     1
 66
     7
176
     1
 43
1.0
176
     1
 76
     1
176
     1
 77
     6
176
     1
 78
     2
176
     1
 67
     7
176
     1
 79
     5
176
     1
170
     0
176
     1
171
     0
176
     1
290
     0
176
     1
 93
        1
176
     1
 44
0.0
176
     1
173
     0
176
     1
1001
ACAD
1000
AcDbSavedByObjectVersion
1070
     0
  0
VISUALSTYLE
  5
30
102
{ACAD_XDICTIONARY
360
1BB
102
}
102
{ACAD_REACTORS
330
29
102
}
330
29
100
AcDbVisualStyle
  2
Wireframe
 70
     5
177
     2
291
     0
 71
     0
176
     1
 72
     2
176
     1
 73
     0
176
     1
 90
        0
176
     1
 40
0.6
176
     1
 41
30.0
176
     1
 63
     7
421
 16777215
176
     1
 74
     1
176
     1
 91
        4
176
     1
 64
     7
176
     1
 65
   257
176
     1
 75
     1
176
     1
175
     1
176
     1
 42
1.0
176
     1
 92
        0
176
     1
 66
   257
176
     1
 43
1.0
176
     1
 76
     1
176
     1
 77
     6
176
     1
 78
     2
176
     1
 67
     7
176
     1
 79
     3
176
     1
170
     0
176
     1
171
     0
176
     1
290
     0
176
     1
 93
        1
176
     1
 44
0.0
176
     1
173
     0
176
     1
1001
ACAD
1000
AcDbSavedByObjectVersion
1070
     0
  0
VISUALSTYLE
  5
3C
102
{ACAD_XDICTIONARY
360
1D3
102
}
102
{ACAD_REACTORS
330
29
102
}
330
29
100
AcDbVisualStyle
  2
X-Ray
 70
    25
177
     2
291
     0
 71
     2
176
     1
 72
     2
176
     1
 73
     1
176
     1
 90
        1
176
     1
 40
0.5
176
     1
 41
30.0
176
     1
 63
     7
421
 16777215
176
     1
 74
     1
176
     1
 91
        0
176
     1
 64
     7
176
     1
 65
   257
176
     1
 75
     1
176
     1
175
     1
176
     1
 42
1.0
176
     1
 92
        8
176
     1
 66
     7
176
     1
 43
1.0
176
     1
 76
     1
176
     1
 77
     6
176
     1
 78
     2
176
     1
 67
     7
176
     1
 79
     3
176
     1
170
     0
176
     1
171
     0
176
     1
290
     0
176
     1
 93
       13
176
     1
 44
0.0
176
     1
173
     0
176
     1
1001
ACAD
1000
AcDbSavedByObjectVersion
1070
     0
  0
DICTIONARYVAR
  5
1AA
102
{ACAD_REACTORS
330
1A5
102
}
330
1A5
100
DictionaryVariables
280
     0
  1
1:1
  0
DICTIONARYVAR
  5
1A7
102
{ACAD_REACTORS
330
1A5
102
}
330
1A5
100
DictionaryVariables
280
     0
  1
STANDARD
  0
DICTIONARYVAR
  5
1A6
102
{ACAD_REACTORS
330
1A5
102
}
330
1A5
100
DictionaryVariables
280
     0
  1
STANDARD
  0
DICTIONARYVAR
  5
1A8
102
{ACAD_REACTORS
330
1A5
102
}
330
1A5
100
DictionaryVariables
280
     0
  1
Imperial24
  0
DICTIONARYVAR
  5
1A9
102
{ACAD_REACTORS
330
1A5
102
}
330
1A5
100
DictionaryVariables
280
     0
  1
Imperial24
  0
DICTIONARY
  5
1E3
330
6B
100
AcDbDictionary
280
     1
281
     1
  3
ACAD_XREC_ROUNDTRIP
360
1E4
  0
DICTIONARY
  5
1A
330
19
100
AcDbDictionary
280
     1
281
     1
  3
BUMPTILE
360
1C
  3
DIFFUSETILE
360
1B
  3
OPACITYTILE
360
1F
  3
REFLECTIONTILE
360
1E
  3
REFRACTIONTILE
360
20
  3
SPECULARTILE
360
1D
  0
DICTIONARY
  5
12
330
11
100
AcDbDictionary
280
     1
281
     1
  3
BUMPTILE
360
14
  3
DIFFUSETILE
360
13
  3
OPACITYTILE
360
17
  3
REFLECTIONTILE
360
16
  3
REFRACTIONTILE
360
18
  3
SPECULARTILE
360
15
  0
DICTIONARY
  5
22
330
21
100
AcDbDictionary
280
     1
281
     1
  3
BUMPTILE
360
24
  3
DIFFUSETILE
360
23
  3
OPACITYTILE
360
27
  3
REFLECTIONTILE
360
26
  3
REFRACTIONTILE
360
28
  3
SPECULARTILE
360
25
  0
DICTIONARY
  5
1DF
330
67
100
AcDbDictionary
280
     1
281
     1
  3
ACAD_XREC_ROUNDTRIP
360
1E0
  0
DICTIONARY
  5
1E1
330
69
100
AcDbDictionary
280
     1
281
     1
  3
ACAD_XREC_ROUNDTRIP
360
1E2
  0
DICTIONARY
  5
1AB
330
65
100
AcDbDictionary
280
     1
281
     1
  3
ACAD_ROUNDTRIP_2008_TABLESTYLE_CELLSTYLEMAP
360
1AC
  0
DICTIONARY
  5
1B9
330
2F
100
AcDbDictionary
280
     1
281
     1
  3
ACAD_XREC_ROUNDTRIP
360
1BA
  0
DICTIONARY
  5
1B7
330
2E
100
AcDbDictionary
280
     1
281
     1
  3
ACAD_XREC_ROUNDTRIP
360
1B8
  0
DICTIONARY
  5
1C5
330
35
100
AcDbDictionary
280
     1
281
     1
  3
ACAD_XREC_ROUNDTRIP
360
1C6
  0
DICTIONARY
  5
1CD
330
39
100
AcDbDictionary
280
     1
281
     1
  3
ACAD_XREC_ROUNDTRIP
360
1CE
  0
DICTIONARY
  5
1BF
330
32
100
AcDbDictionary
280
     1
281
     1
  3
ACAD_XREC_ROUNDTRIP
360
1C0
  0
DICTIONARY
  5
1C3
330
34
100
AcDbDictionary
280
     1
281
     1
  3
ACAD_XREC_ROUNDTRIP
360
1C4
  0
DICTIONARY
  5
1DD
330
41
100
AcDbDictionary
280
     1
281
     1
  3
ACAD_XREC_ROUNDTRIP
360
1DE
  0
DICTIONARY
  5
1CB
330
38
100
AcDbDictionary
280
     1
281
     1
  3
ACAD_XREC_ROUNDTRIP
360
1CC
  0
DICTIONARY
  5
1AF
330
2A
100
AcDbDictionary
280
     1
281
     1
  3
ACAD_XREC_ROUNDTRIP
360
1B0
  0
DICTIONARY
  5
1B1
330
2B
100
AcDbDictionary
280
     1
281
     1
  3
ACAD_XREC_ROUNDTRIP
360
1B2
  0
DICTIONARY
  5
1B3
330
2C
100
AcDbDictionary
280
     1
281
     1
  3
ACAD_XREC_ROUNDTRIP
360
1B4
  0
DICTIONARY
  5
1B5
330
2D
100
AcDbDictionary
280
     1
281
     1
  3
ACAD_XREC_ROUNDTRIP
360
1B6
  0
DICTIONARY
  5
1BD
330
31
100
AcDbDictionary
280
     1
281
     1
  3
ACAD_XREC_ROUNDTRIP
360
1BE
  0
DICTIONARY
  5
1D9
330
3F
100
AcDbDictionary
280
     1
281
     1
  3
ACAD_XREC_ROUNDTRIP
360
1DA
  0
DICTIONARY
  5
1C9
330
37
100
AcDbDictionary
280
     1
281
     1
  3
ACAD_XREC_ROUNDTRIP
360
1CA
  0
DICTIONARY
  5
1DB
330
40
100
AcDbDictionary
280
     1
281
     1
  3
ACAD_XREC_ROUNDTRIP
360
1DC
  0
DICTIONARY
  5
1C1
330
33
100
AcDbDictionary
280
     1
281
     1
  3
ACAD_XREC_ROUNDTRIP
360
1C2
  0
DICTIONARY
  5
1D7
330
3E
100
AcDbDictionary
280
     1
281
     1
  3
ACAD_XREC_ROUNDTRIP
360
1D8
  0
DICTIONARY
  5
1D5
330
3D
100
AcDbDictionary
280
     1
281
     1
  3
ACAD_XREC_ROUNDTRIP
360
1D6
  0
DICTIONARY
  5
1CF
330
3A
100
AcDbDictionary
280
     1
281
     1
  3
ACAD_XREC_ROUNDTRIP
360
1D0
  0
DICTIONARY
  5
1D1
330
3B
100
AcDbDictionary
280
     1
281
     1
  3
ACAD_XREC_ROUNDTRIP
360
1D2
  0
DICTIONARY
  5
1C7
330
36
100
AcDbDictionary
280
     1
281
     1
  3
ACAD_XREC_ROUNDTRIP
360
1C8
  0
DICTIONARY
  5
1BB
330
30
100
AcDbDictionary
280
     1
281
     1
  3
ACAD_XREC_ROUNDTRIP
360
1BC
  0
DICTIONARY
  5
1D3
330
3C
100
AcDbDictionary
280
     1
281
     1
  3
ACAD_XREC_ROUNDTRIP
360
1D4
  0
XRECORD
  5
1E4
102
{ACAD_REACTORS
330
1E3
102
}
330
1E3
100
AcDbXrecord
280
     1
102
DISPLAYNAME
  1
Imperial24
102
FLAGS
 90
        0
  0
XRECORD
  5
1C
102
{ACAD_REACTORS
330
1A
102
}
330
1A
100
AcDbXrecord
280
     1
270
     1
271
     1
  0
XRECORD
  5
1B
102
{ACAD_REACTORS
330
1A
102
}
330
1A
100
AcDbXrecord
280
     1
270
     1
271
     1
  0
XRECORD
  5
1F
102
{ACAD_REACTORS
330
1A
102
}
330
1A
100
AcDbXrecord
280
     1
270
     1
271
     1
  0
XRECORD
  5
1E
102
{ACAD_REACTORS
330
1A
102
}
330
1A
100
AcDbXrecord
280
     1
270
     1
271
     1
  0
XRECORD
  5
20
102
{ACAD_REACTORS
330
1A
102
}
330
1A
100
AcDbXrecord
280
     1
270
     1
271
     1
  0
XRECORD
  5
1D
102
{ACAD_REACTORS
330
1A
102
}
330
1A
100
AcDbXrecord
280
     1
270
     1
271
     1
  0
XRECORD
  5
14
102
{ACAD_REACTORS
330
12
102
}
330
12
100
AcDbXrecord
280
     1
270
     1
271
     1
  0
XRECORD
  5
13
102
{ACAD_REACTORS
330
12
102
}
330
12
100
AcDbXrecord
280
     1
270
     1
271
     1
  0
XRECORD
  5
17
102
{ACAD_REACTORS
330
12
102
}
330
12
100
AcDbXrecord
280
     1
270
     1
271
     1
  0
XRECORD
  5
16
102
{ACAD_REACTORS
330
12
102
}
330
12
100
AcDbXrecord
280
     1
270
     1
271
     1
  0
XRECORD
  5
18
102
{ACAD_REACTORS
330
12
102
}
330
12
100
AcDbXrecord
280
     1
270
     1
271
     1
  0
XRECORD
  5
15
102
{ACAD_REACTORS
330
12
102
}
330
12
100
AcDbXrecord
280
     1
270
     1
271
     1
  0
XRECORD
  5
24
102
{ACAD_REACTORS
330
22
102
}
330
22
100
AcDbXrecord
280
     1
270
     1
271
     1
  0
XRECORD
  5
23
102
{ACAD_REACTORS
330
22
102
}
330
22
100
AcDbXrecord
280
     1
270
     1
271
     1
  0
XRECORD
  5
27
102
{ACAD_REACTORS
330
22
102
}
330
22
100
AcDbXrecord
280
     1
270
     1
271
     1
  0
XRECORD
  5
26
102
{ACAD_REACTORS
330
22
102
}
330
22
100
AcDbXrecord
280
     1
270
     1
271
     1
  0
XRECORD
  5
28
102
{ACAD_REACTORS
330
22
102
}
330
22
100
AcDbXrecord
280
     1
270
     1
271
     1
  0
XRECORD
  5
25
102
{ACAD_REACTORS
330
22
102
}
330
22
100
AcDbXrecord
280
     1
270
     1
271
     1
  0
XRECORD
  5
1E0
102
{ACAD_REACTORS
330
1DF
102
}
330
1DF
100
AcDbXrecord
280
     1
102
ACAD_ROUNDTRIP_2012_MLEADER_STYLE
298
     1
  0
XRECORD
  5
1E2
102
{ACAD_REACTORS
330
1E1
102
}
330
1E1
100
AcDbXrecord
280
     1
102
DISPLAYNAME
  1
Imperial24
102
FLAGS
 90
        0
  0
CELLSTYLEMAP
  5
1AC
102
{ACAD_REACTORS
330
1AB
102
}
330
1AB
100
AcDbCellStyleMap
 90
        3
300
CELLSTYLE
  1
TABLEFORMAT_BEGIN
 90
        5
170
     1
 91
        0
 92
    32768
 62
   257
 93
        1
300
CONTENTFORMAT
  1
CONTENTFORMAT_BEGIN
 90
        0
 91
        0
 92
      512
 93
        0
300

 40
0.0
140
1.0
 94
        5
 62
     0
340
55
144
0.25
309
CONTENTFORMAT_END
171
     0
 94
        0
309
TABLEFORMAT_END
  1
CELLSTYLE_BEGIN
 90
        1
 91
        1
300
_TITLE
309
CELLSTYLE_END
300
CELLSTYLE
  1
TABLEFORMAT_BEGIN
 90
        5
170
     1
 91
        0
 92
        0
 62
   257
 93
        1
300
CONTENTFORMAT
  1
CONTENTFORMAT_BEGIN
 90
        0
 91
        0
 92
      512
 93
        0
300

 40
0.0
140
1.0
 94
        5
 62
     0
340
55
144
0.18
309
CONTENTFORMAT_END
171
     0
 94
        0
309
TABLEFORMAT_END
  1
CELLSTYLE_BEGIN
 90
        2
 91
        1
300
_HEADER
309
CELLSTYLE_END
300
CELLSTYLE
  1
TABLEFORMAT_BEGIN
 90
        5
170
     1
 91
        0
 92
        0
 62
   257
 93
        1
300
CONTENTFORMAT
  1
CONTENTFORMAT_BEGIN
 90
        0
 91
        0
 92
      512
 93
        0
300

 40
0.0
140
1.0
 94
        2
 62
     0
340
55
144
0.18
309
CONTENTFORMAT_END
171
     0
 94
        0
309
TABLEFORMAT_END
  1
CELLSTYLE_BEGIN
 90
        3
 91
        2
300
_DATA
309
CELLSTYLE_END
  0
XRECORD
  5
1BA
102
{ACAD_REACTORS
330
1B9
102
}
330
1B9
100
AcDbXrecord
280
     1
102
RTVSPost2010Prop28
280
     1
102
RTVSPost2010PropOp28
 70
     1
102
RTVSPost2010Prop29
280
     1
102
RTVSPost2010PropOp29
 70
     1
102
RTVSPost2010Prop30
280
     0
102
RTVSPost2010PropOp30
 70
     1
102
RTVSPost2010Prop31
280
     0
102
RTVSPost2010PropOp31
 70
     1
102
RTVSPost2010Prop32
280
     0
102
RTVSPost2010PropOp32
 70
     1
102
RTVSPost2010Prop33
280
     0
102
RTVSPost2010PropOp33
 70
     1
102
RTVSPost2010Prop34
280
     0
102
RTVSPost2010PropOp34
 70
     1
102
RTVSPost2010Prop35
280
     0
102
RTVSPost2010PropOp35
 70
     1
102
RTVSPost2010Prop36
280
     0
102
RTVSPost2010PropOp36
 70
     1
102
RTVSPost2010Prop37
 90
       50
102
RTVSPost2010PropOp37
 70
     1
102
RTVSPost2010Prop38
140
0.0
102
RTVSPost2010PropOp38
 70
     1
102
RTVSPost2010Prop39
140
1.0
102
RTVSPost2010PropOp39
 70
     1
102
RTVSPost2010Prop40
 90
        0
102
RTVSPost2010PropOp40
 70
     1
102
RTVSPost2010Prop41ColorIndex
 90
       18
102
RTVSPost2010Prop41ColorRGB
 90
        0
102
RTVSPost2010PropOp41
 70
     1
102
RTVSPost2010Prop42
 90
       50
102
RTVSPost2010PropOp42
 70
     1
102
RTVSPost2010Prop43
 90
        3
102
RTVSPost2010PropOp43
 70
     1
102
RTVSPost2010Prop44ColorIndex
 90
        5
102
RTVSPost2010Prop44ColorRGB
 90
      255
102
RTVSPost2010PropOp44
 70
     1
102
RTVSPost2010Prop45
280
     0
102
RTVSPost2010PropOp45
 70
     1
102
RTVSPost2010Prop46
 90
       50
102
RTVSPost2010PropOp46
 70
     1
102
RTVSPost2010Prop47
 90
       50
102
RTVSPost2010PropOp47
 70
     1
102
RTVSPost2010Prop48
 90
       50
102
RTVSPost2010PropOp48
 70
     1
102
RTVSPost2010Prop49
280
     0
102
RTVSPost2010PropOp49
 70
     1
102
RTVSPost2010Prop50
 90
       50
102
RTVSPost2010PropOp50
 70
     1
102
RTVSPost2010Prop51ColorIndex
 90
      256
102
RTVSPost2010Prop51ColorRGB
 90
-16777216
102
RTVSPost2010PropOp51
 70
     0
102
RTVSPost2010Prop52
140
1.0
102
RTVSPost2010PropOp52
 70
     0
102
RTVSPost2010Prop53
 90
        2
102
RTVSPost2010PropOp53
 70
     1
102
RTVSPost2010Prop54
  1
strokes_ogs.tif
102
RTVSPost2010PropOp54
 70
     1
102
RTVSPost2010Prop55
280
     0
102
RTVSPost2010PropOp55
 70
     1
102
RTVSPost2010Prop56
140
1.0
102
RTVSPost2010PropOp56
 70
     1
102
RTVSPost2010Prop57
140
1.0
102
RTVSPost2010PropOp57
 70
     1
  0
XRECORD
  5
1B8
102
{ACAD_REACTORS
330
1B7
102
}
330
1B7
100
AcDbXrecord
280
     1
102
RTVSPost2010Prop28
280
     0
102
RTVSPost2010PropOp28
 70
     1
102
RTVSPost2010Prop29
280
     1
102
RTVSPost2010PropOp29
 70
     1
102
RTVSPost2010Prop30
280
     1
102
RTVSPost2010PropOp30
 70
     1
102
RTVSPost2010Prop31
280
     0
102
RTVSPost2010PropOp31
 70
     1
102
RTVSPost2010Prop32
280
     0
102
RTVSPost2010PropOp32
 70
     1
102
RTVSPost2010Prop33
280
     0
102
RTVSPost2010PropOp33
 70
     1
102
RTVSPost2010Prop34
280
     0
102
RTVSPost2010PropOp34
 70
     1
102
RTVSPost2010Prop35
280
     0
102
RTVSPost2010PropOp35
 70
     1
102
RTVSPost2010Prop36
280
     0
102
RTVSPost2010PropOp36
 70
     1
102
RTVSPost2010Prop37
 90
       50
102
RTVSPost2010PropOp37
 70
     1
102
RTVSPost2010Prop38
140
0.0
102
RTVSPost2010PropOp38
 70
     1
102
RTVSPost2010Prop39
140
1.0
102
RTVSPost2010PropOp39
 70
     1
102
RTVSPost2010Prop40
 90
        0
102
RTVSPost2010PropOp40
 70
     1
102
RTVSPost2010Prop41ColorIndex
 90
       18
102
RTVSPost2010Prop41ColorRGB
 90
        0
102
RTVSPost2010PropOp41
 70
     1
102
RTVSPost2010Prop42
 90
       50
102
RTVSPost2010PropOp42
 70
     1
102
RTVSPost2010Prop43
 90
        3
102
RTVSPost2010PropOp43
 70
     1
102
RTVSPost2010Prop44ColorIndex
 90
        5
102
RTVSPost2010Prop44ColorRGB
 90
      255
102
RTVSPost2010PropOp44
 70
     1
102
RTVSPost2010Prop45
280
     0
102
RTVSPost2010PropOp45
 70
     1
102
RTVSPost2010Prop46
 90
       50
102
RTVSPost2010PropOp46
 70
     1
102
RTVSPost2010Prop47
 90
       50
102
RTVSPost2010PropOp47
 70
     1
102
RTVSPost2010Prop48
 90
       50
102
RTVSPost2010PropOp48
 70
     1
102
RTVSPost2010Prop49
280
     0
102
RTVSPost2010PropOp49
 70
     1
102
RTVSPost2010Prop50
 90
       50
102
RTVSPost2010PropOp50
 70
     1
102
RTVSPost2010Prop51ColorIndex
 90
      256
102
RTVSPost2010Prop51ColorRGB
 90
-16777216
102
RTVSPost2010PropOp51
 70
     0
102
RTVSPost2010Prop52
140
1.0
102
RTVSPost2010PropOp52
 70
     0
102
RTVSPost2010Prop53
 90
        2
102
RTVSPost2010PropOp53
 70
     1
102
RTVSPost2010Prop54
  1
strokes_ogs.tif
102
RTVSPost2010PropOp54
 70
     1
102
RTVSPost2010Prop55
280
     0
102
RTVSPost2010PropOp55
 70
     1
102
RTVSPost2010Prop56
140
1.0
102
RTVSPost2010PropOp56
 70
     1
102
RTVSPost2010Prop57
140
1.0
102
RTVSPost2010PropOp57
 70
     1
  0
XRECORD
  5
1C6
102
{ACAD_REACTORS
330
1C5
102
}
330
1C5
100
AcDbXrecord
280
     1
102
RTVSPost2010Prop28
280
     0
102
RTVSPost2010PropOp28
 70
     1
102
RTVSPost2010Prop29
280
     1
102
RTVSPost2010PropOp29
 70
     1
102
RTVSPost2010Prop30
280
     1
102
RTVSPost2010PropOp30
 70
     1
102
RTVSPost2010Prop31
280
     0
102
RTVSPost2010PropOp31
 70
     1
102
RTVSPost2010Prop32
280
     0
102
RTVSPost2010PropOp32
 70
     1
102
RTVSPost2010Prop33
280
     0
102
RTVSPost2010PropOp33
 70
     1
102
RTVSPost2010Prop34
280
     0
102
RTVSPost2010PropOp34
 70
     1
102
RTVSPost2010Prop35
280
     0
102
RTVSPost2010PropOp35
 70
     1
102
RTVSPost2010Prop36
280
     0
102
RTVSPost2010PropOp36
 70
     1
102
RTVSPost2010Prop37
 90
       50
102
RTVSPost2010PropOp37
 70
     1
102
RTVSPost2010Prop38
140
0.0
102
RTVSPost2010PropOp38
 70
     1
102
RTVSPost2010Prop39
140
1.0
102
RTVSPost2010PropOp39
 70
     1
102
RTVSPost2010Prop40
 90
        0
102
RTVSPost2010PropOp40
 70
     1
102
RTVSPost2010Prop41ColorIndex
 90
       18
102
RTVSPost2010Prop41ColorRGB
 90
        0
102
RTVSPost2010PropOp41
 70
     1
102
RTVSPost2010Prop42
 90
       50
102
RTVSPost2010PropOp42
 70
     1
102
RTVSPost2010Prop43
 90
        3
102
RTVSPost2010PropOp43
 70
     1
102
RTVSPost2010Prop44ColorIndex
 90
        5
102
RTVSPost2010Prop44ColorRGB
 90
      255
102
RTVSPost2010PropOp44
 70
     1
102
RTVSPost2010Prop45
280
     0
102
RTVSPost2010PropOp45
 70
     1
102
RTVSPost2010Prop46
 90
       50
102
RTVSPost2010PropOp46
 70
     1
102
RTVSPost2010Prop47
 90
       50
102
RTVSPost2010PropOp47
 70
     1
102
RTVSPost2010Prop48
 90
       50
102
RTVSPost2010PropOp48
 70
     1
102
RTVSPost2010Prop49
280
     0
102
RTVSPost2010PropOp49
 70
     1
102
RTVSPost2010Prop50
 90
       50
102
RTVSPost2010PropOp50
 70
     1
102
RTVSPost2010Prop51ColorIndex
 90
      256
102
RTVSPost2010Prop51ColorRGB
 90
-16777216
102
RTVSPost2010PropOp51
 70
     0
102
RTVSPost2010Prop52
140
1.0
102
RTVSPost2010PropOp52
 70
     0
102
RTVSPost2010Prop53
 90
        2
102
RTVSPost2010PropOp53
 70
     1
102
RTVSPost2010Prop54
  1
strokes_ogs.tif
102
RTVSPost2010PropOp54
 70
     1
102
RTVSPost2010Prop55
280
     0
102
RTVSPost2010PropOp55
 70
     1
102
RTVSPost2010Prop56
140
1.0
102
RTVSPost2010PropOp56
 70
     1
102
RTVSPost2010Prop57
140
1.0
102
RTVSPost2010PropOp57
 70
     1
  0
XRECORD
  5
1CE
102
{ACAD_REACTORS
330
1CD
102
}
330
1CD
100
AcDbXrecord
280
     1
102
RTVSPost2010Prop28
280
     0
102
RTVSPost2010PropOp28
 70
     1
102
RTVSPost2010Prop29
280
     1
102
RTVSPost2010PropOp29
 70
     1
102
RTVSPost2010Prop30
280
     1
102
RTVSPost2010PropOp30
 70
     1
102
RTVSPost2010Prop31
280
     0
102
RTVSPost2010PropOp31
 70
     1
102
RTVSPost2010Prop32
280
     0
102
RTVSPost2010PropOp32
 70
     1
102
RTVSPost2010Prop33
280
     0
102
RTVSPost2010PropOp33
 70
     1
102
RTVSPost2010Prop34
280
     0
102
RTVSPost2010PropOp34
 70
     1
102
RTVSPost2010Prop35
280
     0
102
RTVSPost2010PropOp35
 70
     1
102
RTVSPost2010Prop36
280
     0
102
RTVSPost2010PropOp36
 70
     1
102
RTVSPost2010Prop37
 90
       50
102
RTVSPost2010PropOp37
 70
     1
102
RTVSPost2010Prop38
140
0.0
102
RTVSPost2010PropOp38
 70
     1
102
RTVSPost2010Prop39
140
1.0
102
RTVSPost2010PropOp39
 70
     1
102
RTVSPost2010Prop40
 90
        0
102
RTVSPost2010PropOp40
 70
     1
102
RTVSPost2010Prop41ColorIndex
 90
       18
102
RTVSPost2010Prop41ColorRGB
 90
        0
102
RTVSPost2010PropOp41
 70
     1
102
RTVSPost2010Prop42
 90
       50
102
RTVSPost2010PropOp42
 70
     1
102
RTVSPost2010Prop43
 90
        3
102
RTVSPost2010PropOp43
 70
     1
102
RTVSPost2010Prop44ColorIndex
 90
        5
102
RTVSPost2010Prop44ColorRGB
 90
      255
102
RTVSPost2010PropOp44
 70
     1
102
RTVSPost2010Prop45
280
     0
102
RTVSPost2010PropOp45
 70
     1
102
RTVSPost2010Prop46
 90
       50
102
RTVSPost2010PropOp46
 70
     1
102
RTVSPost2010Prop47
 90
       50
102
RTVSPost2010PropOp47
 70
     1
102
RTVSPost2010Prop48
 90
       50
102
RTVSPost2010PropOp48
 70
     1
102
RTVSPost2010Prop49
280
     0
102
RTVSPost2010PropOp49
 70
     1
102
RTVSPost2010Prop50
 90
       50
102
RTVSPost2010PropOp50
 70
     1
102
RTVSPost2010Prop51ColorIndex
 90
      256
102
RTVSPost2010Prop51ColorRGB
 90
-16777216
102
RTVSPost2010PropOp51
 70
     0
102
RTVSPost2010Prop52
140
1.0
102
RTVSPost2010PropOp52
 70
     0
102
RTVSPost2010Prop53
 90
        2
102
RTVSPost2010PropOp53
 70
     1
102
RTVSPost2010Prop54
  1
strokes_ogs.tif
102
RTVSPost2010PropOp54
 70
     1
102
RTVSPost2010Prop55
280
     0
102
RTVSPost2010PropOp55
 70
     1
102
RTVSPost2010Prop56
140
1.0
102
RTVSPost2010PropOp56
 70
     1
102
RTVSPost2010Prop57
140
1.0
102
RTVSPost2010PropOp57
 70
     1
  0
XRECORD
  5
1C0
102
{ACAD_REACTORS
330
1BF
102
}
330
1BF
100
AcDbXrecord
280
     1
102
RTVSPost2010Prop28
280
     0
102
RTVSPost2010PropOp28
 70
     1
102
RTVSPost2010Prop29
280
     1
102
RTVSPost2010PropOp29
 70
     1
102
RTVSPost2010Prop30
280
     1
102
RTVSPost2010PropOp30
 70
     1
102
RTVSPost2010Prop31
280
     0
102
RTVSPost2010PropOp31
 70
     1
102
RTVSPost2010Prop32
280
     0
102
RTVSPost2010PropOp32
 70
     1
102
RTVSPost2010Prop33
280
     0
102
RTVSPost2010PropOp33
 70
     1
102
RTVSPost2010Prop34
280
     0
102
RTVSPost2010PropOp34
 70
     1
102
RTVSPost2010Prop35
280
     0
102
RTVSPost2010PropOp35
 70
     1
102
RTVSPost2010Prop36
280
     0
102
RTVSPost2010PropOp36
 70
     1
102
RTVSPost2010Prop37
 90
       50
102
RTVSPost2010PropOp37
 70
     1
102
RTVSPost2010Prop38
140
0.0
102
RTVSPost2010PropOp38
 70
     1
102
RTVSPost2010Prop39
140
1.0
102
RTVSPost2010PropOp39
 70
     1
102
RTVSPost2010Prop40
 90
        0
102
RTVSPost2010PropOp40
 70
     1
102
RTVSPost2010Prop41ColorIndex
 90
       18
102
RTVSPost2010Prop41ColorRGB
 90
        0
102
RTVSPost2010PropOp41
 70
     1
102
RTVSPost2010Prop42
 90
       50
102
RTVSPost2010PropOp42
 70
     1
102
RTVSPost2010Prop43
 90
        3
102
RTVSPost2010PropOp43
 70
     1
102
RTVSPost2010Prop44ColorIndex
 90
        5
102
RTVSPost2010Prop44ColorRGB
 90
      255
102
RTVSPost2010PropOp44
 70
     1
102
RTVSPost2010Prop45
280
     0
102
RTVSPost2010PropOp45
 70
     1
102
RTVSPost2010Prop46
 90
       50
102
RTVSPost2010PropOp46
 70
     1
102
RTVSPost2010Prop47
 90
       50
102
RTVSPost2010PropOp47
 70
     1
102
RTVSPost2010Prop48
 90
       50
102
RTVSPost2010PropOp48
 70
     1
102
RTVSPost2010Prop49
280
     0
102
RTVSPost2010PropOp49
 70
     1
102
RTVSPost2010Prop50
 90
       50
102
RTVSPost2010PropOp50
 70
     1
102
RTVSPost2010Prop51ColorIndex
 90
      256
102
RTVSPost2010Prop51ColorRGB
 90
-16777216
102
RTVSPost2010PropOp51
 70
     0
102
RTVSPost2010Prop52
140
1.0
102
RTVSPost2010PropOp52
 70
     0
102
RTVSPost2010Prop53
 90
        2
102
RTVSPost2010PropOp53
 70
     1
102
RTVSPost2010Prop54
  1
strokes_ogs.tif
102
RTVSPost2010PropOp54
 70
     1
102
RTVSPost2010Prop55
280
     0
102
RTVSPost2010PropOp55
 70
     1
102
RTVSPost2010Prop56
140
1.0
102
RTVSPost2010PropOp56
 70
     1
102
RTVSPost2010Prop57
140
1.0
102
RTVSPost2010PropOp57
 70
     1
  0
XRECORD
  5
1C4
102
{ACAD_REACTORS
330
1C3
102
}
330
1C3
100
AcDbXrecord
280
     1
102
RTVSPost2010Prop28
280
     0
102
RTVSPost2010PropOp28
 70
     1
102
RTVSPost2010Prop29
280
     1
102
RTVSPost2010PropOp29
 70
     1
102
RTVSPost2010Prop30
280
     1
102
RTVSPost2010PropOp30
 70
     1
102
RTVSPost2010Prop31
280
     0
102
RTVSPost2010PropOp31
 70
     1
102
RTVSPost2010Prop32
280
     0
102
RTVSPost2010PropOp32
 70
     1
102
RTVSPost2010Prop33
280
     0
102
RTVSPost2010PropOp33
 70
     1
102
RTVSPost2010Prop34
280
     0
102
RTVSPost2010PropOp34
 70
     1
102
RTVSPost2010Prop35
280
     0
102
RTVSPost2010PropOp35
 70
     1
102
RTVSPost2010Prop36
280
     0
102
RTVSPost2010PropOp36
 70
     1
102
RTVSPost2010Prop37
 90
       50
102
RTVSPost2010PropOp37
 70
     1
102
RTVSPost2010Prop38
140
0.0
102
RTVSPost2010PropOp38
 70
     1
102
RTVSPost2010Prop39
140
1.0
102
RTVSPost2010PropOp39
 70
     1
102
RTVSPost2010Prop40
 90
        0
102
RTVSPost2010PropOp40
 70
     1
102
RTVSPost2010Prop41ColorIndex
 90
       18
102
RTVSPost2010Prop41ColorRGB
 90
        0
102
RTVSPost2010PropOp41
 70
     1
102
RTVSPost2010Prop42
 90
       50
102
RTVSPost2010PropOp42
 70
     1
102
RTVSPost2010Prop43
 90
        3
102
RTVSPost2010PropOp43
 70
     1
102
RTVSPost2010Prop44ColorIndex
 90
        5
102
RTVSPost2010Prop44ColorRGB
 90
      255
102
RTVSPost2010PropOp44
 70
     1
102
RTVSPost2010Prop45
280
     0
102
RTVSPost2010PropOp45
 70
     1
102
RTVSPost2010Prop46
 90
       50
102
RTVSPost2010PropOp46
 70
     1
102
RTVSPost2010Prop47
 90
       50
102
RTVSPost2010PropOp47
 70
     1
102
RTVSPost2010Prop48
 90
       50
102
RTVSPost2010PropOp48
 70
     1
102
RTVSPost2010Prop49
280
     0
102
RTVSPost2010PropOp49
 70
     1
102
RTVSPost2010Prop50
 90
       50
102
RTVSPost2010PropOp50
 70
     1
102
RTVSPost2010Prop51ColorIndex
 90
      256
102
RTVSPost2010Prop51ColorRGB
 90
-16777216
102
RTVSPost2010PropOp51
 70
     0
102
RTVSPost2010Prop52
140
1.0
102
RTVSPost2010PropOp52
 70
     0
102
RTVSPost2010Prop53
 90
        2
102
RTVSPost2010PropOp53
 70
     1
102
RTVSPost2010Prop54
  1
strokes_ogs.tif
102
RTVSPost2010PropOp54
 70
     1
102
RTVSPost2010Prop55
280
     0
102
RTVSPost2010PropOp55
 70
     1
102
RTVSPost2010Prop56
140
1.0
102
RTVSPost2010PropOp56
 70
     1
102
RTVSPost2010Prop57
140
1.0
102
RTVSPost2010PropOp57
 70
     1
  0
XRECORD
  5
1DE
102
{ACAD_REACTORS
330
1DD
102
}
330
1DD
100
AcDbXrecord
280
     1
102
RTVSPost2010Prop28
280
     0
102
RTVSPost2010PropOp28
 70
     0
102
RTVSPost2010Prop29
280
     1
102
RTVSPost2010PropOp29
 70
     0
102
RTVSPost2010Prop30
280
     1
102
RTVSPost2010PropOp30
 70
     0
102
RTVSPost2010Prop31
280
     0
102
RTVSPost2010PropOp31
 70
     0
102
RTVSPost2010Prop32
280
     0
102
RTVSPost2010PropOp32
 70
     0
102
RTVSPost2010Prop33
280
     0
102
RTVSPost2010PropOp33
 70
     0
102
RTVSPost2010Prop34
280
     0
102
RTVSPost2010PropOp34
 70
     0
102
RTVSPost2010Prop35
280
     0
102
RTVSPost2010PropOp35
 70
     0
102
RTVSPost2010Prop36
280
     0
102
RTVSPost2010PropOp36
 70
     0
102
RTVSPost2010Prop37
 90
       50
102
RTVSPost2010PropOp37
 70
     0
102
RTVSPost2010Prop38
140
0.0
102
RTVSPost2010PropOp38
 70
     0
102
RTVSPost2010Prop39
140
1.0
102
RTVSPost2010PropOp39
 70
     0
102
RTVSPost2010Prop40
 90
        0
102
RTVSPost2010PropOp40
 70
     0
102
RTVSPost2010Prop41ColorIndex
 90
       18
102
RTVSPost2010Prop41ColorRGB
 90
        0
102
RTVSPost2010PropOp41
 70
     0
102
RTVSPost2010Prop42
 90
       50
102
RTVSPost2010PropOp42
 70
     0
102
RTVSPost2010Prop43
 90
        3
102
RTVSPost2010PropOp43
 70
     0
102
RTVSPost2010Prop44ColorIndex
 90
        5
102
RTVSPost2010Prop44ColorRGB
 90
      255
102
RTVSPost2010PropOp44
 70
     0
102
RTVSPost2010Prop45
280
     0
102
RTVSPost2010PropOp45
 70
     0
102
RTVSPost2010Prop46
 90
       50
102
RTVSPost2010PropOp46
 70
     0
102
RTVSPost2010Prop47
 90
       50
102
RTVSPost2010PropOp47
 70
     0
102
RTVSPost2010Prop48
 90
       50
102
RTVSPost2010PropOp48
 70
     0
102
RTVSPost2010Prop49
280
     0
102
RTVSPost2010PropOp49
 70
     0
102
RTVSPost2010Prop50
 90
       50
102
RTVSPost2010PropOp50
 70
     0
102
RTVSPost2010Prop51ColorIndex
 90
      256
102
RTVSPost2010Prop51ColorRGB
 90
-16777216
102
RTVSPost2010PropOp51
 70
     0
102
RTVSPost2010Prop52
140
1.0
102
RTVSPost2010PropOp52
 70
     0
102
RTVSPost2010Prop53
 90
        2
102
RTVSPost2010PropOp53
 70
     0
102
RTVSPost2010Prop54
  1
strokes_ogs.tif
102
RTVSPost2010PropOp54
 70
     0
102
RTVSPost2010Prop55
280
     0
102
RTVSPost2010PropOp55
 70
     0
102
RTVSPost2010Prop56
140
1.0
102
RTVSPost2010PropOp56
 70
     0
102
RTVSPost2010Prop57
140
1.0
102
RTVSPost2010PropOp57
 70
     0
  0
XRECORD
  5
1CC
102
{ACAD_REACTORS
330
1CB
102
}
330
1CB
100
AcDbXrecord
280
     1
102
RTVSPost2010Prop28
280
     0
102
RTVSPost2010PropOp28
 70
     1
102
RTVSPost2010Prop29
280
     1
102
RTVSPost2010PropOp29
 70
     1
102
RTVSPost2010Prop30
280
     1
102
RTVSPost2010PropOp30
 70
     1
102
RTVSPost2010Prop31
280
     0
102
RTVSPost2010PropOp31
 70
     1
102
RTVSPost2010Prop32
280
     0
102
RTVSPost2010PropOp32
 70
     1
102
RTVSPost2010Prop33
280
     0
102
RTVSPost2010PropOp33
 70
     1
102
RTVSPost2010Prop34
280
     0
102
RTVSPost2010PropOp34
 70
     1
102
RTVSPost2010Prop35
280
     0
102
RTVSPost2010PropOp35
 70
     1
102
RTVSPost2010Prop36
280
     0
102
RTVSPost2010PropOp36
 70
     1
102
RTVSPost2010Prop37
 90
       50
102
RTVSPost2010PropOp37
 70
     1
102
RTVSPost2010Prop38
140
0.0
102
RTVSPost2010PropOp38
 70
     1
102
RTVSPost2010Prop39
140
1.0
102
RTVSPost2010PropOp39
 70
     1
102
RTVSPost2010Prop40
 90
        0
102
RTVSPost2010PropOp40
 70
     1
102
RTVSPost2010Prop41ColorIndex
 90
       18
102
RTVSPost2010Prop41ColorRGB
 90
        0
102
RTVSPost2010PropOp41
 70
     1
102
RTVSPost2010Prop42
 90
       50
102
RTVSPost2010PropOp42
 70
     1
102
RTVSPost2010Prop43
 90
        3
102
RTVSPost2010PropOp43
 70
     1
102
RTVSPost2010Prop44ColorIndex
 90
        5
102
RTVSPost2010Prop44ColorRGB
 90
      255
102
RTVSPost2010PropOp44
 70
     1
102
RTVSPost2010Prop45
280
     0
102
RTVSPost2010PropOp45
 70
     1
102
RTVSPost2010Prop46
 90
       50
102
RTVSPost2010PropOp46
 70
     1
102
RTVSPost2010Prop47
 90
       50
102
RTVSPost2010PropOp47
 70
     1
102
RTVSPost2010Prop48
 90
       50
102
RTVSPost2010PropOp48
 70
     1
102
RTVSPost2010Prop49
280
     0
102
RTVSPost2010PropOp49
 70
     1
102
RTVSPost2010Prop50
 90
       50
102
RTVSPost2010PropOp50
 70
     1
102
RTVSPost2010Prop51ColorIndex
 90
      256
102
RTVSPost2010Prop51ColorRGB
 90
-16777216
102
RTVSPost2010PropOp51
 70
     0
102
RTVSPost2010Prop52
140
1.0
102
RTVSPost2010PropOp52
 70
     0
102
RTVSPost2010Prop53
 90
        2
102
RTVSPost2010PropOp53
 70
     1
102
RTVSPost2010Prop54
  1
strokes_ogs.tif
102
RTVSPost2010PropOp54
 70
     1
102
RTVSPost2010Prop55
280
     0
102
RTVSPost2010PropOp55
 70
     1
102
RTVSPost2010Prop56
140
1.0
102
RTVSPost2010PropOp56
 70
     1
102
RTVSPost2010Prop57
140
1.0
102
RTVSPost2010PropOp57
 70
     1
  0
XRECORD
  5
1B0
102
{ACAD_REACTORS
330
1AF
102
}
330
1AF
100
AcDbXrecord
280
     1
102
RTVSPost2010Prop28
280
     0
102
RTVSPost2010PropOp28
 70
     1
102
RTVSPost2010Prop29
280
     1
102
RTVSPost2010PropOp29
 70
     1
102
RTVSPost2010Prop30
280
     1
102
RTVSPost2010PropOp30
 70
     1
102
RTVSPost2010Prop31
280
     0
102
RTVSPost2010PropOp31
 70
     1
102
RTVSPost2010Prop32
280
     0
102
RTVSPost2010PropOp32
 70
     1
102
RTVSPost2010Prop33
280
     0
102
RTVSPost2010PropOp33
 70
     1
102
RTVSPost2010Prop34
280
     0
102
RTVSPost2010PropOp34
 70
     1
102
RTVSPost2010Prop35
280
     0
102
RTVSPost2010PropOp35
 70
     1
102
RTVSPost2010Prop36
280
     0
102
RTVSPost2010PropOp36
 70
     1
102
RTVSPost2010Prop37
 90
       50
102
RTVSPost2010PropOp37
 70
     1
102
RTVSPost2010Prop38
140
0.0
102
RTVSPost2010PropOp38
 70
     1
102
RTVSPost2010Prop39
140
1.0
102
RTVSPost2010PropOp39
 70
     1
102
RTVSPost2010Prop40
 90
        0
102
RTVSPost2010PropOp40
 70
     1
102
RTVSPost2010Prop41ColorIndex
 90
       18
102
RTVSPost2010Prop41ColorRGB
 90
        0
102
RTVSPost2010PropOp41
 70
     1
102
RTVSPost2010Prop42
 90
       50
102
RTVSPost2010PropOp42
 70
     1
102
RTVSPost2010Prop43
 90
        3
102
RTVSPost2010PropOp43
 70
     1
102
RTVSPost2010Prop44ColorIndex
 90
        5
102
RTVSPost2010Prop44ColorRGB
 90
      255
102
RTVSPost2010PropOp44
 70
     1
102
RTVSPost2010Prop45
280
     0
102
RTVSPost2010PropOp45
 70
     1
102
RTVSPost2010Prop46
 90
       50
102
RTVSPost2010PropOp46
 70
     1
102
RTVSPost2010Prop47
 90
       50
102
RTVSPost2010PropOp47
 70
     1
102
RTVSPost2010Prop48
 90
       50
102
RTVSPost2010PropOp48
 70
     1
102
RTVSPost2010Prop49
280
     0
102
RTVSPost2010PropOp49
 70
     1
102
RTVSPost2010Prop50
 90
       50
102
RTVSPost2010PropOp50
 70
     1
102
RTVSPost2010Prop51ColorIndex
 90
      256
102
RTVSPost2010Prop51ColorRGB
 90
-16777216
102
RTVSPost2010PropOp51
 70
     0
102
RTVSPost2010Prop52
140
1.0
102
RTVSPost2010PropOp52
 70
     0
102
RTVSPost2010Prop53
 90
        2
102
RTVSPost2010PropOp53
 70
     1
102
RTVSPost2010Prop54
  1
strokes_ogs.tif
102
RTVSPost2010PropOp54
 70
     1
102
RTVSPost2010Prop55
280
     0
102
RTVSPost2010PropOp55
 70
     1
102
RTVSPost2010Prop56
140
1.0
102
RTVSPost2010PropOp56
 70
     1
102
RTVSPost2010Prop57
140
1.0
102
RTVSPost2010PropOp57
 70
     1
  0
XRECORD
  5
1B2
102
{ACAD_REACTORS
330
1B1
102
}
330
1B1
100
AcDbXrecord
280
     1
102
RTVSPost2010Prop28
280
     0
102
RTVSPost2010PropOp28
 70
     1
102
RTVSPost2010Prop29
280
     1
102
RTVSPost2010PropOp29
 70
     1
102
RTVSPost2010Prop30
280
     1
102
RTVSPost2010PropOp30
 70
     1
102
RTVSPost2010Prop31
280
     0
102
RTVSPost2010PropOp31
 70
     1
102
RTVSPost2010Prop32
280
     0
102
RTVSPost2010PropOp32
 70
     1
102
RTVSPost2010Prop33
280
     0
102
RTVSPost2010PropOp33
 70
     1
102
RTVSPost2010Prop34
280
     0
102
RTVSPost2010PropOp34
 70
     1
102
RTVSPost2010Prop35
280
     0
102
RTVSPost2010PropOp35
 70
     1
102
RTVSPost2010Prop36
280
     0
102
RTVSPost2010PropOp36
 70
     1
102
RTVSPost2010Prop37
 90
       50
102
RTVSPost2010PropOp37
 70
     1
102
RTVSPost2010Prop38
140
0.0
102
RTVSPost2010PropOp38
 70
     1
102
RTVSPost2010Prop39
140
1.0
102
RTVSPost2010PropOp39
 70
     1
102
RTVSPost2010Prop40
 90
        0
102
RTVSPost2010PropOp40
 70
     1
102
RTVSPost2010Prop41ColorIndex
 90
       18
102
RTVSPost2010Prop41ColorRGB
 90
        0
102
RTVSPost2010PropOp41
 70
     1
102
RTVSPost2010Prop42
 90
       50
102
RTVSPost2010PropOp42
 70
     1
102
RTVSPost2010Prop43
 90
        3
102
RTVSPost2010PropOp43
 70
     1
102
RTVSPost2010Prop44ColorIndex
 90
        5
102
RTVSPost2010Prop44ColorRGB
 90
      255
102
RTVSPost2010PropOp44
 70
     1
102
RTVSPost2010Prop45
280
     0
102
RTVSPost2010PropOp45
 70
     1
102
RTVSPost2010Prop46
 90
       50
102
RTVSPost2010PropOp46
 70
     1
102
RTVSPost2010Prop47
 90
       50
102
RTVSPost2010PropOp47
 70
     1
102
RTVSPost2010Prop48
 90
       50
102
RTVSPost2010PropOp48
 70
     1
102
RTVSPost2010Prop49
280
     0
102
RTVSPost2010PropOp49
 70
     1
102
RTVSPost2010Prop50
 90
       50
102
RTVSPost2010PropOp50
 70
     1
102
RTVSPost2010Prop51ColorIndex
 90
      256
102
RTVSPost2010Prop51ColorRGB
 90
-16777216
102
RTVSPost2010PropOp51
 70
     0
102
RTVSPost2010Prop52
140
1.0
102
RTVSPost2010PropOp52
 70
     0
102
RTVSPost2010Prop53
 90
        2
102
RTVSPost2010PropOp53
 70
     1
102
RTVSPost2010Prop54
  1
strokes_ogs.tif
102
RTVSPost2010PropOp54
 70
     1
102
RTVSPost2010Prop55
280
     0
102
RTVSPost2010PropOp55
 70
     1
102
RTVSPost2010Prop56
140
1.0
102
RTVSPost2010PropOp56
 70
     1
102
RTVSPost2010Prop57
140
1.0
102
RTVSPost2010PropOp57
 70
     1
  0
XRECORD
  5
1B4
102
{ACAD_REACTORS
330
1B3
102
}
330
1B3
100
AcDbXrecord
280
     1
102
RTVSPost2010Prop28
280
     0
102
RTVSPost2010PropOp28
 70
     1
102
RTVSPost2010Prop29
280
     1
102
RTVSPost2010PropOp29
 70
     1
102
RTVSPost2010Prop30
280
     1
102
RTVSPost2010PropOp30
 70
     1
102
RTVSPost2010Prop31
280
     0
102
RTVSPost2010PropOp31
 70
     1
102
RTVSPost2010Prop32
280
     0
102
RTVSPost2010PropOp32
 70
     1
102
RTVSPost2010Prop33
280
     0
102
RTVSPost2010PropOp33
 70
     1
102
RTVSPost2010Prop34
280
     0
102
RTVSPost2010PropOp34
 70
     1
102
RTVSPost2010Prop35
280
     0
102
RTVSPost2010PropOp35
 70
     1
102
RTVSPost2010Prop36
280
     0
102
RTVSPost2010PropOp36
 70
     1
102
RTVSPost2010Prop37
 90
       50
102
RTVSPost2010PropOp37
 70
     1
102
RTVSPost2010Prop38
140
0.0
102
RTVSPost2010PropOp38
 70
     1
102
RTVSPost2010Prop39
140
1.0
102
RTVSPost2010PropOp39
 70
     1
102
RTVSPost2010Prop40
 90
        0
102
RTVSPost2010PropOp40
 70
     1
102
RTVSPost2010Prop41ColorIndex
 90
       18
102
RTVSPost2010Prop41ColorRGB
 90
        0
102
RTVSPost2010PropOp41
 70
     1
102
RTVSPost2010Prop42
 90
       50
102
RTVSPost2010PropOp42
 70
     1
102
RTVSPost2010Prop43
 90
        3
102
RTVSPost2010PropOp43
 70
     1
102
RTVSPost2010Prop44ColorIndex
 90
        5
102
RTVSPost2010Prop44ColorRGB
 90
      255
102
RTVSPost2010PropOp44
 70
     1
102
RTVSPost2010Prop45
280
     0
102
RTVSPost2010PropOp45
 70
     1
102
RTVSPost2010Prop46
 90
       50
102
RTVSPost2010PropOp46
 70
     1
102
RTVSPost2010Prop47
 90
       50
102
RTVSPost2010PropOp47
 70
     1
102
RTVSPost2010Prop48
 90
       50
102
RTVSPost2010PropOp48
 70
     1
102
RTVSPost2010Prop49
280
     0
102
RTVSPost2010PropOp49
 70
     1
102
RTVSPost2010Prop50
 90
       50
102
RTVSPost2010PropOp50
 70
     1
102
RTVSPost2010Prop51ColorIndex
 90
      256
102
RTVSPost2010Prop51ColorRGB
 90
-16777216
102
RTVSPost2010PropOp51
 70
     0
102
RTVSPost2010Prop52
140
1.0
102
RTVSPost2010PropOp52
 70
     0
102
RTVSPost2010Prop53
 90
        2
102
RTVSPost2010PropOp53
 70
     1
102
RTVSPost2010Prop54
  1
strokes_ogs.tif
102
RTVSPost2010PropOp54
 70
     1
102
RTVSPost2010Prop55
280
     0
102
RTVSPost2010PropOp55
 70
     1
102
RTVSPost2010Prop56
140
1.0
102
RTVSPost2010PropOp56
 70
     1
102
RTVSPost2010Prop57
140
1.0
102
RTVSPost2010PropOp57
 70
     1
  0
XRECORD
  5
1B6
102
{ACAD_REACTORS
330
1B5
102
}
330
1B5
100
AcDbXrecord
280
     1
102
RTVSPost2010Prop28
280
     0
102
RTVSPost2010PropOp28
 70
     1
102
RTVSPost2010Prop29
280
     1
102
RTVSPost2010PropOp29
 70
     1
102
RTVSPost2010Prop30
280
     1
102
RTVSPost2010PropOp30
 70
     1
102
RTVSPost2010Prop31
280
     0
102
RTVSPost2010PropOp31
 70
     1
102
RTVSPost2010Prop32
280
     0
102
RTVSPost2010PropOp32
 70
     1
102
RTVSPost2010Prop33
280
     0
102
RTVSPost2010PropOp33
 70
     1
102
RTVSPost2010Prop34
280
     0
102
RTVSPost2010PropOp34
 70
     1
102
RTVSPost2010Prop35
280
     0
102
RTVSPost2010PropOp35
 70
     1
102
RTVSPost2010Prop36
280
     0
102
RTVSPost2010PropOp36
 70
     1
102
RTVSPost2010Prop37
 90
       50
102
RTVSPost2010PropOp37
 70
     1
102
RTVSPost2010Prop38
140
0.0
102
RTVSPost2010PropOp38
 70
     1
102
RTVSPost2010Prop39
140
1.0
102
RTVSPost2010PropOp39
 70
     1
102
RTVSPost2010Prop40
 90
        0
102
RTVSPost2010PropOp40
 70
     1
102
RTVSPost2010Prop41ColorIndex
 90
       18
102
RTVSPost2010Prop41ColorRGB
 90
        0
102
RTVSPost2010PropOp41
 70
     1
102
RTVSPost2010Prop42
 90
       50
102
RTVSPost2010PropOp42
 70
     1
102
RTVSPost2010Prop43
 90
        3
102
RTVSPost2010PropOp43
 70
     1
102
RTVSPost2010Prop44ColorIndex
 90
        5
102
RTVSPost2010Prop44ColorRGB
 90
      255
102
RTVSPost2010PropOp44
 70
     1
102
RTVSPost2010Prop45
280
     0
102
RTVSPost2010PropOp45
 70
     1
102
RTVSPost2010Prop46
 90
       50
102
RTVSPost2010PropOp46
 70
     1
102
RTVSPost2010Prop47
 90
       50
102
RTVSPost2010PropOp47
 70
     1
102
RTVSPost2010Prop48
 90
       50
102
RTVSPost2010PropOp48
 70
     1
102
RTVSPost2010Prop49
280
     0
102
RTVSPost2010PropOp49
 70
     1
102
RTVSPost2010Prop50
 90
       50
102
RTVSPost2010PropOp50
 70
     1
102
RTVSPost2010Prop51ColorIndex
 90
      256
102
RTVSPost2010Prop51ColorRGB
 90
-16777216
102
RTVSPost2010PropOp51
 70
     0
102
RTVSPost2010Prop52
140
1.0
102
RTVSPost2010PropOp52
 70
     0
102
RTVSPost2010Prop53
 90
        2
102
RTVSPost2010PropOp53
 70
     1
102
RTVSPost2010Prop54
  1
strokes_ogs.tif
102
RTVSPost2010PropOp54
 70
     1
102
RTVSPost2010Prop55
280
     0
102
RTVSPost2010PropOp55
 70
     1
102
RTVSPost2010Prop56
140
1.0
102
RTVSPost2010PropOp56
 70
     1
102
RTVSPost2010Prop57
140
1.0
102
RTVSPost2010PropOp57
 70
     1
  0
XRECORD
  5
1BE
102
{ACAD_REACTORS
330
1BD
102
}
330
1BD
100
AcDbXrecord
280
     1
102
RTVSPost2010Prop28
280
     0
102
RTVSPost2010PropOp28
 70
     1
102
RTVSPost2010Prop29
280
     1
102
RTVSPost2010PropOp29
 70
     1
102
RTVSPost2010Prop30
280
     1
102
RTVSPost2010PropOp30
 70
     1
102
RTVSPost2010Prop31
280
     0
102
RTVSPost2010PropOp31
 70
     1
102
RTVSPost2010Prop32
280
     0
102
RTVSPost2010PropOp32
 70
     1
102
RTVSPost2010Prop33
280
     0
102
RTVSPost2010PropOp33
 70
     1
102
RTVSPost2010Prop34
280
     0
102
RTVSPost2010PropOp34
 70
     1
102
RTVSPost2010Prop35
280
     0
102
RTVSPost2010PropOp35
 70
     1
102
RTVSPost2010Prop36
280
     0
102
RTVSPost2010PropOp36
 70
     1
102
RTVSPost2010Prop37
 90
       50
102
RTVSPost2010PropOp37
 70
     1
102
RTVSPost2010Prop38
140
0.0
102
RTVSPost2010PropOp38
 70
     1
102
RTVSPost2010Prop39
140
1.0
102
RTVSPost2010PropOp39
 70
     1
102
RTVSPost2010Prop40
 90
        0
102
RTVSPost2010PropOp40
 70
     1
102
RTVSPost2010Prop41ColorIndex
 90
       18
102
RTVSPost2010Prop41ColorRGB
 90
        0
102
RTVSPost2010PropOp41
 70
     1
102
RTVSPost2010Prop42
 90
       50
102
RTVSPost2010PropOp42
 70
     1
102
RTVSPost2010Prop43
 90
        3
102
RTVSPost2010PropOp43
 70
     1
102
RTVSPost2010Prop44ColorIndex
 90
        5
102
RTVSPost2010Prop44ColorRGB
 90
      255
102
RTVSPost2010PropOp44
 70
     1
102
RTVSPost2010Prop45
280
     0
102
RTVSPost2010PropOp45
 70
     1
102
RTVSPost2010Prop46
 90
       50
102
RTVSPost2010PropOp46
 70
     1
102
RTVSPost2010Prop47
 90
       50
102
RTVSPost2010PropOp47
 70
     1
102
RTVSPost2010Prop48
 90
       50
102
RTVSPost2010PropOp48
 70
     1
102
RTVSPost2010Prop49
280
     0
102
RTVSPost2010PropOp49
 70
     1
102
RTVSPost2010Prop50
 90
       50
102
RTVSPost2010PropOp50
 70
     1
102
RTVSPost2010Prop51ColorIndex
 90
      256
102
RTVSPost2010Prop51ColorRGB
 90
-16777216
102
RTVSPost2010PropOp51
 70
     0
102
RTVSPost2010Prop52
140
1.0
102
RTVSPost2010PropOp52
 70
     0
102
RTVSPost2010Prop53
 90
        2
102
RTVSPost2010PropOp53
 70
     1
102
RTVSPost2010Prop54
  1
strokes_ogs.tif
102
RTVSPost2010PropOp54
 70
     1
102
RTVSPost2010Prop55
280
     0
102
RTVSPost2010PropOp55
 70
     1
102
RTVSPost2010Prop56
140
1.0
102
RTVSPost2010PropOp56
 70
     1
102
RTVSPost2010Prop57
140
1.0
102
RTVSPost2010PropOp57
 70
     1
  0
XRECORD
  5
1DA
102
{ACAD_REACTORS
330
1D9
102
}
330
1D9
100
AcDbXrecord
280
     1
102
RTVSPost2010Prop28
280
     0
102
RTVSPost2010PropOp28
 70
     0
102
RTVSPost2010Prop29
280
     1
102
RTVSPost2010PropOp29
 70
     0
102
RTVSPost2010Prop30
280
     1
102
RTVSPost2010PropOp30
 70
     0
102
RTVSPost2010Prop31
280
     0
102
RTVSPost2010PropOp31
 70
     0
102
RTVSPost2010Prop32
280
     0
102
RTVSPost2010PropOp32
 70
     0
102
RTVSPost2010Prop33
280
     0
102
RTVSPost2010PropOp33
 70
     0
102
RTVSPost2010Prop34
280
     0
102
RTVSPost2010PropOp34
 70
     0
102
RTVSPost2010Prop35
280
     0
102
RTVSPost2010PropOp35
 70
     0
102
RTVSPost2010Prop36
280
     0
102
RTVSPost2010PropOp36
 70
     0
102
RTVSPost2010Prop37
 90
       50
102
RTVSPost2010PropOp37
 70
     0
102
RTVSPost2010Prop38
140
0.0
102
RTVSPost2010PropOp38
 70
     0
102
RTVSPost2010Prop39
140
1.0
102
RTVSPost2010PropOp39
 70
     0
102
RTVSPost2010Prop40
 90
        0
102
RTVSPost2010PropOp40
 70
     0
102
RTVSPost2010Prop41ColorIndex
 90
       18
102
RTVSPost2010Prop41ColorRGB
 90
        0
102
RTVSPost2010PropOp41
 70
     0
102
RTVSPost2010Prop42
 90
       50
102
RTVSPost2010PropOp42
 70
     0
102
RTVSPost2010Prop43
 90
        3
102
RTVSPost2010PropOp43
 70
     0
102
RTVSPost2010Prop44ColorIndex
 90
        5
102
RTVSPost2010Prop44ColorRGB
 90
      255
102
RTVSPost2010PropOp44
 70
     0
102
RTVSPost2010Prop45
280
     0
102
RTVSPost2010PropOp45
 70
     0
102
RTVSPost2010Prop46
 90
       50
102
RTVSPost2010PropOp46
 70
     0
102
RTVSPost2010Prop47
 90
       50
102
RTVSPost2010PropOp47
 70
     0
102
RTVSPost2010Prop48
 90
       50
102
RTVSPost2010PropOp48
 70
     0
102
RTVSPost2010Prop49
280
     0
102
RTVSPost2010PropOp49
 70
     0
102
RTVSPost2010Prop50
 90
       50
102
RTVSPost2010PropOp50
 70
     0
102
RTVSPost2010Prop51ColorIndex
 90
      256
102
RTVSPost2010Prop51ColorRGB
 90
-16777216
102
RTVSPost2010PropOp51
 70
     0
102
RTVSPost2010Prop52
140
1.0
102
RTVSPost2010PropOp52
 70
     0
102
RTVSPost2010Prop53
 90
        2
102
RTVSPost2010PropOp53
 70
     0
102
RTVSPost2010Prop54
  1
strokes_ogs.tif
102
RTVSPost2010PropOp54
 70
     0
102
RTVSPost2010Prop55
280
     0
102
RTVSPost2010PropOp55
 70
     0
102
RTVSPost2010Prop56
140
1.0
102
RTVSPost2010PropOp56
 70
     0
102
RTVSPost2010Prop57
140
1.0
102
RTVSPost2010PropOp57
 70
     0
  0
XRECORD
  5
1CA
102
{ACAD_REACTORS
330
1C9
102
}
330
1C9
100
AcDbXrecord
280
     1
102
RTVSPost2010Prop28
280
     0
102
RTVSPost2010PropOp28
 70
     1
102
RTVSPost2010Prop29
280
     1
102
RTVSPost2010PropOp29
 70
     1
102
RTVSPost2010Prop30
280
     1
102
RTVSPost2010PropOp30
 70
     1
102
RTVSPost2010Prop31
280
     0
102
RTVSPost2010PropOp31
 70
     1
102
RTVSPost2010Prop32
280
     0
102
RTVSPost2010PropOp32
 70
     1
102
RTVSPost2010Prop33
280
     0
102
RTVSPost2010PropOp33
 70
     1
102
RTVSPost2010Prop34
280
     0
102
RTVSPost2010PropOp34
 70
     1
102
RTVSPost2010Prop35
280
     0
102
RTVSPost2010PropOp35
 70
     1
102
RTVSPost2010Prop36
280
     0
102
RTVSPost2010PropOp36
 70
     1
102
RTVSPost2010Prop37
 90
       50
102
RTVSPost2010PropOp37
 70
     1
102
RTVSPost2010Prop38
140
0.0
102
RTVSPost2010PropOp38
 70
     1
102
RTVSPost2010Prop39
140
1.0
102
RTVSPost2010PropOp39
 70
     1
102
RTVSPost2010Prop40
 90
        0
102
RTVSPost2010PropOp40
 70
     1
102
RTVSPost2010Prop41ColorIndex
 90
       18
102
RTVSPost2010Prop41ColorRGB
 90
        0
102
RTVSPost2010PropOp41
 70
     1
102
RTVSPost2010Prop42
 90
       50
102
RTVSPost2010PropOp42
 70
     1
102
RTVSPost2010Prop43
 90
        3
102
RTVSPost2010PropOp43
 70
     1
102
RTVSPost2010Prop44ColorIndex
 90
        5
102
RTVSPost2010Prop44ColorRGB
 90
      255
102
RTVSPost2010PropOp44
 70
     1
102
RTVSPost2010Prop45
280
     0
102
RTVSPost2010PropOp45
 70
     1
102
RTVSPost2010Prop46
 90
       50
102
RTVSPost2010PropOp46
 70
     1
102
RTVSPost2010Prop47
 90
       50
102
RTVSPost2010PropOp47
 70
     1
102
RTVSPost2010Prop48
 90
       50
102
RTVSPost2010PropOp48
 70
     1
102
RTVSPost2010Prop49
280
     0
102
RTVSPost2010PropOp49
 70
     1
102
RTVSPost2010Prop50
 90
       50
102
RTVSPost2010PropOp50
 70
     1
102
RTVSPost2010Prop51ColorIndex
 90
      256
102
RTVSPost2010Prop51ColorRGB
 90
-16777216
102
RTVSPost2010PropOp51
 70
     0
102
RTVSPost2010Prop52
140
1.0
102
RTVSPost2010PropOp52
 70
     0
102
RTVSPost2010Prop53
 90
        2
102
RTVSPost2010PropOp53
 70
     1
102
RTVSPost2010Prop54
  1
strokes_ogs.tif
102
RTVSPost2010PropOp54
 70
     1
102
RTVSPost2010Prop55
280
     0
102
RTVSPost2010PropOp55
 70
     1
102
RTVSPost2010Prop56
140
1.0
102
RTVSPost2010PropOp56
 70
     1
102
RTVSPost2010Prop57
140
1.0
102
RTVSPost2010PropOp57
 70
     1
  0
XRECORD
  5
1DC
102
{ACAD_REACTORS
330
1DB
102
}
330
1DB
100
AcDbXrecord
280
     1
102
RTVSPost2010Prop28
280
     0
102
RTVSPost2010PropOp28
 70
     0
102
RTVSPost2010Prop29
280
     1
102
RTVSPost2010PropOp29
 70
     0
102
RTVSPost2010Prop30
280
     1
102
RTVSPost2010PropOp30
 70
     0
102
RTVSPost2010Prop31
280
     0
102
RTVSPost2010PropOp31
 70
     0
102
RTVSPost2010Prop32
280
     0
102
RTVSPost2010PropOp32
 70
     0
102
RTVSPost2010Prop33
280
     0
102
RTVSPost2010PropOp33
 70
     0
102
RTVSPost2010Prop34
280
     0
102
RTVSPost2010PropOp34
 70
     0
102
RTVSPost2010Prop35
280
     0
102
RTVSPost2010PropOp35
 70
     0
102
RTVSPost2010Prop36
280
     0
102
RTVSPost2010PropOp36
 70
     0
102
RTVSPost2010Prop37
 90
       50
102
RTVSPost2010PropOp37
 70
     0
102
RTVSPost2010Prop38
140
0.0
102
RTVSPost2010PropOp38
 70
     0
102
RTVSPost2010Prop39
140
1.0
102
RTVSPost2010PropOp39
 70
     0
102
RTVSPost2010Prop40
 90
        0
102
RTVSPost2010PropOp40
 70
     0
102
RTVSPost2010Prop41ColorIndex
 90
       18
102
RTVSPost2010Prop41ColorRGB
 90
        0
102
RTVSPost2010PropOp41
 70
     0
102
RTVSPost2010Prop42
 90
       50
102
RTVSPost2010PropOp42
 70
     0
102
RTVSPost2010Prop43
 90
        3
102
RTVSPost2010PropOp43
 70
     0
102
RTVSPost2010Prop44ColorIndex
 90
        5
102
RTVSPost2010Prop44ColorRGB
 90
      255
102
RTVSPost2010PropOp44
 70
     0
102
RTVSPost2010Prop45
280
     0
102
RTVSPost2010PropOp45
 70
     0
102
RTVSPost2010Prop46
 90
       50
102
RTVSPost2010PropOp46
 70
     0
102
RTVSPost2010Prop47
 90
       50
102
RTVSPost2010PropOp47
 70
     0
102
RTVSPost2010Prop48
 90
       50
102
RTVSPost2010PropOp48
 70
     0
102
RTVSPost2010Prop49
280
     0
102
RTVSPost2010PropOp49
 70
     0
102
RTVSPost2010Prop50
 90
       50
102
RTVSPost2010PropOp50
 70
     0
102
RTVSPost2010Prop51ColorIndex
 90
      256
102
RTVSPost2010Prop51ColorRGB
 90
-16777216
102
RTVSPost2010PropOp51
 70
     0
102
RTVSPost2010Prop52
140
1.0
102
RTVSPost2010PropOp52
 70
     0
102
RTVSPost2010Prop53
 90
        2
102
RTVSPost2010PropOp53
 70
     0
102
RTVSPost2010Prop54
  1
strokes_ogs.tif
102
RTVSPost2010PropOp54
 70
     0
102
RTVSPost2010Prop55
280
     0
102
RTVSPost2010PropOp55
 70
     0
102
RTVSPost2010Prop56
140
1.0
102
RTVSPost2010PropOp56
 70
     0
102
RTVSPost2010Prop57
140
1.0
102
RTVSPost2010PropOp57
 70
     0
  0
XRECORD
  5
1C2
102
{ACAD_REACTORS
330
1C1
102
}
330
1C1
100
AcDbXrecord
280
     1
102
RTVSPost2010Prop28
280
     0
102
RTVSPost2010PropOp28
 70
     1
102
RTVSPost2010Prop29
280
     1
102
RTVSPost2010PropOp29
 70
     1
102
RTVSPost2010Prop30
280
     1
102
RTVSPost2010PropOp30
 70
     1
102
RTVSPost2010Prop31
280
     0
102
RTVSPost2010PropOp31
 70
     1
102
RTVSPost2010Prop32
280
     0
102
RTVSPost2010PropOp32
 70
     1
102
RTVSPost2010Prop33
280
     0
102
RTVSPost2010PropOp33
 70
     1
102
RTVSPost2010Prop34
280
     0
102
RTVSPost2010PropOp34
 70
     1
102
RTVSPost2010Prop35
280
     0
102
RTVSPost2010PropOp35
 70
     1
102
RTVSPost2010Prop36
280
     0
102
RTVSPost2010PropOp36
 70
     1
102
RTVSPost2010Prop37
 90
       50
102
RTVSPost2010PropOp37
 70
     1
102
RTVSPost2010Prop38
140
0.0
102
RTVSPost2010PropOp38
 70
     1
102
RTVSPost2010Prop39
140
1.0
102
RTVSPost2010PropOp39
 70
     1
102
RTVSPost2010Prop40
 90
        0
102
RTVSPost2010PropOp40
 70
     1
102
RTVSPost2010Prop41ColorIndex
 90
       18
102
RTVSPost2010Prop41ColorRGB
 90
        0
102
RTVSPost2010PropOp41
 70
     1
102
RTVSPost2010Prop42
 90
       50
102
RTVSPost2010PropOp42
 70
     1
102
RTVSPost2010Prop43
 90
        3
102
RTVSPost2010PropOp43
 70
     1
102
RTVSPost2010Prop44ColorIndex
 90
        5
102
RTVSPost2010Prop44ColorRGB
 90
      255
102
RTVSPost2010PropOp44
 70
     1
102
RTVSPost2010Prop45
280
     0
102
RTVSPost2010PropOp45
 70
     1
102
RTVSPost2010Prop46
 90
       50
102
RTVSPost2010PropOp46
 70
     1
102
RTVSPost2010Prop47
 90
       50
102
RTVSPost2010PropOp47
 70
     1
102
RTVSPost2010Prop48
 90
       50
102
RTVSPost2010PropOp48
 70
     1
102
RTVSPost2010Prop49
280
     0
102
RTVSPost2010PropOp49
 70
     1
102
RTVSPost2010Prop50
 90
       50
102
RTVSPost2010PropOp50
 70
     1
102
RTVSPost2010Prop51ColorIndex
 90
      256
102
RTVSPost2010Prop51ColorRGB
 90
-16777216
102
RTVSPost2010PropOp51
 70
     0
102
RTVSPost2010Prop52
140
1.0
102
RTVSPost2010PropOp52
 70
     0
102
RTVSPost2010Prop53
 90
        2
102
RTVSPost2010PropOp53
 70
     1
102
RTVSPost2010Prop54
  1
strokes_ogs.tif
102
RTVSPost2010PropOp54
 70
     1
102
RTVSPost2010Prop55
280
     0
102
RTVSPost2010PropOp55
 70
     1
102
RTVSPost2010Prop56
140
1.0
102
RTVSPost2010PropOp56
 70
     1
102
RTVSPost2010Prop57
140
1.0
102
RTVSPost2010PropOp57
 70
     1
  0
XRECORD
  5
1D8
102
{ACAD_REACTORS
330
1D7
102
}
330
1D7
100
AcDbXrecord
280
     1
102
RTVSPost2010Prop28
280
     0
102
RTVSPost2010PropOp28
 70
     1
102
RTVSPost2010Prop29
280
     1
102
RTVSPost2010PropOp29
 70
     1
102
RTVSPost2010Prop30
280
     1
102
RTVSPost2010PropOp30
 70
     1
102
RTVSPost2010Prop31
280
     0
102
RTVSPost2010PropOp31
 70
     1
102
RTVSPost2010Prop32
280
     0
102
RTVSPost2010PropOp32
 70
     1
102
RTVSPost2010Prop33
280
     0
102
RTVSPost2010PropOp33
 70
     1
102
RTVSPost2010Prop34
280
     0
102
RTVSPost2010PropOp34
 70
     1
102
RTVSPost2010Prop35
280
     0
102
RTVSPost2010PropOp35
 70
     1
102
RTVSPost2010Prop36
280
     0
102
RTVSPost2010PropOp36
 70
     1
102
RTVSPost2010Prop37
 90
       50
102
RTVSPost2010PropOp37
 70
     1
102
RTVSPost2010Prop38
140
0.0
102
RTVSPost2010PropOp38
 70
     1
102
RTVSPost2010Prop39
140
1.0
102
RTVSPost2010PropOp39
 70
     1
102
RTVSPost2010Prop40
 90
        0
102
RTVSPost2010PropOp40
 70
     1
102
RTVSPost2010Prop41ColorIndex
 90
       18
102
RTVSPost2010Prop41ColorRGB
 90
        0
102
RTVSPost2010PropOp41
 70
     1
102
RTVSPost2010Prop42
 90
       50
102
RTVSPost2010PropOp42
 70
     1
102
RTVSPost2010Prop43
 90
        3
102
RTVSPost2010PropOp43
 70
     1
102
RTVSPost2010Prop44ColorIndex
 90
        5
102
RTVSPost2010Prop44ColorRGB
 90
      255
102
RTVSPost2010PropOp44
 70
     1
102
RTVSPost2010Prop45
280
     0
102
RTVSPost2010PropOp45
 70
     1
102
RTVSPost2010Prop46
 90
       50
102
RTVSPost2010PropOp46
 70
     1
102
RTVSPost2010Prop47
 90
       50
102
RTVSPost2010PropOp47
 70
     1
102
RTVSPost2010Prop48
 90
       50
102
RTVSPost2010PropOp48
 70
     1
102
RTVSPost2010Prop49
280
     0
102
RTVSPost2010PropOp49
 70
     1
102
RTVSPost2010Prop50
 90
       50
102
RTVSPost2010PropOp50
 70
     1
102
RTVSPost2010Prop51ColorIndex
 90
      256
102
RTVSPost2010Prop51ColorRGB
 90
-16777216
102
RTVSPost2010PropOp51
 70
     0
102
RTVSPost2010Prop52
140
1.0
102
RTVSPost2010PropOp52
 70
     0
102
RTVSPost2010Prop53
 90
        2
102
RTVSPost2010PropOp53
 70
     1
102
RTVSPost2010Prop54
  1
strokes_ogs.tif
102
RTVSPost2010PropOp54
 70
     1
102
RTVSPost2010Prop55
280
     0
102
RTVSPost2010PropOp55
 70
     1
102
RTVSPost2010Prop56
140
1.0
102
RTVSPost2010PropOp56
 70
     1
102
RTVSPost2010Prop57
140
1.0
102
RTVSPost2010PropOp57
 70
     1
  0
XRECORD
  5
1D6
102
{ACAD_REACTORS
330
1D5
102
}
330
1D5
100
AcDbXrecord
280
     1
102
RTVSPost2010Prop28
280
     0
102
RTVSPost2010PropOp28
 70
     1
102
RTVSPost2010Prop29
280
     1
102
RTVSPost2010PropOp29
 70
     1
102
RTVSPost2010Prop30
280
     1
102
RTVSPost2010PropOp30
 70
     1
102
RTVSPost2010Prop31
280
     0
102
RTVSPost2010PropOp31
 70
     1
102
RTVSPost2010Prop32
280
     0
102
RTVSPost2010PropOp32
 70
     1
102
RTVSPost2010Prop33
280
     0
102
RTVSPost2010PropOp33
 70
     1
102
RTVSPost2010Prop34
280
     0
102
RTVSPost2010PropOp34
 70
     1
102
RTVSPost2010Prop35
280
     0
102
RTVSPost2010PropOp35
 70
     1
102
RTVSPost2010Prop36
280
     0
102
RTVSPost2010PropOp36
 70
     1
102
RTVSPost2010Prop37
 90
       50
102
RTVSPost2010PropOp37
 70
     1
102
RTVSPost2010Prop38
140
0.0
102
RTVSPost2010PropOp38
 70
     1
102
RTVSPost2010Prop39
140
1.0
102
RTVSPost2010PropOp39
 70
     1
102
RTVSPost2010Prop40
 90
        0
102
RTVSPost2010PropOp40
 70
     1
102
RTVSPost2010Prop41ColorIndex
 90
       18
102
RTVSPost2010Prop41ColorRGB
 90
        0
102
RTVSPost2010PropOp41
 70
     1
102
RTVSPost2010Prop42
 90
       50
102
RTVSPost2010PropOp42
 70
     1
102
RTVSPost2010Prop43
 90
        3
102
RTVSPost2010PropOp43
 70
     1
102
RTVSPost2010Prop44ColorIndex
 90
        5
102
RTVSPost2010Prop44ColorRGB
 90
      255
102
RTVSPost2010PropOp44
 70
     1
102
RTVSPost2010Prop45
280
     0
102
RTVSPost2010PropOp45
 70
     1
102
RTVSPost2010Prop46
 90
       50
102
RTVSPost2010PropOp46
 70
     1
102
RTVSPost2010Prop47
 90
       50
102
RTVSPost2010PropOp47
 70
     1
102
RTVSPost2010Prop48
 90
       50
102
RTVSPost2010PropOp48
 70
     1
102
RTVSPost2010Prop49
280
     0
102
RTVSPost2010PropOp49
 70
     1
102
RTVSPost2010Prop50
 90
       50
102
RTVSPost2010PropOp50
 70
     1
102
RTVSPost2010Prop51ColorIndex
 90
      256
102
RTVSPost2010Prop51ColorRGB
 90
-16777216
102
RTVSPost2010PropOp51
 70
     0
102
RTVSPost2010Prop52
140
1.0
102
RTVSPost2010PropOp52
 70
     0
102
RTVSPost2010Prop53
 90
        2
102
RTVSPost2010PropOp53
 70
     1
102
RTVSPost2010Prop54
  1
strokes_ogs.tif
102
RTVSPost2010PropOp54
 70
     1
102
RTVSPost2010Prop55
280
     0
102
RTVSPost2010PropOp55
 70
     1
102
RTVSPost2010Prop56
140
1.0
102
RTVSPost2010PropOp56
 70
     1
102
RTVSPost2010Prop57
140
1.0
102
RTVSPost2010PropOp57
 70
     1
  0
XRECORD
  5
1D0
102
{ACAD_REACTORS
330
1CF
102
}
330
1CF
100
AcDbXrecord
280
     1
102
RTVSPost2010Prop28
280
     0
102
RTVSPost2010PropOp28
 70
     1
102
RTVSPost2010Prop29
280
     1
102
RTVSPost2010PropOp29
 70
     1
102
RTVSPost2010Prop30
280
     1
102
RTVSPost2010PropOp30
 70
     1
102
RTVSPost2010Prop31
280
     0
102
RTVSPost2010PropOp31
 70
     1
102
RTVSPost2010Prop32
280
     0
102
RTVSPost2010PropOp32
 70
     1
102
RTVSPost2010Prop33
280
     0
102
RTVSPost2010PropOp33
 70
     1
102
RTVSPost2010Prop34
280
     0
102
RTVSPost2010PropOp34
 70
     1
102
RTVSPost2010Prop35
280
     0
102
RTVSPost2010PropOp35
 70
     1
102
RTVSPost2010Prop36
280
     0
102
RTVSPost2010PropOp36
 70
     1
102
RTVSPost2010Prop37
 90
       50
102
RTVSPost2010PropOp37
 70
     1
102
RTVSPost2010Prop38
140
0.0
102
RTVSPost2010PropOp38
 70
     1
102
RTVSPost2010Prop39
140
1.0
102
RTVSPost2010PropOp39
 70
     1
102
RTVSPost2010Prop40
 90
        0
102
RTVSPost2010PropOp40
 70
     1
102
RTVSPost2010Prop41ColorIndex
 90
       18
102
RTVSPost2010Prop41ColorRGB
 90
        0
102
RTVSPost2010PropOp41
 70
     1
102
RTVSPost2010Prop42
 90
       50
102
RTVSPost2010PropOp42
 70
     1
102
RTVSPost2010Prop43
 90
        3
102
RTVSPost2010PropOp43
 70
     1
102
RTVSPost2010Prop44ColorIndex
 90
        5
102
RTVSPost2010Prop44ColorRGB
 90
      255
102
RTVSPost2010PropOp44
 70
     1
102
RTVSPost2010Prop45
280
     0
102
RTVSPost2010PropOp45
 70
     1
102
RTVSPost2010Prop46
 90
       50
102
RTVSPost2010PropOp46
 70
     1
102
RTVSPost2010Prop47
 90
       50
102
RTVSPost2010PropOp47
 70
     1
102
RTVSPost2010Prop48
 90
       50
102
RTVSPost2010PropOp48
 70
     1
102
RTVSPost2010Prop49
280
     0
102
RTVSPost2010PropOp49
 70
     1
102
RTVSPost2010Prop50
 90
       50
102
RTVSPost2010PropOp50
 70
     1
102
RTVSPost2010Prop51ColorIndex
 90
      256
102
RTVSPost2010Prop51ColorRGB
 90
-16777216
102
RTVSPost2010PropOp51
 70
     0
102
RTVSPost2010Prop52
140
1.0
102
RTVSPost2010PropOp52
 70
     0
102
RTVSPost2010Prop53
 90
        2
102
RTVSPost2010PropOp53
 70
     1
102
RTVSPost2010Prop54
  1
strokes_ogs.tif
102
RTVSPost2010PropOp54
 70
     1
102
RTVSPost2010Prop55
280
     0
102
RTVSPost2010PropOp55
 70
     1
102
RTVSPost2010Prop56
140
1.0
102
RTVSPost2010PropOp56
 70
     1
102
RTVSPost2010Prop57
140
1.0
102
RTVSPost2010PropOp57
 70
     1
  0
XRECORD
  5
1D2
102
{ACAD_REACTORS
330
1D1
102
}
330
1D1
100
AcDbXrecord
280
     1
102
RTVSPost2010Prop28
280
     0
102
RTVSPost2010PropOp28
 70
     1
102
RTVSPost2010Prop29
280
     1
102
RTVSPost2010PropOp29
 70
     1
102
RTVSPost2010Prop30
280
     1
102
RTVSPost2010PropOp30
 70
     1
102
RTVSPost2010Prop31
280
     0
102
RTVSPost2010PropOp31
 70
     1
102
RTVSPost2010Prop32
280
     0
102
RTVSPost2010PropOp32
 70
     1
102
RTVSPost2010Prop33
280
     0
102
RTVSPost2010PropOp33
 70
     1
102
RTVSPost2010Prop34
280
     0
102
RTVSPost2010PropOp34
 70
     1
102
RTVSPost2010Prop35
280
     0
102
RTVSPost2010PropOp35
 70
     1
102
RTVSPost2010Prop36
280
     0
102
RTVSPost2010PropOp36
 70
     1
102
RTVSPost2010Prop37
 90
       50
102
RTVSPost2010PropOp37
 70
     1
102
RTVSPost2010Prop38
140
0.0
102
RTVSPost2010PropOp38
 70
     1
102
RTVSPost2010Prop39
140
1.0
102
RTVSPost2010PropOp39
 70
     1
102
RTVSPost2010Prop40
 90
        0
102
RTVSPost2010PropOp40
 70
     1
102
RTVSPost2010Prop41ColorIndex
 90
       18
102
RTVSPost2010Prop41ColorRGB
 90
        0
102
RTVSPost2010PropOp41
 70
     1
102
RTVSPost2010Prop42
 90
       50
102
RTVSPost2010PropOp42
 70
     1
102
RTVSPost2010Prop43
 90
        3
102
RTVSPost2010PropOp43
 70
     1
102
RTVSPost2010Prop44ColorIndex
 90
        5
102
RTVSPost2010Prop44ColorRGB
 90
      255
102
RTVSPost2010PropOp44
 70
     1
102
RTVSPost2010Prop45
280
     0
102
RTVSPost2010PropOp45
 70
     1
102
RTVSPost2010Prop46
 90
       50
102
RTVSPost2010PropOp46
 70
     1
102
RTVSPost2010Prop47
 90
       50
102
RTVSPost2010PropOp47
 70
     1
102
RTVSPost2010Prop48
 90
       50
102
RTVSPost2010PropOp48
 70
     1
102
RTVSPost2010Prop49
280
     0
102
RTVSPost2010PropOp49
 70
     1
102
RTVSPost2010Prop50
 90
       50
102
RTVSPost2010PropOp50
 70
     1
102
RTVSPost2010Prop51ColorIndex
 90
      256
102
RTVSPost2010Prop51ColorRGB
 90
-16777216
102
RTVSPost2010PropOp51
 70
     0
102
RTVSPost2010Prop52
140
1.0
102
RTVSPost2010PropOp52
 70
     0
102
RTVSPost2010Prop53
 90
        2
102
RTVSPost2010PropOp53
 70
     1
102
RTVSPost2010Prop54
  1
strokes_ogs.tif
102
RTVSPost2010PropOp54
 70
     1
102
RTVSPost2010Prop55
280
     0
102
RTVSPost2010PropOp55
 70
     1
102
RTVSPost2010Prop56
140
1.0
102
RTVSPost2010PropOp56
 70
     1
102
RTVSPost2010Prop57
140
1.0
102
RTVSPost2010PropOp57
 70
     1
  0
XRECORD
  5
1C8
102
{ACAD_REACTORS
330
1C7
102
}
330
1C7
100
AcDbXrecord
280
     1
102
RTVSPost2010Prop28
280
     0
102
RTVSPost2010PropOp28
 70
     1
102
RTVSPost2010Prop29
280
     1
102
RTVSPost2010PropOp29
 70
     1
102
RTVSPost2010Prop30
280
     1
102
RTVSPost2010PropOp30
 70
     1
102
RTVSPost2010Prop31
280
     0
102
RTVSPost2010PropOp31
 70
     1
102
RTVSPost2010Prop32
280
     0
102
RTVSPost2010PropOp32
 70
     1
102
RTVSPost2010Prop33
280
     0
102
RTVSPost2010PropOp33
 70
     1
102
RTVSPost2010Prop34
280
     0
102
RTVSPost2010PropOp34
 70
     1
102
RTVSPost2010Prop35
280
     0
102
RTVSPost2010PropOp35
 70
     1
102
RTVSPost2010Prop36
280
     0
102
RTVSPost2010PropOp36
 70
     1
102
RTVSPost2010Prop37
 90
       50
102
RTVSPost2010PropOp37
 70
     1
102
RTVSPost2010Prop38
140
0.0
102
RTVSPost2010PropOp38
 70
     1
102
RTVSPost2010Prop39
140
1.0
102
RTVSPost2010PropOp39
 70
     1
102
RTVSPost2010Prop40
 90
        0
102
RTVSPost2010PropOp40
 70
     1
102
RTVSPost2010Prop41ColorIndex
 90
       18
102
RTVSPost2010Prop41ColorRGB
 90
        0
102
RTVSPost2010PropOp41
 70
     1
102
RTVSPost2010Prop42
 90
       50
102
RTVSPost2010PropOp42
 70
     1
102
RTVSPost2010Prop43
 90
        3
102
RTVSPost2010PropOp43
 70
     1
102
RTVSPost2010Prop44ColorIndex
 90
        5
102
RTVSPost2010Prop44ColorRGB
 90
      255
102
RTVSPost2010PropOp44
 70
     1
102
RTVSPost2010Prop45
280
     0
102
RTVSPost2010PropOp45
 70
     1
102
RTVSPost2010Prop46
 90
       50
102
RTVSPost2010PropOp46
 70
     1
102
RTVSPost2010Prop47
 90
       50
102
RTVSPost2010PropOp47
 70
     1
102
RTVSPost2010Prop48
 90
       50
102
RTVSPost2010PropOp48
 70
     1
102
RTVSPost2010Prop49
280
     0
102
RTVSPost2010PropOp49
 70
     1
102
RTVSPost2010Prop50
 90
       50
102
RTVSPost2010PropOp50
 70
     1
102
RTVSPost2010Prop51ColorIndex
 90
      256
102
RTVSPost2010Prop51ColorRGB
 90
-16777216
102
RTVSPost2010PropOp51
 70
     0
102
RTVSPost2010Prop52
140
1.0
102
RTVSPost2010PropOp52
 70
     0
102
RTVSPost2010Prop53
 90
        2
102
RTVSPost2010PropOp53
 70
     1
102
RTVSPost2010Prop54
  1
strokes_ogs.tif
102
RTVSPost2010PropOp54
 70
     1
102
RTVSPost2010Prop55
280
     0
102
RTVSPost2010PropOp55
 70
     1
102
RTVSPost2010Prop56
140
1.0
102
RTVSPost2010PropOp56
 70
     1
102
RTVSPost2010Prop57
140
1.0
102
RTVSPost2010PropOp57
 70
     1
  0
XRECORD
  5
1BC
102
{ACAD_REACTORS
330
1BB
102
}
330
1BB
100
AcDbXrecord
280
     1
102
RTVSPost2010Prop28
280
     0
102
RTVSPost2010PropOp28
 70
     1
102
RTVSPost2010Prop29
280
     1
102
RTVSPost2010PropOp29
 70
     1
102
RTVSPost2010Prop30
280
     1
102
RTVSPost2010PropOp30
 70
     1
102
RTVSPost2010Prop31
280
     0
102
RTVSPost2010PropOp31
 70
     1
102
RTVSPost2010Prop32
280
     0
102
RTVSPost2010PropOp32
 70
     1
102
RTVSPost2010Prop33
280
     0
102
RTVSPost2010PropOp33
 70
     1
102
RTVSPost2010Prop34
280
     0
102
RTVSPost2010PropOp34
 70
     1
102
RTVSPost2010Prop35
280
     0
102
RTVSPost2010PropOp35
 70
     1
102
RTVSPost2010Prop36
280
     0
102
RTVSPost2010PropOp36
 70
     1
102
RTVSPost2010Prop37
 90
       50
102
RTVSPost2010PropOp37
 70
     1
102
RTVSPost2010Prop38
140
0.0
102
RTVSPost2010PropOp38
 70
     1
102
RTVSPost2010Prop39
140
1.0
102
RTVSPost2010PropOp39
 70
     1
102
RTVSPost2010Prop40
 90
        0
102
RTVSPost2010PropOp40
 70
     1
102
RTVSPost2010Prop41ColorIndex
 90
       18
102
RTVSPost2010Prop41ColorRGB
 90
        0
102
RTVSPost2010PropOp41
 70
     1
102
RTVSPost2010Prop42
 90
       50
102
RTVSPost2010PropOp42
 70
     1
102
RTVSPost2010Prop43
 90
        3
102
RTVSPost2010PropOp43
 70
     1
102
RTVSPost2010Prop44ColorIndex
 90
        5
102
RTVSPost2010Prop44ColorRGB
 90
      255
102
RTVSPost2010PropOp44
 70
     1
102
RTVSPost2010Prop45
280
     0
102
RTVSPost2010PropOp45
 70
     1
102
RTVSPost2010Prop46
 90
       50
102
RTVSPost2010PropOp46
 70
     1
102
RTVSPost2010Prop47
 90
       50
102
RTVSPost2010PropOp47
 70
     1
102
RTVSPost2010Prop48
 90
       50
102
RTVSPost2010PropOp48
 70
     1
102
RTVSPost2010Prop49
280
     0
102
RTVSPost2010PropOp49
 70
     1
102
RTVSPost2010Prop50
 90
       50
102
RTVSPost2010PropOp50
 70
     1
102
RTVSPost2010Prop51ColorIndex
 90
      256
102
RTVSPost2010Prop51ColorRGB
 90
-16777216
102
RTVSPost2010PropOp51
 70
     0
102
RTVSPost2010Prop52
140
1.0
102
RTVSPost2010PropOp52
 70
     0
102
RTVSPost2010Prop53
 90
        2
102
RTVSPost2010PropOp53
 70
     1
102
RTVSPost2010Prop54
  1
strokes_ogs.tif
102
RTVSPost2010PropOp54
 70
     1
102
RTVSPost2010Prop55
280
     0
102
RTVSPost2010PropOp55
 70
     1
102
RTVSPost2010Prop56
140
1.0
102
RTVSPost2010PropOp56
 70
     1
102
RTVSPost2010Prop57
140
1.0
102
RTVSPost2010PropOp57
 70
     1
  0
XRECORD
  5
1D4
102
{ACAD_REACTORS
330
1D3
102
}
330
1D3
100
AcDbXrecord
280
     1
102
RTVSPost2010Prop28
280
     0
102
RTVSPost2010PropOp28
 70
     1
102
RTVSPost2010Prop29
280
     1
102
RTVSPost2010PropOp29
 70
     1
102
RTVSPost2010Prop30
280
     1
102
RTVSPost2010PropOp30
 70
     1
102
RTVSPost2010Prop31
280
     0
102
RTVSPost2010PropOp31
 70
     1
102
RTVSPost2010Prop32
280
     0
102
RTVSPost2010PropOp32
 70
     1
102
RTVSPost2010Prop33
280
     0
102
RTVSPost2010PropOp33
 70
     1
102
RTVSPost2010Prop34
280
     0
102
RTVSPost2010PropOp34
 70
     1
102
RTVSPost2010Prop35
280
     0
102
RTVSPost2010PropOp35
 70
     1
102
RTVSPost2010Prop36
280
     0
102
RTVSPost2010PropOp36
 70
     1
102
RTVSPost2010Prop37
 90
       50
102
RTVSPost2010PropOp37
 70
     1
102
RTVSPost2010Prop38
140
0.0
102
RTVSPost2010PropOp38
 70
     1
102
RTVSPost2010Prop39
140
1.0
102
RTVSPost2010PropOp39
 70
     1
102
RTVSPost2010Prop40
 90
        0
102
RTVSPost2010PropOp40
 70
     1
102
RTVSPost2010Prop41ColorIndex
 90
       18
102
RTVSPost2010Prop41ColorRGB
 90
        0
102
RTVSPost2010PropOp41
 70
     1
102
RTVSPost2010Prop42
 90
       50
102
RTVSPost2010PropOp42
 70
     1
102
RTVSPost2010Prop43
 90
        3
102
RTVSPost2010PropOp43
 70
     1
102
RTVSPost2010Prop44ColorIndex
 90
        5
102
RTVSPost2010Prop44ColorRGB
 90
      255
102
RTVSPost2010PropOp44
 70
     1
102
RTVSPost2010Prop45
280
     0
102
RTVSPost2010PropOp45
 70
     1
102
RTVSPost2010Prop46
 90
       50
102
RTVSPost2010PropOp46
 70
     1
102
RTVSPost2010Prop47
 90
       50
102
RTVSPost2010PropOp47
 70
     1
102
RTVSPost2010Prop48
 90
       50
102
RTVSPost2010PropOp48
 70
     1
102
RTVSPost2010Prop49
280
     0
102
RTVSPost2010PropOp49
 70
     1
102
RTVSPost2010Prop50
 90
       50
102
RTVSPost2010PropOp50
 70
     1
102
RTVSPost2010Prop51ColorIndex
 90
      256
102
RTVSPost2010Prop51ColorRGB
 90
-16777216
102
RTVSPost2010PropOp51
 70
     0
102
RTVSPost2010Prop52
140
1.0
102
RTVSPost2010PropOp52
 70
     0
102
RTVSPost2010Prop53
 90
        2
102
RTVSPost2010PropOp53
 70
     1
102
RTVSPost2010Prop54
  1
strokes_ogs.tif
102
RTVSPost2010PropOp54
 70
     1
102
RTVSPost2010Prop55
280
     0
102
RTVSPost2010PropOp55
 70
     1
102
RTVSPost2010Prop56
140
1.0
102
RTVSPost2010PropOp56
 70
     1
102
RTVSPost2010Prop57
140
1.0
102
RTVSPost2010PropOp57
 70
     1
  0
ENDSEC
  0
EOF
