  0
SECTION
  2
HEADER
  9
$ACADVER
  1
AC1032
  9
$ACADMAINTVER
 90
      251
  9
$DWGCODEPAGE
  3
ANSI_1252
  9
$REQUIREDVERSIONS
160
                 0
  9
$INSBASE
 10
0.0
 20
0.0
 30
0.0
  9
$EXTMIN
 10
1.000000000000000E+20
 20
1.000000000000000E+20
 30
1.000000000000000E+20
  9
$EXTMAX
 10
-1.000000000000000E+20
 20
-1.000000000000000E+20
 30
-1.000000000000000E+20
  9
$LIMMIN
 10
0.0
 20
0.0
  9
$LIMMAX
 10
12.0
 20
9.0
  9
$ORTHOMODE
 70
     0
  9
$REGENMODE
 70
     1
  9
$FILLMODE
 70
     1
  9
$QTEXTMODE
 70
     0
  9
$MIRRTEXT
 70
     0
  9
$LTSCALE
 40
1.0
  9
$ATTMODE
 70
     1
  9
$TEXTSIZE
 40
0.2
  9
$TRACEWID
 40
0.05
  9
$TEXTSTYLE
  7
Standard
  9
$CLAYER
  8
0
  9
$CELTYPE
  6
ByLayer
  9
$CECOLOR
 62
   256
  9
$CELTSCALE
 40
1.0
  9
$DISPSILH
 70
     0
  9
$DIMSCALE
 40
1.0
  9
$DIMASZ
 40
0.18
  9
$DIMEXO
 40
0.0625
  9
$DIMDLI
 40
0.38
  9
$DIMRND
 40
0.0
  9
$DIMDLE
 40
0.0
  9
$DIMEXE
 40
0.18
  9
$DIMTP
 40
0.0
  9
$DIMTM
 40
0.0
  9
$DIMTXT
 40
0.18
  9
$DIMCEN
 40
0.09
  9
$DIMTSZ
 40
0.0
  9
$DIMTOL
 70
     0
  9
$DIMLIM
 70
     0
  9
$DIMTIH
 70
     1
  9
$DIMTOH
 70
     1
  9
$DIMSE1
 70
     0
  9
$DIMSE2
 70
     0
  9
$DIMTAD
 70
     0
  9
$DIMZIN
 70
     0
  9
$DIMBLK
  1

  9
$DIMASO
 70
     1
  9
$DIMSHO
 70
     1
  9
$DIMPOST
  1

  9
$DIMAPOST
  1

  9
$DIMALT
 70
     0
  9
$DIMALTD
 70
     2
  9
$DIMALTF
 40
25.4
  9
$DIMLFAC
 40
1.0
  9
$DIMTOFL
 70
     0
  9
$DIMTVP
 40
0.0
  9
$DIMTIX
 70
     0
  9
$DIMSOXD
 70
     0
  9
$DIMSAH
 70
     0
  9
$DIMBLK1
  1

  9
$DIMBLK2
  1

  9
$DIMSTYLE
  2
Standard
  9
$DIMCLRD
 70
     0
  9
$DIMCLRE
 70
     0
  9
$DIMCLRT
 70
     0
  9
$DIMTFAC
 40
1.0
  9
$DIMGAP
 40
0.09
  9
$DIMJUST
 70
     0
  9
$DIMSD1
 70
     0
  9
$DIMSD2
 70
     0
  9
$DIMTOLJ
 70
     1
  9
$DIMTZIN
 70
     0
  9
$DIMALTZ
 70
     0
  9
$DIMALTTZ
 70
     0
  9
$DIMUPT
 70
     0
  9
$DIMDEC
 70
     4
  9
$DIMTDEC
 70
     4
  9
$DIMALTU
 70
     2
  9
$DIMALTTD
 70
     2
  9
$DIMTXSTY
  7
Standard
  9
$DIMAUNIT
 70
     0
  9
$DIMADEC
 70
     0
  9
$DIMALTRND
 40
0.0
  9
$DIMAZIN
 70
     0
  9
$DIMDSEP
 70
    46
  9
$DIMATFIT
 70
     3
  9
$DIMFRAC
 70
     0
  9
$DIMLDRBLK
  1

  9
$DIMLUNIT
 70
     2
  9
$DIMLWD
 70
    -2
  9
$DIMLWE
 70
    -2
  9
$DIMTMOVE
 70
     0
  9
$DIMFXL
 40
1.0
  9
$DIMFXLON
 70
     0
  9
$DIMJOGANG
 40
0.7853981633974483
  9
$DIMTFILL
 70
     0
  9
$DIMTFILLCLR
 70
     0
  9
$DIMARCSYM
 70
     0
  9
$DIMLTYPE
  6

  9
$DIMLTEX1
  6

  9
$DIMLTEX2
  6

  9
$DIMTXTDIRECTION
 70
     0
  9
$LUNITS
 70
     2
  9
$LUPREC
 70
     4
  9
$SKETCHINC
 40
0.1
  9
$FILLETRAD
 40
0.0
  9
$AUNITS
 70
     0
  9
$AUPREC
 70
     0
  9
$MENU
  1
.
  9
$ELEVATION
 40
0.0
  9
$PELEVATION
 40
0.0
  9
$THICKNESS
 40
0.0
  9
$LIMCHECK
 70
     0
  9
$CHAMFERA
 40
0.0
  9
$CHAMFERB
 40
0.0
  9
$CHAMFERC
 40
0.0
  9
$CHAMFERD
 40
0.0
  9
$SKPOLY
 70
     0
  9
$TDCREATE
 40
2460473.556134259
  9
$TDUCREATE
 40
2460473.472800926
  9
$TDUPDATE
 40
2460473.556134259
  9
$TDUUPDATE
 40
2460473.472800926
  9
$TDINDWG
 40
0.0000000000
  9
$TDUSRTIMER
 40
0.0000000000
  9
$USRTIMER
 70
     1
  9
$ANGBASE
 50
0.0
  9
$ANGDIR
 70
     0
  9
$PDMODE
 70
     0
  9
$PDSIZE
 40
0.0
  9
$PLINEWID
 40
0.0
  9
$SPLFRAME
 70
     0
  9
$SPLINETYPE
 70
     6
  9
$SPLINESEGS
 70
     8
  9
$HANDSEED
  5
BD
  9
$SURFTAB1
 70
     6
  9
$SURFTAB2
 70
     6
  9
$SURFTYPE
 70
     6
  9
$SURFU
 70
     6
  9
$SURFV
 70
     6
  9
$UCSBASE
  2

  9
$UCSNAME
  2

  9
$UCSORG
 10
0.0
 20
0.0
 30
0.0
  9
$UCSXDIR
 10
1.0
 20
0.0
 30
0.0
  9
$UCSYDIR
 10
0.0
 20
1.0
 30
0.0
  9
$UCSORTHOREF
  2

  9
$UCSORTHOVIEW
 70
     0
  9
$UCSORGTOP
 10
0.0
 20
0.0
 30
0.0
  9
$UCSORGBOTTOM
 10
0.0
 20
0.0
 30
0.0
  9
$UCSORGLEFT
 10
0.0
 20
0.0
 30
0.0
  9
$UCSORGRIGHT
 10
0.0
 20
0.0
 30
0.0
  9
$UCSORGFRONT
 10
0.0
 20
0.0
 30
0.0
  9
$UCSORGBACK
 10
0.0
 20
0.0
 30
0.0
  9
$PUCSBASE
  2

  9
$PUCSNAME
  2

  9
$PUCSORG
 10
0.0
 20
0.0
 30
0.0
  9
$PUCSXDIR
 10
1.0
 20
0.0
 30
0.0
  9
$PUCSYDIR
 10
0.0
 20
1.0
 30
0.0
  9
$PUCSORTHOREF
  2

  9
$PUCSORTHOVIEW
 70
     0
  9
$PUCSORGTOP
 10
0.0
 20
0.0
 30
0.0
  9
$PUCSORGBOTTOM
 10
0.0
 20
0.0
 30
0.0
  9
$PUCSORGLEFT
 10
0.0
 20
0.0
 30
0.0
  9
$PUCSORGRIGHT
 10
0.0
 20
0.0
 30
0.0
  9
$PUCSORGFRONT
 10
0.0
 20
0.0
 30
0.0
  9
$PUCSORGBACK
 10
0.0
 20
0.0
 30
0.0
  9
$USERI1
 70
     0
  9
$USERI2
 70
     0
  9
$USERI3
 70
     0
  9
$USERI4
 70
     0
  9
$USERI5
 70
     0
  9
$USERR1
 40
0.0
  9
$USERR2
 40
0.0
  9
$USERR3
 40
0.0
  9
$USERR4
 40
0.0
  9
$USERR5
 40
0.0
  9
$WORLDVIEW
 70
     1
  9
$SHADEDGE
 70
     3
  9
$SHADEDIF
 70
    70
  9
$TILEMODE
 70
     1
  9
$MAXACTVP
 70
    64
  9
$PINSBASE
 10
0.0
 20
0.0
 30
0.0
  9
$PLIMCHECK
 70
     0
  9
$PEXTMIN
 10
1.000000000000000E+20
 20
1.000000000000000E+20
 30
1.000000000000000E+20
  9
$PEXTMAX
 10
-1.000000000000000E+20
 20
-1.000000000000000E+20
 30
-1.000000000000000E+20
  9
$PLIMMIN
 10
0.0
 20
0.0
  9
$PLIMMAX
 10
12.0
 20
9.0
  9
$UNITMODE
 70
     0
  9
$VISRETAIN
 70
     1
  9
$PLINEGEN
 70
     0
  9
$PSLTSCALE
 70
     1
  9
$TREEDEPTH
 70
  3020
  9
$CMLSTYLE
  2
Standard
  9
$CMLJUST
 70
     0
  9
$CMLSCALE
 40
1.0
  9
$PROXYGRAPHICS
 70
     1
  9
$MEASUREMENT
 70
     0
  9
$CELWEIGHT
370
    -1
  9
$ENDCAPS
280
     0
  9
$JOINSTYLE
280
     0
  9
$LWDISPLAY
290
     1
  9
$INSUNITS
 70
     4
  9
$HYPERLINKBASE
  1

  9
$STYLESHEET
  1

  9
$XEDIT
290
     1
  9
$CEPSNTYPE
380
     0
  9
$PSTYLEMODE
290
     1
  9
$FINGERPRINTGUID
  2
{D818C729-840E-AD4E-9C9C-A4950D818ECD}
  9
$VERSIONGUID
  2
{2E64E1C5-4DA5-1F43-9E65-B8F4E01703AB}
  9
$EXTNAMES
290
     1
  9
$PSVPSCALE
 40
0.0
  9
$OLESTARTUP
290
     0
  9
$SORTENTS
280
   127
  9
$INDEXCTL
280
     0
  9
$HIDETEXT
280
     1
  9
$XCLIPFRAME
280
     2
  9
$HALOGAP
280
     0
  9
$OBSCOLOR
 70
   257
  9
$OBSLTYPE
280
     0
  9
$INTERSECTIONDISPLAY
280
     0
  9
$INTERSECTIONCOLOR
 70
   257
  9
$DIMASSOC
280
     2
  9
$PROJECTNAME
  1

  9
$CAMERADISPLAY
290
     0
  9
$LENSLENGTH
 40
50.0
  9
$CAMERAHEIGHT
 40
0.0
  9
$STEPSPERSEC
 40
2.0
  9
$STEPSIZE
 40
6.0
  9
$3DDWFPREC
 40
2.0
  9
$PSOLWIDTH
 40
0.25
  9
$PSOLHEIGHT
 40
4.0
  9
$LOFTANG1
 40
1.570796326794896
  9
$LOFTANG2
 40
1.570796326794896
  9
$LOFTMAG1
 40
0.0
  9
$LOFTMAG2
 40
0.0
  9
$LOFTPARAM
 70
     7
  9
$LOFTNORMALS
280
     1
  9
$LATITUDE
 40
37.795
  9
$LONGITUDE
 40
-122.394
  9
$NORTHDIRECTION
 40
0.0
  9
$TIMEZONE
 70
 -8000
  9
$LIGHTGLYPHDISPLAY
280
     1
  9
$TILEMODELIGHTSYNCH
280
     1
  9
$CMATERIAL
347
11
  9
$SOLIDHIST
280
     0
  9
$SHOWHIST
280
     1
  9
$DWFFRAME
280
     2
  9
$DGNFRAME
280
     0
  9
$REALWORLDSCALE
290
     1
  9
$INTERFERECOLOR
 62
     1
  9
$INTERFEREOBJVS
345
33
  9
$INTERFEREVPVS
346
30
  9
$CSHADOW
280
     0
  9
$SHADOWPLANELOCATION
 40
0.0
  0
ENDSEC
  0
SECTION
  2
CLASSES
  0
CLASS
  1
ACDBDICTIONARYWDFLT
  2
AcDbDictionaryWithDefault
  3
ObjectDBX Classes
 90
        0
 91
        1
280
     0
281
     0
  0
CLASS
  1
MATERIAL
  2
AcDbMaterial
  3
ObjectDBX Classes
 90
     1153
 91
        3
280
     0
281
     0
  0
CLASS
  1
VISUALSTYLE
  2
AcDbVisualStyle
  3
ObjectDBX Classes
 90
     4095
 91
       24
280
     0
281
     0
  0
CLASS
  1
SCALE
  2
AcDbScale
  3
ObjectDBX Classes
 90
     1153
 91
       17
280
     0
281
     0
  0
CLASS
  1
TABLESTYLE
  2
AcDbTableStyle
  3
ObjectDBX Classes
 90
     4095
 91
        1
280
     0
281
     0
  0
CLASS
  1
MLEADERSTYLE
  2
AcDbMLeaderStyle
  3
ACDB_MLEADERSTYLE_CLASS
 90
     4095
 91
        1
280
     0
281
     0
  0
CLASS
  1
ACDBSECTIONVIEWSTYLE
  2
AcDbSectionViewStyle
  3
ObjectDBX Classes
 90
     1025
 91
        1
280
     0
281
     0
  0
CLASS
  1
ACDBDETAILVIEWSTYLE
  2
AcDbDetailViewStyle
  3
ObjectDBX Classes
 90
     1025
 91
        1
280
     0
281
     0
  0
CLASS
  1
DICTIONARYVAR
  2
AcDbDictionaryVar
  3
ObjectDBX Classes
 90
        0
 91
        5
280
     0
281
     0
  0
CLASS
  1
CELLSTYLEMAP
  2
AcDbCellStyleMap
  3
ObjectDBX Classes
 90
     1152
 91
        1
280
     0
281
     0
  0
ENDSEC
  0
SECTION
  2
TABLES
  0
TABLE
  2
VPORT
  5
8
330
0
100
AcDbSymbolTable
 70
     1
  0
VPORT
  5
57
330
8
100
AcDbSymbolTableRecord
100
AcDbViewportTableRecord
  2
*Active
 70
     0
 10
0.0
 20
0.0
 11
1.0
 21
1.0
 12
0.0
 22
0.0
 13
0.0
 23
0.0
 14
1.0
 24
1.0
 15
0.0
 25
0.0
 16
0.0
 26
0.0
 36
1.0
 17
104.9999970067632
 27
-148.5000119155931
 37
0.0
 40
302.9400243078099
 41
0.7070706301791066
 42
50.0
 43
0.0
 44
0.0
 50
0.0
 51
0.0
 71
     0
 72
   100
 73
     1
 74
     1
 75
     0
 76
     0
 77
     0
 78
     0
281
     0
 65
     1
110
0.0
120
0.0
130
0.0
111
1.0
121
0.0
131
0.0
112
0.0
122
1.0
132
0.0
 79
     0
146
0.0
 60
     3
 61
     5
292
     1
282
     1
141
0.0
142
0.0
 63
   250
421
  3355443
  0
ENDTAB
  0
TABLE
  2
LTYPE
  5
5
330
0
100
AcDbSymbolTable
 70
     1
  0
LTYPE
  5
5B
330
5
100
AcDbSymbolTableRecord
100
AcDbLinetypeTableRecord
  2
ByBlock
 70
     0
  3

 72
    65
 73
     0
 40
0.0
  0
LTYPE
  5
5C
330
5
100
AcDbSymbolTableRecord
100
AcDbLinetypeTableRecord
  2
ByLayer
 70
     0
  3

 72
    65
 73
     0
 40
0.0
  0
LTYPE
  5
5D
330
5
100
AcDbSymbolTableRecord
100
AcDbLinetypeTableRecord
  2
Continuous
 70
     0
  3
Solid line
 72
    65
 73
     0
 40
0.0
  0
ENDTAB
  0
TABLE
  2
LAYER
  5
2
330
0
100
AcDbSymbolTable
 70
     3
  0
LAYER
  5
54
330
2
100
AcDbSymbolTableRecord
100
AcDbLayerTableRecord
  2
0
 70
     0
 62
     7
  6
Continuous
370
    -3
390
F
347
21
348
0
  0
LAYER
  5
78
330
2
100
AcDbSymbolTableRecord
100
AcDbLayerTableRecord
  2
Capa 1
 70
     0
 62
     7
  6
Continuous
370
     0
390
F
347
21
348
0
  0
LAYER
  5
81
330
2
100
AcDbSymbolTableRecord
100
AcDbLayerTableRecord
  2
Capa 2
 70
     0
 62
     7
  6
Continuous
370
     0
390
F
347
21
348
0
  0
ENDTAB
  0
TABLE
  2
STYLE
  5
3
330
0
100
AcDbSymbolTable
 70
     2
  0
STYLE
  5
55
330
3
100
AcDbSymbolTableRecord
100
AcDbTextStyleTableRecord
  2
Standard
 70
     0
 40
0.0
 41
1.0
 50
0.0
 71
     0
 42
0.2
  3
txt
  4

  0
STYLE
  5
5A
330
3
100
AcDbSymbolTableRecord
100
AcDbTextStyleTableRecord
  2
Annotative
 70
     0
 40
0.0
 41
1.0
 50
0.0
 71
     0
 42
0.2
  3
txt
  4

1001
AcadAnnotative
1000
AnnotativeData
1002
{
1070
     1
1070
     1
1002
}
  0
ENDTAB
  0
TABLE
  2
VIEW
  5
6
330
0
100
AcDbSymbolTable
 70
     0
  0
ENDTAB
  0
TABLE
  2
UCS
  5
7
330
0
100
AcDbSymbolTable
 70
     0
  0
ENDTAB
  0
TABLE
  2
APPID
  5
9
330
0
100
AcDbSymbolTable
 70
     2
  0
APPID
  5
56
330
9
100
AcDbSymbolTableRecord
100
AcDbRegAppTableRecord
  2
ACAD
 70
     0
  0
APPID
  5
5E
330
9
100
AcDbSymbolTableRecord
100
AcDbRegAppTableRecord
  2
AcadAnnotative
 70
     0
  0
ENDTAB
  0
TABLE
  2
DIMSTYLE
  5
A
330
0
100
AcDbSymbolTable
 70
     2
100
AcDbDimStyleTable
 71
     0
  0
DIMSTYLE
105
58
330
A
100
AcDbSymbolTableRecord
100
AcDbDimStyleTableRecord
  2
Standard
 70
     0
340
55
  0
DIMSTYLE
105
59
330
A
100
AcDbSymbolTableRecord
100
AcDbDimStyleTableRecord
  2
Annotative
 70
     0
340
55
1001
AcadAnnotative
1000
AnnotativeData
1002
{
1070
     1
1070
     1
1002
}
  0
ENDTAB
  0
TABLE
  2
BLOCK_RECORD
  5
1
330
0
100
AcDbSymbolTable
 70
     1
  0
BLOCK_RECORD
  5
70
330
1
100
AcDbSymbolTableRecord
100
AcDbBlockTableRecord
  2
*Model_Space
340
73
 70
     0
280
     1
281
     0
  0
BLOCK_RECORD
  5
6C
330
1
100
AcDbSymbolTableRecord
100
AcDbBlockTableRecord
  2
*Paper_Space
340
6F
 70
     0
280
     1
281
     0
  0
BLOCK_RECORD
  5
74
330
1
100
AcDbSymbolTableRecord
100
AcDbBlockTableRecord
  2
*Paper_Space0
340
77
 70
     0
280
     1
281
     0
  0
ENDTAB
  0
ENDSEC
  0
SECTION
  2
BLOCKS
  0
BLOCK
  5
71
330
70
100
AcDbEntity
  8
0
100
AcDbBlockBegin
  2
*Model_Space
 70
     0
 10
0.0
 20
0.0
 30
0.0
  3
*Model_Space
  1

  0
ENDBLK
  5
72
330
70
100
AcDbEntity
  8
0
100
AcDbBlockEnd
  0
BLOCK
  5
6D
330
6C
100
AcDbEntity
 67
     1
  8
0
100
AcDbBlockBegin
  2
*Paper_Space
 70
     0
 10
0.0
 20
0.0
 30
0.0
  3
*Paper_Space
  1

  0
ENDBLK
  5
6E
330
6C
100
AcDbEntity
 67
     1
  8
0
100
AcDbBlockEnd
  0
BLOCK
  5
75
330
74
100
AcDbEntity
 67
     1
  8
0
100
AcDbBlockBegin
  2
*Paper_Space0
 70
     0
 10
0.0
 20
0.0
 30
0.0
  3
*Paper_Space0
  1

  0
ENDBLK
  5
76
330
74
100
AcDbEntity
 67
     1
  8
0
100
AcDbBlockEnd
  0
ENDSEC
  0
SECTION
  2
ENTITIES
  0
LWPOLYLINE
  5
79
330
70
100
AcDbEntity
  8
Capa 1
 62
   250
420
  4078912
370
     9
100
AcDbPolyline
 90
        4
 70
     1
 43
0.0
 10
142.2172315968209
 20
-149.936405926879
 10
96.53326268985995
 20
-149.936405926879
 10
96.53326268985995
 20
-124.6936115728042
 10
142.2172315968209
 20
-124.6936115728042
  0
LWPOLYLINE
  5
7A
330
70
100
AcDbEntity
  8
Capa 1
 62
   250
420
  4078912
370
     9
100
AcDbPolyline
 90
        4
 70
     1
 43
0.0
 10
142.1716436133992
 20
-175.5157727622535
 10
96.48767470643598
 20
-175.5157727622535
 10
96.48767470643598
 20
-150.272978408179
 10
142.1716436133992
 20
-150.272978408179
  0
LWPOLYLINE
  5
7B
330
70
100
AcDbEntity
  8
Capa 1
 62
   250
420
  4078912
370
     9
100
AcDbPolyline
 90
        4
 70
     1
 43
0.0
 10
91.74085313054254
 20
-175.8791778032894
 10
41.11218819382762
 20
-175.8791778032894
 10
41.11218819382762
 20
-125.0251822889072
 10
91.74085313054254
 20
-125.0251822889072
  0
LWPOLYLINE
  5
7C
330
70
100
AcDbEntity
  8
Capa 1
 62
   250
420
  4078912
370
     9
100
AcDbPolyline
 90
        4
 70
     1
 43
0.0
 10
165.6324939266598
 20
-149.936405926879
 10
142.7905094731809
 20
-149.936405926879
 10
142.7905094731809
 20
-124.6936115728042
 10
165.6324939266598
 20
-124.6936115728042
  0
LWPOLYLINE
  5
7D
330
70
100
AcDbEntity
  8
Capa 1
 62
   250
420
  4078912
370
     9
100
AcDbPolyline
 90
        4
 70
     1
 43
0.0
 10
165.6096999349486
 20
-175.5157727622535
 10
142.7677154814659
 20
-175.5157727622535
 10
142.7677154814659
 20
-150.272978408179
 10
165.6096999349486
 20
-150.272978408179
  0
LINE
  5
7E
330
70
100
AcDbEntity
  8
Capa 1
 62
   250
420
  4078912
370
     9
100
AcDbLine
 10
167.3316282824597
 20
-175.7201855133341
 30
0.0
 11
167.3316282824597
 21
-124.8434797683889
 31
0.0
  0
LINE
  5
7F
330
70
100
AcDbEntity
  8
Capa 1
 62
   250
420
  4078912
370
     9
100
AcDbLine
 10
96.46764528057342
 20
-123.0264545632127
 30
0.0
 11
165.5146030772816
 21
-123.0264545632127
 31
0.0
  0
LINE
  5
80
330
70
100
AcDbEntity
  8
Capa 1
 62
   250
420
  4078912
370
     9
100
AcDbLine
 10
41.23007904320647
 20
-123.0264545632127
 30
0.0
 11
91.01656966504457
 21
-123.0264545632127
 31
0.0
  0
MTEXT
  5
82
330
70
100
AcDbEntity
  8
Capa 2
100
AcDbMText
 10
117.054870576205
 20
-121.3155924175878
 30
0.0
 40
0.2
 41
0.0
 46
0.0
 71
     7
 72
     1
  1
\C251;\c5920856;\FArial Bold|b1|i0|c1;\H2.747433;\W1.000000;595 / 795 / 995 
 73
     1
 44
1.0
  0
MTEXT
  5
83
330
70
100
AcDbEntity
  8
Capa 2
100
AcDbMText
 10
60.62730711374943
 20
-121.3155924175878
 30
0.0
 40
0.2
 41
0.0
 46
0.0
 71
     7
 72
     1
  1
\C251;\c5920856;\FArial Bold|b1|i0|c1;\H2.747433;\W1.000000;450
 73
     1
 44
1.0
  0
MTEXT
  5
84
330
70
100
AcDbEntity
  8
Capa 2
100
AcDbMText
 10
168.9219888900612
 20
-153.6598713808558
 30
0.0
 40
0.2
 41
0.0
 46
0.0
 71
     7
 72
     1
  1
\C251;\c5920856;\FArial Bold|b1|i0|c1;\H2.747433;\W1.000000;565
 73
     1
 44
1.0
  0
LINE
  5
85
330
70
100
AcDbEntity
  8
Capa 2
 62
   250
420
  4078912
370
     9
100
AcDbLine
 10
167.5694444025521
 20
-109.3995948335231
 30
0.0
 11
167.5694444025521
 21
-74.46800138049306
 31
0.0
  0
MTEXT
  5
86
330
70
100
AcDbEntity
  8
Capa 2
100
AcDbMText
 10
170.6354663422288
 20
-93.60210852932029
 30
0.0
 40
0.2
 41
0.0
 46
0.0
 71
     7
 72
     1
  1
\C251;\c5920856;\FArial Bold|b1|i0|c1;\H2.747433;\W1.000000;460
 73
     1
 44
1.0
  0
LINE
  5
87
330
70
100
AcDbEntity
  8
Capa 2
 62
   178
420
      519
370
    13
100
AcDbLine
 10
164.5371430259002
 20
-108.0731157723543
 30
0.0
 11
98.54265315232794
 21
-108.0731157723543
 31
0.0
  0
LINE
  5
88
330
70
100
AcDbEntity
  8
Capa 2
 62
   178
420
      519
370
    13
100
AcDbLine
 10
98.54212399629552
 20
-108.0731157723543
 30
0.0
 11
98.54212399629552
 21
-75.51900310489684
 31
0.0
  0
LINE
  5
89
330
70
100
AcDbEntity
  8
Capa 2
 62
   178
420
      519
370
    13
100
AcDbLine
 10
164.5371430259002
 20
-75.51876039684923
 30
0.0
 11
164.5371430259002
 21
-108.0728747815812
 31
0.0
  0
SPLINE
  5
8A
330
70
100
AcDbEntity
  8
Capa 2
 62
   178
420
      519
370
    13
100
AcDbSpline
210
0.0
220
0.0
230
1.0
 70
     8
 71
     3
 72
    14
 73
    10
 74
     0
 42
0.0000000001
 43
0.0000000001
 40
0.0
 40
0.0
 40
0.0
 40
0.0
 40
1.0
 40
1.0
 40
1.0
 40
2.0
 40
2.0
 40
2.0
 40
3.0
 40
3.0
 40
3.0
 40
3.0
 10
131.5397662753969
 20
-79.20597875932928
 30
0.0
 10
132.0594063710877
 20
-79.20597875932928
 30
0.0
 10
132.5391753519054
 20
-78.95508275014441
 30
0.0
 10
132.7996646078592
 20
-78.54812775634615
 30
0.0
 10
133.0588205173568
 20
-78.14237027489255
 30
0.0
 10
133.0588205173568
 20
-77.6405782565225
 30
0.0
 10
132.7996646078592
 20
-77.23362097302528
 30
0.0
 10
132.5391753519054
 20
-76.82786578127161
 30
0.0
 10
132.0594063710877
 20
-76.57816957413068
 30
0.0
 10
131.5397662753969
 20
-76.57816957413068
 30
0.0
  0
SPLINE
  5
8B
330
70
100
AcDbEntity
  8
Capa 2
 62
   178
420
      519
370
    13
100
AcDbSpline
210
0.0
220
0.0
230
1.0
 70
     8
 71
     3
 72
    17
 73
    13
 74
     0
 42
0.0000000001
 43
0.0000000001
 40
0.0
 40
0.0
 40
0.0
 40
0.0
 40
1.0
 40
1.0
 40
1.0
 40
2.0
 40
2.0
 40
2.0
 40
3.0
 40
3.0
 40
3.0
 40
4.0
 40
4.0
 40
4.0
 40
4.0
 10
131.5397662753969
 20
-76.57732925476054
 30
0.0
 10
131.1543531028974
 20
-76.57732925476054
 30
0.0
 10
130.7848893903007
 20
-76.71538433961206
 30
0.0
 10
130.5111148324797
 20
-76.96267865296579
 30
0.0
 10
130.2373377397787
 20
-77.20877316427494
 30
0.0
 10
130.0845022684063
 20
-77.54370111053629
 30
0.0
 10
130.0845022684063
 20
-77.89183603807981
 30
0.0
 10
130.0845022684063
 20
-78.23996867592502
 30
0.0
 10
130.2373377397787
 20
-78.57489891188468
 30
0.0
 10
130.5111148324797
 20
-78.82099342319448
 30
0.0
 10
130.7848893903007
 20
-79.06708793450267
 30
0.0
 10
131.1543531028974
 20
-79.20514072965715
 30
0.0
 10
131.5397662753969
 20
-79.20514072965715
 30
0.0
  0
SPLINE
  5
8C
330
70
100
AcDbEntity
  8
Capa 2
 62
   178
420
      519
370
    13
100
AcDbSpline
210
0.0
220
0.0
230
1.0
 70
     8
 71
     3
 72
    89
 73
    85
 74
     0
 42
0.0000000001
 43
0.0000000001
 40
0.0
 40
0.0
 40
0.0
 40
0.0
 40
1.0
 40
1.0
 40
1.0
 40
2.0
 40
2.0
 40
2.0
 40
3.0
 40
3.0
 40
3.0
 40
4.0
 40
4.0
 40
4.0
 40
5.0
 40
5.0
 40
5.0
 40
6.0
 40
6.0
 40
6.0
 40
7.0
 40
7.0
 40
7.0
 40
8.0
 40
8.0
 40
8.0
 40
9.0
 40
9.0
 40
9.0
 40
10.0
 40
10.0
 40
10.0
 40
11.0
 40
11.0
 40
11.0
 40
12.0
 40
12.0
 40
12.0
 40
13.0
 40
13.0
 40
13.0
 40
14.0
 40
14.0
 40
14.0
 40
15.0
 40
15.0
 40
15.0
 40
16.0
 40
16.0
 40
16.0
 40
17.0
 40
17.0
 40
17.0
 40
18.0
 40
18.0
 40
18.0
 40
19.0
 40
19.0
 40
19.0
 40
20.0
 40
20.0
 40
20.0
 40
21.0
 40
21.0
 40
21.0
 40
22.0
 40
22.0
 40
22.0
 40
23.0
 40
23.0
 40
23.0
 40
24.0
 40
24.0
 40
24.0
 40
25.0
 40
25.0
 40
25.0
 40
26.0
 40
26.0
 40
26.0
 40
27.0
 40
27.0
 40
27.0
 40
28.0
 40
28.0
 40
28.0
 40
28.0
 10
131.5397662753969
 20
-82.25767296946452
 30
0.0
 10
130.2227190914539
 20
-82.25767296946452
 30
0.0
 10
128.9043436308148
 20
-82.26247675703888
 30
0.0
 10
127.5872989817525
 20
-82.27087995074668
 30
0.0
 10
126.2702543326915
 20
-82.27928314445385
 30
0.0
 10
124.9518788720511
 20
-82.29008594225019
 30
0.0
 10
123.6348342229901
 20
-82.29969122770125
 30
0.0
 10
122.3177870390504
 20
-82.31049402549695
 30
0.0
 10
121.0007423899881
 20
-82.32009702124903
 30
0.0
 10
119.682366929349
 20
-82.33090210874435
 30
0.0
 10
119.0245100106073
 20
-82.33570360661973
 30
0.0
 10
118.3653222802867
 20
-82.34050510449675
 30
0.0
 10
117.7061345499669
 20
-82.3453088920711
 30
0.0
 10
117.5426677952455
 20
-82.34650869411536
 30
0.0
 10
117.377870228946
 20
-82.34770849615964
 30
0.0
 10
117.2130726626452
 20
-82.34890829820391
 30
0.0
 10
117.0482750963458
 20
-82.35011038994713
 30
0.0
 10
116.883480064925
 20
-82.35011038994713
 30
0.0
 10
116.7186824986255
 20
-82.35491188782317
 30
0.0
 10
116.5552157439035
 20
-82.35971338569921
 30
0.0
 10
116.3890899009059
 20
-82.36931638145129
 30
0.0
 10
116.2256206113045
 20
-82.3825210730345
 30
0.0
 10
116.0608230450031
 20
-82.39572805431667
 30
0.0
 10
115.8960280135842
 20
-82.41493404582019
 30
0.0
 10
115.7338895355597
 20
-82.43774402285444
 30
0.0
 10
115.4082817679365
 20
-82.48215959548168
 30
0.0
 10
115.0879921768658
 20
-82.54578573900943
 30
0.0
 10
114.7756747808677
 20
-82.62381408646794
 30
0.0
 10
114.4633573848697
 20
-82.70184472362346
 30
0.0
 10
114.1550273538455
 20
-82.79668174819461
 30
0.0
 10
113.8533437760752
 20
-82.9083251601814
 30
0.0
 10
113.5503293867261
 20
-83.01876648042492
 30
0.0
 10
113.255289727329
 20
-83.14481438604046
 30
0.0
 10
112.964237432907
 20
-83.28767096876864
 30
0.0
 10
112.8911441912862
 20
-83.32248354564383
 30
0.0
 10
112.8193766914848
 20
-83.35969801630556
 30
0.0
 10
112.7489400032615
 20
-83.39691248696825
 30
0.0
 10
112.6771725034614
 20
-83.43412695763062
 30
0.0
 10
112.6067358152374
 20
-83.47134142829233
 30
0.0
 10
112.5362991270141
 20
-83.51095550304291
 30
0.0
 10
112.3967514923864
 20
-83.5889861401994
 30
0.0
 10
112.2598654809155
 20
-83.66941638144478
 30
0.0
 10
112.1256360228416
 20
-83.75344831852061
 30
0.0
 10
111.8558462951176
 20
-83.92031239062964
 30
0.0
 10
111.5980186623188
 20
-84.10038344401987
 30
0.0
 10
111.3494940361714
 20
-84.29125500550876
 30
0.0
 10
111.1009719449021
 20
-84.48212885669597
 30
0.0
 10
110.8630798695414
 20
-84.68500759742214
 30
0.0
 10
110.6331612566919
 20
-84.89748933390037
 30
0.0
 10
110.5773432167933
 20
-84.95030810023513
 30
0.0
 10
110.5201956327569
 20
-85.00432895831279
 30
0.0
 10
110.4643775928563
 20
-85.05955190813272
 30
0.0
 10
110.4085595529571
 20
-85.11477256825529
 30
0.0
 10
110.3527402456188
 20
-85.16999322837689
 30
0.0
 10
110.2982517498574
 20
-85.22521388849883
 30
0.0
 10
110.1892722234585
 20
-85.3368573004856
 30
0.0
 10
110.0842825969126
 20
-85.44970051451665
 30
0.0
 10
109.9806187121856
 20
-85.56494562233519
 30
0.0
 10
109.7759525658884
 20
-85.79423374622839
 30
0.0
 10
109.5832459796396
 20
-86.03192506382942
 30
0.0
 10
109.4038297650161
 20
-86.27441787930743
 30
0.0
 10
109.041009970792
 20
-86.75940351026154
 30
0.0
 10
108.7260360213952
 20
-87.27080081408265
 30
0.0
 10
108.454918016973
 20
-87.80380600319412
 30
0.0
 10
108.3193602822003
 20
-88.07150839979493
 30
0.0
 10
108.1931055540778
 20
-88.34401458396978
 30
0.0
 10
108.0801386627018
 20
-88.62251977836628
 30
0.0
 10
108.0509013660524
 20
-88.69214722181466
 30
0.0
 10
108.0229923461031
 20
-88.76177466526334
 30
0.0
 10
107.9964116028533
 20
-88.83260191075597
 30
0.0
 10
107.9685025829034
 20
-88.90222706450604
 30
0.0
 10
107.9432526512303
 20
-88.97305430999898
 30
0.0
 10
107.9166719079804
 20
-89.04268175344736
 30
0.0
 10
107.8648412330556
 20
-89.18433624443231
 30
0.0
 10
107.8169953882278
 20
-89.32479093337397
 30
0.0
 10
107.7718086316789
 20
-89.46644542435956
 30
0.0
 10
107.5910641403559
 20
-90.03306338830226
 30
0.0
 10
107.4581629589814
 20
-90.60688245420987
 30
0.0
 10
107.3677919807602
 20
-91.18790720147838
 30
0.0
 10
107.3226052242087
 20
-91.47721748337147
 30
0.0
 10
107.2893805625856
 20
-91.76892965905016
 30
0.0
 10
107.2681154610076
 20
-92.06304372851635
 30
0.0
 10
107.2441938060334
 20
-92.35715550828388
 30
0.0
 10
107.2335625226863
 20
-92.65246937979433
 30
0.0
 10
107.2335625226863
 20
-92.94898305334905
 30
0.0
  0
SPLINE
  5
8D
330
70
100
AcDbEntity
  8
Capa 2
 62
   178
420
      519
370
    13
100
AcDbSpline
210
0.0
220
0.0
230
1.0
 70
     8
 71
     3
 72
    89
 73
    85
 74
     0
 42
0.0000000001
 43
0.0000000001
 40
0.0
 40
0.0
 40
0.0
 40
0.0
 40
1.0
 40
1.0
 40
1.0
 40
2.0
 40
2.0
 40
2.0
 40
3.0
 40
3.0
 40
3.0
 40
4.0
 40
4.0
 40
4.0
 40
5.0
 40
5.0
 40
5.0
 40
6.0
 40
6.0
 40
6.0
 40
7.0
 40
7.0
 40
7.0
 40
8.0
 40
8.0
 40
8.0
 40
9.0
 40
9.0
 40
9.0
 40
10.0
 40
10.0
 40
10.0
 40
11.0
 40
11.0
 40
11.0
 40
12.0
 40
12.0
 40
12.0
 40
13.0
 40
13.0
 40
13.0
 40
14.0
 40
14.0
 40
14.0
 40
15.0
 40
15.0
 40
15.0
 40
16.0
 40
16.0
 40
16.0
 40
17.0
 40
17.0
 40
17.0
 40
18.0
 40
18.0
 40
18.0
 40
19.0
 40
19.0
 40
19.0
 40
20.0
 40
20.0
 40
20.0
 40
21.0
 40
21.0
 40
21.0
 40
22.0
 40
22.0
 40
22.0
 40
23.0
 40
23.0
 40
23.0
 40
24.0
 40
24.0
 40
24.0
 40
25.0
 40
25.0
 40
25.0
 40
26.0
 40
26.0
 40
26.0
 40
27.0
 40
27.0
 40
27.0
 40
28.0
 40
28.0
 40
28.0
 40
28.0
 10
107.2327653031785
 20
-92.9494616003477
 30
0.0
 10
107.2327653031785
 20
-93.24717622079651
 30
0.0
 10
107.2447261306659
 20
-93.54128914541288
 30
0.0
 10
107.2673182415011
 20
-93.83660301692398
 30
0.0
 10
107.2899116197771
 20
-94.12951613949577
 30
0.0
 10
107.3244658255388
 20
-94.42122831517508
 30
0.0
 10
107.3683230379499
 20
-94.71173954396034
 30
0.0
 10
107.4573670069132
 20
-95.29156219948688
 30
0.0
 10
107.590266920848
 20
-95.86658335713709
 30
0.0
 10
107.7723409563101
 20
-96.43200037418573
 30
0.0
 10
107.8161981687213
 20
-96.57365486517068
 30
0.0
 10
107.8653722902472
 20
-96.71530935615724
 30
0.0
 10
107.9158746884726
 20
-96.85696384714219
 30
0.0
 10
107.9424541642834
 20
-96.92659129059057
 30
0.0
 10
107.9690349075346
 20
-96.99621758918945
 30
0.0
 10
107.9956143833454
 20
-97.06584388778866
 30
0.0
 10
108.0221951265966
 20
-97.13667113328193
 30
0.0
 10
108.0501041465465
 20
-97.20629857672998
 30
0.0
 10
108.079341443194
 20
-97.2759248753292
 30
0.0
 10
108.1936366112693
 20
-97.5544323594253
 30
0.0
 10
108.3185630626924
 20
-97.82693739875035
 30
0.0
 10
108.4541220649048
 20
-98.09463979535117
 30
0.0
 10
108.7265683460264
 20
-98.62764498446264
 30
0.0
 10
109.0415422954233
 20
-99.13904114343393
 30
0.0
 10
109.4030325455082
 20
-99.62402791923786
 30
0.0
 10
109.5837783042708
 20
-99.86652073471523
 30
0.0
 10
109.77648362308
 20
-100.1042120523168
 30
0.0
 10
109.9811510368168
 20
-100.3335001762101
 30
0.0
 10
110.0834841099651
 20
-100.4487452840286
 30
0.0
 10
110.1898045480897
 20
-100.5615884980596
 30
0.0
 10
110.298782807049
 20
-100.6732307651966
 30
0.0
 10
110.3519430261123
 20
-100.7296523722133
 30
0.0
 10
110.4077623334512
 20
-100.7848741771834
 30
0.0
 10
110.4635803733485
 20
-100.840094837306
 30
0.0
 10
110.519398413249
 20
-100.8941156953833
 30
0.0
 10
110.5765459972867
 20
-100.948136553461
 30
0.0
 10
110.6336935813244
 20
-101.0009564646442
 30
0.0
 10
110.8622826500349
 20
-101.2146391480166
 30
0.0
 10
111.1001734579552
 20
-101.4163169418499
 30
0.0
 10
111.3486980841026
 20
-101.607189648188
 30
0.0
 10
111.5972227102506
 20
-101.7992638738439
 30
0.0
 10
111.8563786197489
 20
-101.9781322630671
 30
0.0
 10
112.1248375358961
 20
-102.1461967096451
 30
0.0
 10
112.2603978055468
 20
-102.230229219146
 30
0.0
 10
112.3972838170177
 20
-102.3106600328152
 30
0.0
 10
112.5368289167648
 20
-102.3886900975466
 30
0.0
 10
112.6059398631692
 20
-102.4271049426773
 30
0.0
 10
112.6763765513925
 20
-102.4655197878094
 30
0.0
 10
112.748141516314
 20
-102.501533311577
 30
0.0
 10
112.819909016116
 20
-102.539948156709
 30
0.0
 10
112.8916739810387
 20
-102.5759622529021
 30
0.0
 10
112.9647697575383
 20
-102.6107759746264
 30
0.0
 10
113.2544937752621
 20
-102.7536302676563
 30
0.0
 10
113.5508617113573
 20
-102.8808791201646
 30
0.0
 10
113.8525478240083
 20
-102.9901217832137
 30
0.0
 10
114.1542314017786
 20
-103.10176405035
 30
0.0
 10
114.4625614328009
 20
-103.1966010749211
 30
0.0
 10
114.7748788287996
 20
-103.2758315141229
 30
0.0
 10
115.0885219666183
 20
-103.3538610064293
 30
0.0
 10
115.4088140925677
 20
-103.4162850582138
 30
0.0
 10
115.7330910486142
 20
-103.4607017756902
 30
0.0
 10
115.8965603382155
 20
-103.4847115547693
 30
0.0
 10
116.0613553696356
 20
-103.5027188890777
 30
0.0
 10
116.2248246592357
 20
-103.5159235806616
 30
0.0
 10
116.3896196906565
 20
-103.5303292191382
 30
0.0
 10
116.554417256956
 20
-103.5399322148903
 30
0.0
 10
116.7192148232567
 20
-103.5447348576161
 30
0.0
 10
116.8826815779781
 20
-103.5483365534479
 30
0.0
 10
117.048807420977
 20
-103.5495363554916
 30
0.0
 10
117.2136049872765
 20
-103.5507373023856
 30
0.0
 10
117.3770717419972
 20
-103.5507373023856
 30
0.0
 10
117.541869308298
 20
-103.5519371044305
 30
0.0
 10
117.7066668745975
 20
-103.5531380513233
 30
0.0
 10
118.365854604918
 20
-103.5579395492003
 30
0.0
 10
119.0237115236598
 20
-103.5627410470757
 30
0.0
 10
119.682899253979
 20
-103.5687434918452
 30
0.0
 10
120.99994643792
 20
-103.5783476324464
 30
0.0
 10
122.3169910869822
 20
-103.5891515750926
 30
0.0
 10
123.6353665476214
 20
-103.5999555177374
 30
0.0
 10
124.9524111966836
 20
-103.6107594603836
 30
0.0
 10
126.2694583806234
 20
-103.6203636009848
 30
0.0
 10
127.5865030296856
 20
-103.6275669926484
 30
0.0
 10
128.9048759554473
 20
-103.6359701863555
 30
0.0
 10
130.2219231393871
 20
-103.6407716842322
 30
0.0
 10
131.5389677884493
 20
-103.6407716842322
 30
0.0
  0
SPLINE
  5
8E
330
70
100
AcDbEntity
  8
Capa 2
 62
   178
420
      519
370
    13
100
AcDbSpline
210
0.0
220
0.0
230
1.0
 70
     8
 71
     3
 72
    89
 73
    85
 74
     0
 42
0.0000000001
 43
0.0000000001
 40
0.0
 40
0.0
 40
0.0
 40
0.0
 40
1.0
 40
1.0
 40
1.0
 40
2.0
 40
2.0
 40
2.0
 40
3.0
 40
3.0
 40
3.0
 40
4.0
 40
4.0
 40
4.0
 40
5.0
 40
5.0
 40
5.0
 40
6.0
 40
6.0
 40
6.0
 40
7.0
 40
7.0
 40
7.0
 40
8.0
 40
8.0
 40
8.0
 40
9.0
 40
9.0
 40
9.0
 40
10.0
 40
10.0
 40
10.0
 40
11.0
 40
11.0
 40
11.0
 40
12.0
 40
12.0
 40
12.0
 40
13.0
 40
13.0
 40
13.0
 40
14.0
 40
14.0
 40
14.0
 40
15.0
 40
15.0
 40
15.0
 40
16.0
 40
16.0
 40
16.0
 40
17.0
 40
17.0
 40
17.0
 40
18.0
 40
18.0
 40
18.0
 40
19.0
 40
19.0
 40
19.0
 40
20.0
 40
20.0
 40
20.0
 40
21.0
 40
21.0
 40
21.0
 40
22.0
 40
22.0
 40
22.0
 40
23.0
 40
23.0
 40
23.0
 40
24.0
 40
24.0
 40
24.0
 40
25.0
 40
25.0
 40
25.0
 40
26.0
 40
26.0
 40
26.0
 40
27.0
 40
27.0
 40
27.0
 40
28.0
 40
28.0
 40
28.0
 40
28.0
 10
131.5397662753969
 20
-103.6412519485041
 30
0.0
 10
132.8568109244572
 20
-103.6412519485041
 30
0.0
 10
134.1751863850983
 20
-103.6364504506287
 30
0.0
 10
135.4922284992799
 20
-103.6280472569203
 30
0.0
 10
136.8092756832209
 20
-103.6196440632131
 30
0.0
 10
138.12765114386
 20
-103.6088395481429
 30
0.0
 10
139.4446983278017
 20
-103.5992359799657
 30
0.0
 10
140.7617404419833
 20
-103.5884320373209
 30
0.0
 10
142.0787876259243
 20
-103.5788284691447
 30
0.0
 10
143.3971630865634
 20
-103.5680239540731
 30
0.0
 10
144.0550200053058
 20
-103.5632224561978
 30
0.0
 10
144.7142102705051
 20
-103.5584203858973
 30
0.0
 10
145.373395465945
 20
-103.5536183155965
 30
0.0
 10
145.5368647555463
 20
-103.5524179411278
 30
0.0
 10
145.7016623218471
 20
-103.5512175666588
 30
0.0
 10
145.8664548183885
 20
-103.5500171921901
 30
0.0
 10
146.031252384688
 20
-103.5488168177211
 30
0.0
 10
146.1960499509875
 20
-103.5488168177211
 30
0.0
 10
146.360847517287
 20
-103.5440147474194
 30
0.0
 10
146.5243168068883
 20
-103.539213249544
 30
0.0
 10
146.6904426498859
 20
-103.5296091089424
 30
0.0
 10
146.8539068697299
 20
-103.5164044173586
 30
0.0
 10
147.0187044360294
 20
-103.5031991533509
 30
0.0
 10
147.1835020023282
 20
-103.4839920169973
 30
0.0
 10
147.3456430152308
 20
-103.4611831848122
 30
0.0
 10
147.6712482479747
 20
-103.4167658949108
 30
0.0
 10
147.991540373926
 20
-103.3531414686572
 30
0.0
 10
148.303857769924
 20
-103.2751114039258
 30
0.0
 10
148.616170096164
 20
-103.1970813391943
 30
0.0
 10
148.924502662067
 20
-103.102244887047
 30
0.0
 10
149.2261837049573
 20
-102.9906020474856
 30
0.0
 10
149.5291980943064
 20
-102.8801595823929
 30
0.0
 10
149.8242377537035
 20
-102.7541111043532
 30
0.0
 10
150.1152925830054
 20
-102.611256238898
 30
0.0
 10
150.1883883595056
 20
-102.5764430895991
 30
0.0
 10
150.260155859307
 20
-102.5392286189373
 30
0.0
 10
150.3305900126503
 20
-102.5020141482743
 30
0.0
 10
150.4023575124517
 20
-102.4647996776123
 30
0.0
 10
150.4727967355544
 20
-102.4275857793746
 30
0.0
 10
150.5432308888983
 20
-102.3879705597749
 30
0.0
 10
150.682775988646
 20
-102.3099404950435
 30
0.0
 10
150.8196645349975
 20
-102.2295096813743
 30
0.0
 10
150.9538965279482
 20
-102.1454771718718
 30
0.0
 10
151.2236837207955
 20
-101.9786130997641
 30
0.0
 10
151.4815113535937
 20
-101.7985437636471
 30
0.0
 10
151.7300359797417
 20
-101.6076704848849
 30
0.0
 10
151.978560605891
 20
-101.4167977785469
 30
0.0
 10
152.216448878932
 20
-101.2139190378204
 30
0.0
 10
152.4463674917803
 20
-101.0014373013415
 30
0.0
 10
152.5021855316789
 20
-100.9486173901579
 30
0.0
 10
152.5593369180362
 20
-100.8945965320806
 30
0.0
 10
152.6151549579342
 20
-100.8393747271089
 30
0.0
 10
152.6709729978327
 20
-100.7841540669876
 30
0.0
 10
152.7267910377332
 20
-100.7289322620162
 30
0.0
 10
152.781280800933
 20
-100.6737116018942
 30
0.0
 10
152.8902603273333
 20
-100.5620681899075
 30
0.0
 10
152.9952499538805
 20
-100.4492249758764
 30
0.0
 10
153.0989113037269
 20
-100.333981012907
 30
0.0
 10
153.3035774500241
 20
-100.1046928890132
 30
0.0
 10
153.4962840362735
 20
-99.86700157141221
 30
0.0
 10
153.6757027857757
 20
-99.62450875593482
 30
0.0
 10
154.0385200451204
 20
-99.1395219801309
 30
0.0
 10
154.353493994516
 20
-98.62812467631044
 30
0.0
 10
154.6246145338201
 20
-98.09512063204813
 30
0.0
 10
154.7601697337128
 20
-97.82741709059816
 30
0.0
 10
154.886426996714
 20
-97.55491205127313
 30
0.0
 10
154.9993913532113
 20
-97.27640571202616
 30
0.0
 10
155.0286286498587
 20
-97.20677826857812
 30
0.0
 10
155.0565376698093
 20
-97.1371519699789
 30
0.0
 10
155.0831184130598
 20
-97.06632472448626
 30
0.0
 10
155.1110274330091
 20
-96.99669842588676
 30
0.0
 10
155.1362798995615
 20
-96.92587118039476
 30
0.0
 10
155.1628606428113
 20
-96.85624373694572
 30
0.0
 10
155.2133605061574
 20
-96.71458924596015
 30
0.0
 10
155.2625371625627
 20
-96.57413570186797
 30
0.0
 10
155.3077239191129
 20
-96.43248121088269
 30
0.0
 10
155.4884658755572
 20
-95.86586324694
 30
0.0
 10
155.6213695918104
 20
-95.29204303618387
 30
0.0
 10
155.7117380351528
 20
-94.71221923580815
 30
0.0
 10
155.755596515005
 20
-94.42170800702291
 30
0.0
 10
155.7901519882062
 20
-94.12999583134357
 30
0.0
 10
155.8114145549042
 20
-93.83588290672753
 30
0.0
 10
155.8353387447565
 20
-93.5417699821105
 30
0.0
 10
155.8459700281055
 20
-93.2464561105994
 30
0.0
 10
155.8459700281055
 20
-92.94994243704532
 30
0.0
  0
SPLINE
  5
8F
330
70
100
AcDbEntity
  8
Capa 2
 62
   178
420
      519
370
    13
100
AcDbSpline
210
0.0
220
0.0
230
1.0
 70
     8
 71
     3
 72
    89
 73
    85
 74
     0
 42
0.0000000001
 43
0.0000000001
 40
0.0
 40
0.0
 40
0.0
 40
0.0
 40
1.0
 40
1.0
 40
1.0
 40
2.0
 40
2.0
 40
2.0
 40
3.0
 40
3.0
 40
3.0
 40
4.0
 40
4.0
 40
4.0
 40
5.0
 40
5.0
 40
5.0
 40
6.0
 40
6.0
 40
6.0
 40
7.0
 40
7.0
 40
7.0
 40
8.0
 40
8.0
 40
8.0
 40
9.0
 40
9.0
 40
9.0
 40
10.0
 40
10.0
 40
10.0
 40
11.0
 40
11.0
 40
11.0
 40
12.0
 40
12.0
 40
12.0
 40
13.0
 40
13.0
 40
13.0
 40
14.0
 40
14.0
 40
14.0
 40
15.0
 40
15.0
 40
15.0
 40
16.0
 40
16.0
 40
16.0
 40
17.0
 40
17.0
 40
17.0
 40
18.0
 40
18.0
 40
18.0
 40
19.0
 40
19.0
 40
19.0
 40
20.0
 40
20.0
 40
20.0
 40
21.0
 40
21.0
 40
21.0
 40
22.0
 40
22.0
 40
22.0
 40
23.0
 40
23.0
 40
23.0
 40
24.0
 40
24.0
 40
24.0
 40
25.0
 40
25.0
 40
25.0
 40
26.0
 40
26.0
 40
26.0
 40
27.0
 40
27.0
 40
27.0
 40
28.0
 40
28.0
 40
28.0
 40
28.0
 10
155.8466341664542
 20
-92.9494616003477
 30
0.0
 10
155.8466341664542
 20
-92.65174812474809
 30
0.0
 10
155.8346695366484
 20
-92.3576352001317
 30
0.0
 10
155.8120786932529
 20
-92.06232247347072
 30
0.0
 10
155.7894827800994
 20
-91.76940820604881
 30
0.0
 10
155.7549323766562
 20
-91.47769603037014
 30
0.0
 10
155.7110738968041
 20
-91.18718594643276
 30
0.0
 10
155.6220286604011
 20
-90.60736329090685
 30
0.0
 10
155.4891300139059
 20
-90.03234213325631
 30
0.0
 10
155.3070547110062
 20
-89.46692397135821
 30
0.0
 10
155.2631962311534
 20
-89.32526948037262
 30
0.0
 10
155.2140246445068
 20
-89.18361498938734
 30
0.0
 10
155.1635197114027
 20
-89.04196049840109
 30
0.0
 10
155.1369440379102
 20
-88.97233305495273
 30
0.0
 10
155.1103632946603
 20
-88.902707901203
 30
0.0
 10
155.0837825514085
 20
-88.83308045775462
 30
0.0
 10
155.0572018081587
 20
-88.76225321226135
 30
0.0
 10
155.0292927882075
 20
-88.69262576881331
 30
0.0
 10
155.00005549156
 20
-88.62299832536495
 30
0.0
 10
154.8857577886059
 20
-88.34449313096873
 30
0.0
 10
154.7608338720616
 20
-88.07198694679295
 30
0.0
 10
154.6252736024095
 20
-87.80428455019341
 30
0.0
 10
154.3528298561672
 20
-87.27127936108066
 30
0.0
 10
154.0378559067717
 20
-86.75988205726021
 30
0.0
 10
153.6763618543671
 20
-86.27489642630608
 30
0.0
 10
153.4956198979241
 20
-86.03240361082837
 30
0.0
 10
153.302913311674
 20
-85.79471229322704
 30
0.0
 10
153.0982471653781
 20
-85.5654241693332
 30
0.0
 10
152.9959140922299
 20
-85.45017906151466
 30
0.0
 10
152.8895911192265
 20
-85.33733584748425
 30
0.0
 10
152.7806115928263
 20
-85.22569243549748
 30
0.0
 10
152.727455176082
 20
-85.16927197333128
 30
0.0
 10
152.6716371361834
 20
-85.11405131320968
 30
0.0
 10
152.6158140265249
 20
-85.05882836338878
 30
0.0
 10
152.5599959866263
 20
-85.00480750531144
 30
0.0
 10
152.5028496700296
 20
-84.95078664723378
 30
0.0
 10
152.4457033534309
 20
-84.89796788089902
 30
0.0
 10
152.2171130172814
 20
-84.68428405267756
 30
0.0
 10
151.9792196744804
 20
-84.48260740369462
 30
0.0
 10
151.7307001180905
 20
-84.29173355250743
 30
0.0
 10
151.4821754919431
 20
-84.10086199101852
 30
0.0
 10
151.2230195824461
 20
-83.92079093762797
 30
0.0
 10
150.9545555965409
 20
-83.752727063475
 30
0.0
 10
150.8190003966469
 20
-83.6686951263985
 30
0.0
 10
150.6821118502966
 20
-83.58826488515315
 30
0.0
 10
150.5425667505495
 20
-83.51023424799794
 30
0.0
 10
150.4734558041451
 20
-83.47181997529098
 30
0.0
 10
150.4030216508024
 20
-83.43340341288602
 30
0.0
 10
150.3312541510004
 20
-83.39739103396626
 30
0.0
 10
150.259486651199
 20
-83.35897676125993
 30
0.0
 10
150.1877191513982
 20
-83.32296209264248
 30
0.0
 10
150.1146233748974
 20
-83.28814722606866
 30
0.0
 10
149.8249018920542
 20
-83.14529293303847
 30
0.0
 10
149.528533955957
 20
-83.01804522537997
 30
0.0
 10
149.226847843308
 20
-82.90880141748173
 30
0.0
 10
148.9251668004164
 20
-82.79716029519327
 30
0.0
 10
148.6168342345134
 20
-82.70232327062212
 30
0.0
 10
148.3045168385154
 20
-82.62309283142167
 30
0.0
 10
147.9908711658173
 20
-82.54506219426517
 30
0.0
 10
147.6705841096259
 20
-82.48263814248034
 30
0.0
 10
147.3463071535808
 20
-82.43822256985341
 30
0.0
 10
147.1828378639794
 20
-82.4142127907752
 30
0.0
 10
147.0180402976787
 20
-82.39620431161636
 30
0.0
 10
146.8545710080786
 20
-82.38299962003315
 30
0.0
 10
146.6897734417791
 20
-82.36859512640505
 30
0.0
 10
146.5249809452377
 20
-82.35899213065295
 30
0.0
 10
146.3601833789382
 20
-82.35418834307859
 30
0.0
 10
146.1967140893369
 20
-82.35058664724682
 30
0.0
 10
146.030588246338
 20
-82.34938684520257
 30
0.0
 10
145.8657906800385
 20
-82.34818704315829
 30
0.0
 10
145.7023213904371
 20
-82.34818704315829
 30
0.0
 10
145.537528893895
 20
-82.34698724111401
 30
0.0
 10
145.3727313275956
 20
-82.34578514937078
 30
0.0
 10
144.7135410623983
 20
-82.34098365149476
 30
0.0
 10
144.0556841436559
 20
-82.3361821536187
 30
0.0
 10
143.3964989482147
 20
-82.3301808536984
 30
0.0
 10
142.0794517642737
 20
-82.32057556824768
 30
0.0
 10
140.7624045803321
 20
-82.30977277045132
 30
0.0
 10
139.444029119693
 20
-82.29896768295667
 30
0.0
 10
138.1269870055113
 20
-82.28936468720458
 30
0.0
 10
136.8099398215703
 20
-82.27855959970929
 30
0.0
 10
135.4928926376287
 20
-82.27135620804638
 30
0.0
 10
134.1745222467476
 20
-82.26295301433857
 30
0.0
 10
132.8574750628066
 20
-82.25815151646317
 30
0.0
 10
131.5404304137456
 20
-82.25815151646317
 30
0.0
  0
SPLINE
  5
90
330
70
100
AcDbEntity
  8
Capa 2
 62
   178
420
      519
370
    13
100
AcDbSpline
210
0.0
220
0.0
230
1.0
 70
     8
 71
     3
 72
    29
 73
    25
 74
     0
 42
0.0000000001
 43
0.0000000001
 40
0.0
 40
0.0
 40
0.0
 40
0.0
 40
1.0
 40
1.0
 40
1.0
 40
2.0
 40
2.0
 40
2.0
 40
3.0
 40
3.0
 40
3.0
 40
4.0
 40
4.0
 40
4.0
 40
5.0
 40
5.0
 40
5.0
 40
6.0
 40
6.0
 40
6.0
 40
7.0
 40
7.0
 40
7.0
 40
8.0
 40
8.0
 40
8.0
 40
8.0
 10
98.54930023929943
 20
-75.22548893645247
 30
0.0
 10
98.51075866856213
 20
-75.22548893645247
 30
0.0
 10
98.46955927698724
 20
-75.22308933236392
 30
0.0
 10
98.42968942955083
 20
-75.21708574274466
 30
0.0
 10
98.38849003797596
 20
-75.21108444282434
 30
0.0
 10
98.34729064640045
 20
-75.20268124911718
 30
0.0
 10
98.30609188854541
 20
-75.19067635957759
 30
0.0
 10
98.26489249697054
 20
-75.17867147003866
 30
0.0
 10
98.22502201581428
 20
-75.16426697641023
 30
0.0
 10
98.18648107879651
 20
-75.14746058899461
 30
0.0
 10
98.14926905219669
 20
-75.12945210983705
 30
0.0
 10
98.11471484643476
 20
-75.10904631628861
 30
0.0
 10
98.08148955109082
 20
-75.08623633925501
 30
0.0
 10
98.0482642557472
 20
-75.06342865191877
 30
0.0
 10
98.02035523579759
 20
-75.03821907079597
 30
0.0
 10
97.99510403668554
 20
-75.01180739792996
 30
0.0
 10
97.97118174799146
 20
-74.98419821271864
 30
0.0
 10
97.94858900343585
 20
-74.95658673780738
 30
0.0
 10
97.93264081097335
 20
-74.92777546085283
 30
0.0
 10
97.91669261851055
 20
-74.89896418389893
 30
0.0
 10
97.90473179102406
 20
-74.87015290694436
 30
0.0
 10
97.89675769479249
 20
-74.84134162998948
 30
0.0
 10
97.88745468814294
 20
-74.81253035303557
 30
0.0
 10
97.88479686730601
 20
-74.78372136577934
 30
0.0
 10
97.88346732316755
 20
-74.75610989086906
 30
0.0
  0
SPLINE
  5
91
330
70
100
AcDbEntity
  8
Capa 2
 62
   178
420
      519
370
    13
100
AcDbSpline
210
0.0
220
0.0
230
1.0
 70
     8
 71
     3
 72
    29
 73
    25
 74
     0
 42
0.0000000001
 43
0.0000000001
 40
0.0
 40
0.0
 40
0.0
 40
0.0
 40
1.0
 40
1.0
 40
1.0
 40
2.0
 40
2.0
 40
2.0
 40
3.0
 40
3.0
 40
3.0
 40
4.0
 40
4.0
 40
4.0
 40
5.0
 40
5.0
 40
5.0
 40
6.0
 40
6.0
 40
6.0
 40
7.0
 40
7.0
 40
7.0
 40
8.0
 40
8.0
 40
8.0
 40
8.0
 10
165.1951368281181
 20
-74.75634801951906
 30
0.0
 10
165.1951368281181
 20
-74.7839594944287
 30
0.0
 10
165.1911469282631
 20
-74.81277077138358
 30
0.0
 10
165.1831721983116
 20
-74.84158204833814
 30
0.0
 10
165.1751974683622
 20
-74.86919352324843
 30
0.0
 10
165.163237908315
 20
-74.89920460224725
 30
0.0
 10
165.1459601717128
 20
-74.92801587920212
 30
0.0
 10
165.1300107118119
 20
-74.95682715615668
 30
0.0
 10
165.108748145114
 20
-74.98443634136799
 30
0.0
 10
165.0834956785622
 20
-75.01204781627861
 30
0.0
 10
165.0595765584673
 20
-75.03845719944566
 30
0.0
 10
165.0303392618186
 20
-75.06366678056846
 30
0.0
 10
164.9984403420143
 20
-75.08647675760269
 30
0.0
 10
164.9652182152705
 20
-75.10928444493862
 30
0.0
 10
164.9293344653691
 20
-75.12969252818504
 30
0.0
 10
164.8921224387703
 20
-75.14769871764558
 30
0.0
 10
164.8549104121701
 20
-75.16450510505991
 30
0.0
 10
164.8137084857156
 20
-75.17891188838699
 30
0.0
 10
164.772511629021
 20
-75.19091677792592
 30
0.0
 10
164.732637979266
 20
-75.20292166746486
 30
0.0
 10
164.6914411225688
 20
-75.2113248611733
 30
0.0
 10
164.6502391961156
 20
-75.21732616109362
 30
0.0
 10
164.6103706161178
 20
-75.22332975071257
 30
0.0
 10
164.569173759422
 20
-75.22452955275685
 30
0.0
 10
164.5293001096669
 20
-75.22572935480112
 30
0.0
  0
LINE
  5
92
330
70
100
AcDbEntity
  8
Capa 2
 62
   178
420
      519
370
    13
100
AcDbLine
 10
164.5301011314931
 20
-75.22548893645247
 30
0.0
 11
98.54890416442579
 21
-75.22548893645247
 31
0.0
  0
SPLINE
  5
93
330
70
100
AcDbEntity
  8
Capa 2
 62
   178
420
      519
370
    13
100
AcDbSpline
210
0.0
220
0.0
230
1.0
 70
     8
 71
     3
 72
    68
 73
    64
 74
     0
 42
0.0000000001
 43
0.0000000001
 40
0.0
 40
0.0
 40
0.0
 40
0.0
 40
1.0
 40
1.0
 40
1.0
 40
2.0
 40
2.0
 40
2.0
 40
3.0
 40
3.0
 40
3.0
 40
4.0
 40
4.0
 40
4.0
 40
5.0
 40
5.0
 40
5.0
 40
6.0
 40
6.0
 40
6.0
 40
7.0
 40
7.0
 40
7.0
 40
8.0
 40
8.0
 40
8.0
 40
9.0
 40
9.0
 40
9.0
 40
10.0
 40
10.0
 40
10.0
 40
11.0
 40
11.0
 40
11.0
 40
12.0
 40
12.0
 40
12.0
 40
13.0
 40
13.0
 40
13.0
 40
14.0
 40
14.0
 40
14.0
 40
15.0
 40
15.0
 40
15.0
 40
16.0
 40
16.0
 40
16.0
 40
17.0
 40
17.0
 40
17.0
 40
18.0
 40
18.0
 40
18.0
 40
19.0
 40
19.0
 40
19.0
 40
20.0
 40
20.0
 40
20.0
 40
21.0
 40
21.0
 40
21.0
 40
21.0
 10
97.86672254491769
 20
-74.36187646225807
 30
0.0
 10
97.86672254491769
 20
-74.36187646225807
 30
0.0
 10
97.86672254491769
 20
-74.34867177067454
 30
0.0
 10
97.86672254491769
 20
-74.34867177067454
 30
0.0
 10
97.86805145533598
 20
-74.34507007484277
 30
0.0
 10
97.86805145533598
 20
-74.33906877492247
 30
0.0
 10
97.86938036575428
 20
-74.33546707909069
 30
0.0
 10
97.86938036575428
 20
-74.33066558121464
 30
0.0
 10
97.86938036575428
 20
-74.32706388538289
 30
0.0
 10
97.87070927617355
 20
-74.32226238750748
 30
0.0
 10
97.87070927617355
 20
-74.31866069167572
 30
0.0
 10
97.87203818659186
 20
-74.31385919379903
 30
0.0
 10
97.87336709701047
 20
-74.30905769592364
 30
0.0
 10
97.87469600742909
 20
-74.30545600009186
 30
0.0
 10
97.87469600742909
 20
-74.30185430426009
 30
0.0
 10
97.87735446198553
 20
-74.29705280638406
 30
0.0
 10
97.8786833724048
 20
-74.29345111055292
 30
0.0
 10
97.88001228282311
 20
-74.28984941472116
 30
0.0
 10
97.88134119324205
 20
-74.28504791684447
 30
0.0
 10
97.88267010366034
 20
-74.28144622101335
 30
0.0
 10
97.88532855821678
 20
-74.27784452518157
 30
0.0
 10
97.88665746863605
 20
-74.27424282935046
 30
0.0
 10
97.88798637905436
 20
-74.26944133147377
 30
0.0
 10
97.89064419989159
 20
-74.26583963564199
 30
0.0
 10
97.89197311031022
 20
-74.26224022950982
 30
0.0
 10
97.89463156486666
 20
-74.25863853367743
 30
0.0
 10
97.89728938570423
 20
-74.25503683784629
 30
0.0
 10
97.89861829612284
 20
-74.25023533996962
 30
0.0
 10
97.90127611696009
 20
-74.24783344618244
 30
0.0
 10
97.90260566109855
 20
-74.24423175035066
 30
0.0
 10
97.90659239235441
 20
-74.23943025247528
 30
0.0
 10
97.90792130277273
 20
-74.23703064838608
 30
0.0
 10
97.91057975732917
 20
-74.23342895255496
 30
0.0
 10
97.91323757816671
 20
-74.22982725672318
 30
0.0
 10
97.91589539900398
 20
-74.22742536293569
 30
0.0
 10
97.91988276397967
 20
-74.22382366710391
 30
0.0
 10
97.92254058481692
 20
-74.22022426097111
 30
0.0
 10
97.92519840565352
 20
-74.21782236718425
 30
0.0
 10
97.92785622649077
 20
-74.21422067135248
 30
0.0
 10
97.93051468104785
 20
-74.21061897552071
 30
0.0
 10
97.93317250188508
 20
-74.20821937143218
 30
0.0
 10
97.93583032272202
 20
-74.2046176756004
 30
0.0
 10
97.93981768769771
 20
-74.20221578181226
 30
0.0
 10
97.94646287351035
 20
-74.19741428393686
 30
0.0
 10
97.95177851518483
 20
-74.19141298401655
 30
0.0
 10
97.95975261141608
 20
-74.18660919644155
 30
0.0
 10
97.96639779722838
 20
-74.18180769856616
 30
0.0
 10
97.97437189346027
 20
-74.17700620068948
 30
0.0
 10
97.98101707927258
 20
-74.17220470281408
 30
0.0
 10
97.988990541784
 20
-74.16740320493804
 30
0.0
 10
97.99696463801558
 20
-74.16380150910692
 30
0.0
 10
98.0062676446648
 20
-74.15900001123024
 30
0.0
 10
98.01291283047808
 20
-74.15659811744337
 30
0.0
 10
98.0222158371273
 20
-74.1529964216116
 30
0.0
 10
98.03151884377783
 20
-74.14939701547815
 30
0.0
 10
98.04082185042769
 20
-74.14699512169129
 30
0.0
 10
98.04879594665894
 20
-74.14459322790411
 30
0.0
 10
98.05809895330849
 20
-74.1433934258592
 30
0.0
 10
98.06873150409682
 20
-74.13979173002743
 30
0.0
 10
98.07803451074637
 20
-74.13979173002743
 30
0.0
 10
98.08600860697794
 20
-74.13859192798316
 30
0.0
 10
98.09664052404677
 20
-74.13739212593888
 30
0.0
 10
98.10727244111493
 20
-74.13739212593888
 30
0.0
 10
98.1165754477648
 20
-74.13619003419566
 30
0.0
  0
SPLINE
  5
94
330
70
100
AcDbEntity
  8
Capa 2
 62
   178
420
      519
370
    13
100
AcDbSpline
210
0.0
220
0.0
230
1.0
 70
     8
 71
     3
 72
    68
 73
    64
 74
     0
 42
0.0000000001
 43
0.0000000001
 40
0.0
 40
0.0
 40
0.0
 40
0.0
 40
1.0
 40
1.0
 40
1.0
 40
2.0
 40
2.0
 40
2.0
 40
3.0
 40
3.0
 40
3.0
 40
4.0
 40
4.0
 40
4.0
 40
5.0
 40
5.0
 40
5.0
 40
6.0
 40
6.0
 40
6.0
 40
7.0
 40
7.0
 40
7.0
 40
8.0
 40
8.0
 40
8.0
 40
9.0
 40
9.0
 40
9.0
 40
10.0
 40
10.0
 40
10.0
 40
11.0
 40
11.0
 40
11.0
 40
12.0
 40
12.0
 40
12.0
 40
13.0
 40
13.0
 40
13.0
 40
14.0
 40
14.0
 40
14.0
 40
15.0
 40
15.0
 40
15.0
 40
16.0
 40
16.0
 40
16.0
 40
17.0
 40
17.0
 40
17.0
 40
18.0
 40
18.0
 40
18.0
 40
19.0
 40
19.0
 40
19.0
 40
20.0
 40
20.0
 40
20.0
 40
21.0
 40
21.0
 40
21.0
 40
21.0
 10
164.9632207304636
 20
-74.13667087089296
 30
0.0
 10
164.9632207304636
 20
-74.13667087089296
 30
0.0
 10
164.9778368439077
 20
-74.13667087089296
 30
0.0
 10
164.9778368439077
 20
-74.13667087089296
 30
0.0
 10
164.9831550204621
 20
-74.13787296263618
 30
0.0
 10
164.9884681272567
 20
-74.13787296263618
 30
0.0
 10
164.9924580271111
 20
-74.13907276468044
 30
0.0
 10
164.9977711339075
 20
-74.13907276468044
 30
0.0
 10
165.0017610337619
 20
-74.13907276468044
 30
0.0
 10
165.0070741405571
 20
-74.14027256672472
 30
0.0
 10
165.0110640404115
 20
-74.14027256672472
 30
0.0
 10
165.016377147206
 20
-74.14147465846795
 30
0.0
 10
165.0216953237585
 20
-74.14267446051223
 30
0.0
 10
165.0256801538555
 20
-74.14387426255649
 30
0.0
 10
165.0296700537099
 20
-74.14387426255649
 30
0.0
 10
165.0349831605064
 20
-74.14627615634334
 30
0.0
 10
165.0389730603607
 20
-74.14747595838827
 30
0.0
 10
165.0429578904565
 20
-74.14867576043254
 30
0.0
 10
165.0482760670103
 20
-74.14987785217512
 30
0.0
 10
165.0522608971073
 20
-74.15107765422003
 30
0.0
 10
165.0562507969617
 20
-74.1534795480069
 30
0.0
 10
165.0602356270587
 20
-74.15467935005181
 30
0.0
 10
165.0655538036125
 20
-74.15587915209544
 30
0.0
 10
165.0695386337076
 20
-74.15828104588293
 30
0.0
 10
165.0735234638046
 20
-74.1594808479272
 30
0.0
 10
165.077513363659
 20
-74.16188274171471
 30
0.0
 10
165.0814981937548
 20
-74.16428234580324
 30
0.0
 10
165.0868163703086
 20
-74.16548214784751
 30
0.0
 10
165.0894729237062
 20
-74.16788404163501
 30
0.0
 10
165.0934628235605
 20
-74.16908384367927
 30
0.0
 10
165.0987759303563
 20
-74.17268553951105
 30
0.0
 10
165.1014324837539
 20
-74.17388534155532
 30
0.0
 10
165.105422383609
 20
-74.17628723534282
 30
0.0
 10
165.1094072137053
 20
-74.17868912912968
 30
0.0
 10
165.1120688368609
 20
-74.18108873321886
 30
0.0
 10
165.1160536669573
 20
-74.18469042904999
 30
0.0
 10
165.1200384970543
 20
-74.18709232283749
 30
0.0
 10
165.1227001202093
 20
-74.18949192692666
 30
0.0
 10
165.1266849503063
 20
-74.19189382071353
 30
0.0
 10
165.1306748501607
 20
-74.19429342480206
 30
0.0
 10
165.1333314035583
 20
-74.19669531858956
 30
0.0
 10
165.1373162336546
 20
-74.19909492267874
 30
0.0
 10
165.1399778568102
 20
-74.20269661850987
 30
0.0
 10
165.1452909636048
 20
-74.20870020812914
 30
0.0
 10
165.151937416858
 20
-74.21470150804946
 30
0.0
 10
165.1572555934105
 20
-74.22070509766808
 30
0.0
 10
165.162568700207
 20
-74.22670639758838
 30
0.0
 10
165.1678868767595
 20
-74.23390978925225
 30
0.0
 10
165.173199983556
 20
-74.23991108917256
 30
0.0
 10
165.1785181601085
 20
-74.2471144808361
 30
0.0
 10
165.1825029902049
 20
-74.254317872499
 30
0.0
 10
165.1878211667574
 20
-74.26272106620681
 30
0.0
 10
165.1904777201563
 20
-74.26872236612712
 30
0.0
 10
165.1944676200113
 20
-74.27712555983429
 30
0.0
 10
165.1984524501064
 20
-74.2855287535421
 30
0.0
 10
165.2011090035053
 20
-74.2939319472499
 30
0.0
 10
165.2037706266602
 20
-74.30113533891343
 30
0.0
 10
165.2050989033597
 20
-74.3095385326206
 30
0.0
 10
165.2090837334554
 20
-74.31914152837268
 30
0.0
 10
165.2090837334554
 20
-74.32754472207985
 30
0.0
 10
165.2104120101548
 20
-74.33474811374371
 30
0.0
 10
165.2117402868523
 20
-74.34435110949578
 30
0.0
 10
165.2117402868523
 20
-74.35395639494619
 30
0.0
 10
165.2130736333098
 20
-74.36235958865336
 30
0.0
  0
LINE
  5
95
330
70
100
AcDbEntity
  8
Capa 2
 62
   178
420
      519
370
    13
100
AcDbLine
 10
165.2023105362433
 20
-108.0731157723543
 30
0.0
 11
165.2129418195916
 21
-108.0827196267436
 31
0.0
  0
LINE
  5
96
330
70
100
AcDbEntity
  8
Capa 2
 62
   178
420
      519
370
    13
100
AcDbLine
 10
165.3942611260616
 20
-108.4347374006523
 30
0.0
 11
165.3942611260616
 21
-74.71377603047881
 31
0.0
  0
LINE
  5
97
330
70
100
AcDbEntity
  8
Capa 2
 62
   178
420
      519
370
    13
100
AcDbLine
 10
97.86672254491769
 20
-74.36187646225807
 30
0.0
 11
97.86672254491769
 21
-108.0828395497057
 31
0.0
  0
LINE
  5
98
330
70
100
AcDbEntity
  8
Capa 2
 62
   178
420
      519
370
    13
100
AcDbLine
 10
97.86672254491769
 20
-108.0823592854325
 30
0.0
 11
97.87735446198553
 21
-108.0727557172564
 31
0.0
  0
LINE
  5
99
330
70
100
AcDbEntity
  8
Capa 2
 62
   178
420
      519
370
    13
100
AcDbLine
 10
164.9632207304636
 20
-74.13667087089296
 30
0.0
 11
98.11551079850232
 21
-74.13667087089296
 31
0.0
  0
SPLINE
  5
9A
330
70
100
AcDbEntity
  8
Capa 2
 62
   178
420
      519
370
    13
100
AcDbSpline
210
0.0
220
0.0
230
1.0
 70
     8
 71
     3
 72
    11
 73
     7
 74
     0
 42
0.0000000001
 43
0.0000000001
 40
0.0
 40
0.0
 40
0.0
 40
0.0
 40
1.0
 40
1.0
 40
1.0
 40
2.0
 40
2.0
 40
2.0
 40
2.0
 10
164.5301011314931
 20
-75.22548893645247
 30
0.0
 10
164.532757684892
 20
-75.26030380302628
 30
0.0
 10
164.5340859615895
 20
-75.30592146739614
 30
0.0
 10
164.5354142382876
 20
-75.35634062964236
 30
0.0
 10
164.5367425149871
 20
-75.40675979188825
 30
0.0
 10
164.5380707916865
 20
-75.46318254375245
 30
0.0
 10
164.5380707916865
 20
-75.51840320387437
 30
0.0
  0
SPLINE
  5
9B
330
70
100
AcDbEntity
  8
Capa 2
 62
   178
420
      519
370
    13
100
AcDbSpline
210
0.0
220
0.0
230
1.0
 70
     8
 71
     3
 72
    11
 73
     7
 74
     0
 42
0.0000000001
 43
0.0000000001
 40
0.0
 40
0.0
 40
0.0
 40
0.0
 40
1.0
 40
1.0
 40
1.0
 40
2.0
 40
2.0
 40
2.0
 40
2.0
 10
98.54212399629552
 20
-75.51876039684923
 30
0.0
 10
98.54212399629552
 20
-75.46233993468334
 30
0.0
 10
98.54345290671416
 20
-75.40591718281882
 30
0.0
 10
98.54478181713311
 20
-75.3567001123152
 30
0.0
 10
98.54478181713311
 20
-75.30628095006931
 30
0.0
 10
98.54743963797004
 20
-75.26066328569978
 30
0.0
 10
98.55009745880694
 20
-75.22584841912628
 30
0.0
  0
SPLINE
  5
9C
330
70
100
AcDbEntity
  8
Capa 2
 62
   178
420
      519
370
    13
100
AcDbSpline
210
0.0
220
0.0
230
1.0
 70
     8
 71
     3
 72
   110
 73
   106
 74
     0
 42
0.0000000001
 43
0.0000000001
 40
0.0
 40
0.0
 40
0.0
 40
0.0
 40
1.0
 40
1.0
 40
1.0
 40
2.0
 40
2.0
 40
2.0
 40
3.0
 40
3.0
 40
3.0
 40
4.0
 40
4.0
 40
4.0
 40
5.0
 40
5.0
 40
5.0
 40
6.0
 40
6.0
 40
6.0
 40
7.0
 40
7.0
 40
7.0
 40
8.0
 40
8.0
 40
8.0
 40
9.0
 40
9.0
 40
9.0
 40
10.0
 40
10.0
 40
10.0
 40
11.0
 40
11.0
 40
11.0
 40
12.0
 40
12.0
 40
12.0
 40
13.0
 40
13.0
 40
13.0
 40
14.0
 40
14.0
 40
14.0
 40
15.0
 40
15.0
 40
15.0
 40
16.0
 40
16.0
 40
16.0
 40
17.0
 40
17.0
 40
17.0
 40
18.0
 40
18.0
 40
18.0
 40
19.0
 40
19.0
 40
19.0
 40
20.0
 40
20.0
 40
20.0
 40
21.0
 40
21.0
 40
21.0
 40
22.0
 40
22.0
 40
22.0
 40
23.0
 40
23.0
 40
23.0
 40
24.0
 40
24.0
 40
24.0
 40
25.0
 40
25.0
 40
25.0
 40
26.0
 40
26.0
 40
26.0
 40
27.0
 40
27.0
 40
27.0
 40
28.0
 40
28.0
 40
28.0
 40
29.0
 40
29.0
 40
29.0
 40
30.0
 40
30.0
 40
30.0
 40
31.0
 40
31.0
 40
31.0
 40
32.0
 40
32.0
 40
32.0
 40
33.0
 40
33.0
 40
33.0
 40
34.0
 40
34.0
 40
34.0
 40
35.0
 40
35.0
 40
35.0
 40
35.0
 10
131.5397662753969
 20
-103.2662279459454
 30
0.0
 10
130.2240473681534
 20
-103.2662279459454
 30
0.0
 10
128.9070027190924
 20
-103.26142644807
 30
0.0
 10
127.5912863467295
 20
-103.2542236288306
 30
0.0
 10
126.2729108860891
 20
-103.2470208095921
 30
0.0
 10
124.9558662370281
 20
-103.2374172414162
 30
0.0
 10
123.6388190530871
 20
-103.2290140477075
 30
0.0
 10
122.3217744040248
 20
-103.2194104795316
 30
0.0
 10
121.0047297549626
 20
-103.2122076602931
 30
0.0
 10
119.6863542943234
 20
-103.2050048410537
 30
0.0
 10
119.0284973755817
 20
-103.2014031452219
 30
0.0
 10
118.3693096452624
 20
-103.1990023962842
 30
0.0
 10
117.7101219149426
 20
-103.1942003259834
 30
0.0
 10
117.6277231317935
 20
-103.1942003259834
 30
0.0
 10
117.5453243486431
 20
-103.1942003259834
 30
0.0
 10
117.4629255654927
 20
-103.1942003259834
 30
0.0
 10
117.4629255654927
 20
-103.1942003259834
 30
0.0
 10
117.3406582023459
 20
-103.1942003259834
 30
0.0
 10
117.3406582023459
 20
-103.1942003259834
 30
0.0
 10
117.3180648240698
 20
-103.1942003259834
 30
0.0
 10
117.2981305340719
 20
-103.1942003259834
 30
0.0
 10
117.2781937091934
 20
-103.1929999515148
 30
0.0
 10
117.2781937091934
 20
-103.1929999515148
 30
0.0
 10
117.2157317509215
 20
-103.1929999515148
 30
0.0
 10
117.2157317509215
 20
-103.1929999515148
 30
0.0
 10
117.0496059079239
 20
-103.1929999515148
 30
0.0
 10
116.8887957065988
 20
-103.1929999515148
 30
0.0
 10
116.7319728702507
 20
-103.1881984536394
 30
0.0
 10
116.6921017553743
 20
-103.186997506745
 30
0.0
 10
116.6535614520761
 20
-103.1857971322763
 30
0.0
 10
116.6136903372009
 20
-103.1833963833386
 30
0.0
 10
116.5937560472011
 20
-103.1833963833386
 30
0.0
 10
116.5751500339027
 20
-103.1833963833386
 30
0.0
 10
116.5552157439035
 20
-103.1821960088696
 30
0.0
 10
116.5366097306031
 20
-103.1809956344009
 30
0.0
 10
116.5166729057259
 20
-103.1797952599306
 30
0.0
 10
116.496738615728
 20
-103.1785943130378
 30
0.0
 10
116.4183271975533
 20
-103.1737928151611
 30
0.0
 10
116.3399157793786
 20
-103.1689907448607
 30
0.0
 10
116.2615043612052
 20
-103.1629883000912
 30
0.0
 10
116.1060098015553
 20
-103.1485832340383
 30
0.0
 10
115.9478586885078
 20
-103.1317762741989
 30
0.0
 10
115.793694940436
 20
-103.1101683889076
 30
0.0
 10
115.4840340978349
 20
-103.0669514734751
 30
0.0
 10
115.179691431787
 20
-103.0081291175221
 30
0.0
 10
114.8806669422923
 20
-102.9324998017283
 30
0.0
 10
114.582968194619
 20
-102.8568710583597
 30
0.0
 10
114.2892593467981
 20
-102.7656357296203
 30
0.0
 10
114.0021918824731
 20
-102.6587949603581
 30
0.0
 10
113.7151269530255
 20
-102.5531539931407
 30
0.0
 10
113.4320493885556
 20
-102.4319075854032
 30
0.0
 10
113.1556157424583
 20
-102.2950545922936
 30
0.0
 10
113.085179054235
 20
-102.2602414429934
 30
0.0
 10
113.0173989194087
 20
-102.2254282936944
 30
0.0
 10
112.9482905078835
 20
-102.1894141975017
 30
0.0
 10
112.8805103730585
 20
-102.1534006737325
 30
0.0
 10
112.8140610498096
 20
-102.1173865775394
 30
0.0
 10
112.7476091916827
 20
-102.0801721068764
 30
0.0
 10
112.6133797336107
 20
-102.0045433635077
 30
0.0
 10
112.4818093638131
 20
-101.9277136732453
 30
0.0
 10
112.3542238241124
 20
-101.8472828595759
 30
0.0
 10
112.0963961913155
 20
-101.6852202853435
 30
0.0
 10
111.8492023767443
 20
-101.5135547153588
 30
0.0
 10
111.6126373106435
 20
-101.328683308941
 30
0.0
 10
111.3747465027231
 20
-101.1450128494177
 30
0.0
 10
111.1461561665736
 20
-100.9505384472478
 30
0.0
 10
110.9255430952523
 20
-100.745258957584
 30
0.0
 10
110.8710533320532
 20
-100.6936399932932
 30
0.0
 10
110.8165635688521
 20
-100.6420198841535
 30
0.0
 10
110.7634033497901
 20
-100.5891988281208
 30
0.0
 10
110.7102431307281
 20
-100.5363789169362
 30
0.0
 10
110.6557546349679
 20
-100.4835590057526
 30
0.0
 10
110.6052522367426
 20
-100.4295381476753
 30
0.0
 10
110.5002600753174
 20
-100.3226973784137
 30
0.0
 10
110.3979270021691
 20
-100.2134547153653
 30
0.0
 10
110.300909570696
 20
-100.1018124482277
 30
0.0
 10
110.1028886102111
 20
-99.87972657114823
 30
0.0
 10
109.9181567539137
 20
-99.65163939414845
 30
0.0
 10
109.7440561809634
 20
-99.41754862752908
 30
0.0
 10
109.3958550350647
 20
-98.94816843709588
 30
0.0
 10
109.0928431805943
 20
-98.45477846758447
 30
0.0
 10
108.8296999061222
 20
-97.93857966588797
 30
0.0
 10
108.6994552781453
 20
-97.67928046299465
 30
0.0
 10
108.5785161916966
 20
-97.4151786173771
 30
0.0
 10
108.468208388597
 20
-97.14627527388318
 30
0.0
 10
108.4402993686489
 20
-97.0790497242223
 30
0.0
 10
108.4137211602758
 20
-97.01062322766738
 30
0.0
 10
108.3858096054479
 20
-96.94339767800618
 30
0.0
 10
108.3605596737748
 20
-96.87497118145124
 30
0.0
 10
108.3353097421012
 20
-96.8077456317907
 30
0.0
 10
108.3100572755507
 20
-96.7393191352351
 30
0.0
 10
108.2608831540248
 20
-96.60246614212555
 30
0.0
 10
108.2143681207751
 20
-96.46561429386483
 30
0.0
 10
108.1705121758017
 20
-96.32876130075592
 30
0.0
 10
108.0827977509781
 20
-96.05505645938597
 30
0.0
 10
108.0070428862016
 20
-95.77894972422818
 30
0.0
 10
107.9419218396522
 20
-95.50044338498251
 30
0.0
 10
107.8768007931041
 20
-95.22193590088736
 30
0.0
 10
107.822311029903
 20
-94.94102766785418
 30
0.0
 10
107.779783361629
 20
-94.66011943482037
 30
0.0
 10
107.7359274166568
 20
-94.37801139974325
 30
0.0
 10
107.7040310317318
 20
-94.09470241777174
 30
0.0
 10
107.6814376534577
 20
-93.8101936337566
 30
0.0
 10
107.6588442751816
 20
-93.5244839028477
 30
0.0
 10
107.6482129918333
 20
-93.23757322504443
 30
0.0
 10
107.6482129918333
 20
-92.9494627451975
 30
0.0
  0
SPLINE
  5
9D
330
70
100
AcDbEntity
  8
Capa 2
 62
   178
420
      519
370
    13
100
AcDbSpline
210
0.0
220
0.0
230
1.0
 70
     8
 71
     3
 72
   110
 73
   106
 74
     0
 42
0.0000000001
 43
0.0000000001
 40
0.0
 40
0.0
 40
0.0
 40
0.0
 40
1.0
 40
1.0
 40
1.0
 40
2.0
 40
2.0
 40
2.0
 40
3.0
 40
3.0
 40
3.0
 40
4.0
 40
4.0
 40
4.0
 40
5.0
 40
5.0
 40
5.0
 40
6.0
 40
6.0
 40
6.0
 40
7.0
 40
7.0
 40
7.0
 40
8.0
 40
8.0
 40
8.0
 40
9.0
 40
9.0
 40
9.0
 40
10.0
 40
10.0
 40
10.0
 40
11.0
 40
11.0
 40
11.0
 40
12.0
 40
12.0
 40
12.0
 40
13.0
 40
13.0
 40
13.0
 40
14.0
 40
14.0
 40
14.0
 40
15.0
 40
15.0
 40
15.0
 40
16.0
 40
16.0
 40
16.0
 40
17.0
 40
17.0
 40
17.0
 40
18.0
 40
18.0
 40
18.0
 40
19.0
 40
19.0
 40
19.0
 40
20.0
 40
20.0
 40
20.0
 40
21.0
 40
21.0
 40
21.0
 40
22.0
 40
22.0
 40
22.0
 40
23.0
 40
23.0
 40
23.0
 40
24.0
 40
24.0
 40
24.0
 40
25.0
 40
25.0
 40
25.0
 40
26.0
 40
26.0
 40
26.0
 40
27.0
 40
27.0
 40
27.0
 40
28.0
 40
28.0
 40
28.0
 40
29.0
 40
29.0
 40
29.0
 40
30.0
 40
30.0
 40
30.0
 40
31.0
 40
31.0
 40
31.0
 40
32.0
 40
32.0
 40
32.0
 40
33.0
 40
33.0
 40
33.0
 40
34.0
 40
34.0
 40
34.0
 40
35.0
 40
35.0
 40
35.0
 40
35.0
 10
155.4317200698716
 20
-92.9494616003477
 30
0.0
 10
155.4317200698716
 20
-93.23757322504443
 30
0.0
 10
155.4197554400658
 20
-93.52448275799758
 30
0.0
 10
155.3984928733685
 20
-93.81019248890742
 30
0.0
 10
155.375896960215
 20
-94.09470241777174
 30
0.0
 10
155.3440031101687
 20
-94.37801139974325
 30
0.0
 10
155.3001446303166
 20
-94.66011943482037
 30
0.0
 10
155.2576194969232
 20
-94.94222861474762
 30
0.0
 10
155.2018014570227
 20
-95.22193590088736
 30
0.0
 10
155.1380086871721
 20
-95.50044224013335
 30
0.0
 10
155.0728876406239
 20
-95.77774877733476
 30
0.0
 10
154.9971302409675
 20
-96.05505531453585
 30
0.0
 10
154.9094183510226
 20
-96.32876130075592
 30
0.0
 10
154.8655598711705
 20
-96.46681409590975
 30
0.0
 10
154.8190448379221
 20
-96.60246614212555
 30
0.0
 10
154.7698732512755
 20
-96.7393191352351
 30
0.0
 10
154.7446207847231
 20
-96.80654468489663
 30
0.0
 10
154.7193683181708
 20
-96.87617098349551
 30
0.0
 10
154.6927875749209
 20
-96.94339767800618
 30
0.0
 10
154.6662119014271
 20
-97.01182417456111
 30
0.0
 10
154.6396311581773
 20
-97.0790497242223
 30
0.0
 10
154.611722138228
 20
-97.14627527388318
 30
0.0
 10
154.5014143351276
 20
-97.41637956427052
 30
0.0
 10
154.3804752486809
 20
-97.68048026503956
 30
0.0
 10
154.2502280858234
 20
-97.93857966588797
 30
0.0
 10
153.98708734623
 20
-98.45477846758447
 30
0.0
 10
153.6840729568828
 20
-98.94816843709588
 30
0.0
 10
153.3358718109822
 20
-99.41754862752908
 30
0.0
 10
153.1617763077912
 20
-99.65163824929897
 30
0.0
 10
152.9770444514938
 20
-99.88092637319251
 30
0.0
 10
152.7790196886906
 20
-100.1018113033785
 30
0.0
 10
152.6806714456387
 20
-100.2122537684712
 30
0.0
 10
152.5796717189465
 20
-100.3214952866711
 30
0.0
 10
152.4746770226427
 20
-100.4295370028261
 30
0.0
 10
152.4228488825985
 20
-100.4835578609035
 30
0.0
 10
152.3696873960968
 20
-100.5363789169362
 30
0.0
 10
152.3165259095952
 20
-100.5903986301644
 30
0.0
 10
152.2633644230935
 20
-100.6420187393044
 30
0.0
 10
152.2075463831943
 20
-100.6948397953381
 30
0.0
 10
152.1530566199951
 20
-100.745258957584
 30
0.0
 10
151.9337743602526
 20
-100.9505373023987
 30
0.0
 10
151.7051840241024
 20
-101.1462126514619
 30
0.0
 10
151.4672906813034
 20
-101.3298831109859
 30
0.0
 10
151.2293973385031
 20
-101.5135535705096
 30
0.0
 10
150.9835343355107
 20
-101.6852202853435
 30
0.0
 10
150.7257067027118
 20
-101.8472822871521
 30
0.0
 10
150.596792886313
 20
-101.9277131008212
 30
0.0
 10
150.4665507932155
 20
-102.0057431655526
 30
0.0
 10
150.3323188002629
 20
-102.0801715344523
 30
0.0
 10
150.2658694770147
 20
-102.1173860051143
 30
0.0
 10
150.1980868073096
 20
-102.1546004757761
 30
0.0
 10
150.1316374840621
 20
-102.1906139995453
 30
0.0
 10
150.0625316074175
 20
-102.2254277212694
 30
0.0
 10
149.9934206610131
 20
-102.2602408705696
 30
0.0
 10
149.9243147843679
 20
-102.2950540198686
 30
0.0
 10
149.6478811382706
 20
-102.4319070129781
 30
0.0
 10
149.36480103892
 20
-102.553153420717
 30
0.0
 10
149.0777361094725
 20
-102.6599941899779
 30
0.0
 10
148.789342903328
 20
-102.7656351571952
 30
0.0
 10
148.4969597973279
 20
-102.8568704859346
 30
0.0
 10
148.1979353078338
 20
-102.9312982824105
 30
0.0
 10
147.9002390950392
 20
-103.006928170628
 30
0.0
 10
147.5958964289907
 20
-103.0669514734751
 30
0.0
 10
147.2862355863902
 20
-103.1101672440585
 30
0.0
 10
147.1320693034397
 20
-103.1317762741989
 30
0.0
 10
146.9739181903903
 20
-103.1497824636582
 30
0.0
 10
146.8170953540422
 20
-103.1617873531971
 30
0.0
 10
146.7400147474463
 20
-103.1689896000115
 30
0.0
 10
146.6616007943923
 20
-103.174992044781
 30
0.0
 10
146.5831919110982
 20
-103.1785937406128
 30
0.0
 10
146.5632576210984
 20
-103.1797946875068
 30
0.0
 10
146.5433182613425
 20
-103.1809944895504
 30
0.0
 10
146.5233839713446
 20
-103.1809944895504
 30
0.0
 10
146.5047779580442
 20
-103.1821954364445
 30
0.0
 10
146.4848436680463
 20
-103.1833952384894
 30
0.0
 10
146.4662376547459
 20
-103.1845961853822
 30
0.0
 10
146.4263690747482
 20
-103.1857971322763
 30
0.0
 10
146.3878287714506
 20
-103.1869969343212
 30
0.0
 10
146.3479551216961
 20
-103.188197881214
 30
0.0
 10
146.1911322853468
 20
-103.1917984321966
 30
0.0
 10
146.0303246189017
 20
-103.1929993790907
 30
0.0
 10
145.8641987759028
 20
-103.1929993790907
 30
0.0
 10
145.8641987759028
 20
-103.1929993790907
 30
0.0
 10
145.8017342827522
 20
-103.1929993790907
 30
0.0
 10
145.8017342827522
 20
-103.1929993790907
 30
0.0
 10
145.8017342827522
 20
-103.1929993790907
 30
0.0
 10
145.7392697895997
 20
-103.1929993790907
 30
0.0
 10
145.7392697895997
 20
-103.1929993790907
 30
0.0
 10
145.6994012096039
 20
-103.1942003259834
 30
0.0
 10
145.6568710064506
 20
-103.1942003259834
 30
0.0
 10
145.6156741497554
 20
-103.1942003259834
 30
0.0
 10
145.533275366605
 20
-103.1942003259834
 30
0.0
 10
145.4508765834546
 20
-103.1954001280284
 30
0.0
 10
145.369806077003
 20
-103.1954001280284
 30
0.0
 10
144.7106208815631
 20
-103.1978008769661
 30
0.0
 10
144.0514356861219
 20
-103.2014025727978
 30
0.0
 10
143.392245420924
 20
-103.2050042686296
 30
0.0
 10
142.075198236983
 20
-103.2110067133991
 30
0.0
 10
140.7581561227994
 20
-103.2206097091511
 30
0.0
 10
139.4397806621603
 20
-103.2290129028583
 30
0.0
 10
138.1227334782193
 20
-103.2374160965668
 30
0.0
 10
136.8056862942783
 20
-103.2458192902742
 30
0.0
 10
135.488644180096
 20
-103.2542224839814
 30
0.0
 10
134.1715969961551
 20
-103.2602249287509
 30
0.0
 10
132.8558831586709
 20
-103.2662273735216
 30
0.0
 10
131.540166786308
 20
-103.2662273735216
 30
0.0
  0
SPLINE
  5
9E
330
70
100
AcDbEntity
  8
Capa 2
 62
   178
420
      519
370
    13
100
AcDbSpline
210
0.0
220
0.0
230
1.0
 70
     8
 71
     3
 72
   110
 73
   106
 74
     0
 42
0.0000000001
 43
0.0000000001
 40
0.0
 40
0.0
 40
0.0
 40
0.0
 40
1.0
 40
1.0
 40
1.0
 40
2.0
 40
2.0
 40
2.0
 40
3.0
 40
3.0
 40
3.0
 40
4.0
 40
4.0
 40
4.0
 40
5.0
 40
5.0
 40
5.0
 40
6.0
 40
6.0
 40
6.0
 40
7.0
 40
7.0
 40
7.0
 40
8.0
 40
8.0
 40
8.0
 40
9.0
 40
9.0
 40
9.0
 40
10.0
 40
10.0
 40
10.0
 40
11.0
 40
11.0
 40
11.0
 40
12.0
 40
12.0
 40
12.0
 40
13.0
 40
13.0
 40
13.0
 40
14.0
 40
14.0
 40
14.0
 40
15.0
 40
15.0
 40
15.0
 40
16.0
 40
16.0
 40
16.0
 40
17.0
 40
17.0
 40
17.0
 40
18.0
 40
18.0
 40
18.0
 40
19.0
 40
19.0
 40
19.0
 40
20.0
 40
20.0
 40
20.0
 40
21.0
 40
21.0
 40
21.0
 40
22.0
 40
22.0
 40
22.0
 40
23.0
 40
23.0
 40
23.0
 40
24.0
 40
24.0
 40
24.0
 40
25.0
 40
25.0
 40
25.0
 40
26.0
 40
26.0
 40
26.0
 40
27.0
 40
27.0
 40
27.0
 40
28.0
 40
28.0
 40
28.0
 40
29.0
 40
29.0
 40
29.0
 40
30.0
 40
30.0
 40
30.0
 40
31.0
 40
31.0
 40
31.0
 40
32.0
 40
32.0
 40
32.0
 40
33.0
 40
33.0
 40
33.0
 40
34.0
 40
34.0
 40
34.0
 40
35.0
 40
35.0
 40
35.0
 40
35.0
 10
107.6476806672007
 20
-92.9494616003477
 30
0.0
 10
107.6476806672007
 20
-92.66135112050015
 30
0.0
 10
107.6596414946882
 20
-92.374441587547
 30
0.0
 10
107.6809053288252
 20
-92.08873185663778
 30
0.0
 10
107.7034987071006
 20
-91.80422307262199
 30
0.0
 10
107.735395092025
 20
-91.5209140906508
 30
0.0
 10
107.7792523044374
 20
-91.23880491072291
 30
0.0
 10
107.8217799727114
 20
-90.9566957307963
 30
0.0
 10
107.87759801261
 20
-90.6769884446569
 30
0.0
 10
107.9413907824606
 20
-90.39848096056141
 30
0.0
 10
108.00651182901
 20
-90.12117556820916
 30
0.0
 10
108.0822654263468
 20
-89.84386788615829
 30
0.0
 10
108.1699798511711
 20
-89.57016418963716
 30
0.0
 10
108.2138370635835
 20
-89.43211139448399
 30
0.0
 10
108.2603520968332
 20
-89.29645820341805
 30
0.0
 10
108.3095249509195
 20
-89.15960521030818
 30
0.0
 10
108.3347761500309
 20
-89.09237966064763
 30
0.0
 10
108.3600273491436
 20
-89.02275221719863
 30
0.0
 10
108.3866080923934
 20
-88.95552666753712
 30
0.0
 10
108.4131875682056
 20
-88.88710131583229
 30
0.0
 10
108.4397683114574
 20
-88.81987576617078
 30
0.0
 10
108.4676773314054
 20
-88.75265021650992
 30
0.0
 10
108.577985134505
 20
-88.48254592612192
 30
0.0
 10
108.6989242209537
 20
-88.21844293565458
 30
0.0
 10
108.8291675814909
 20
-87.96034353480681
 30
0.0
 10
109.0923108559636
 20
-87.44414702280863
 30
0.0
 10
109.3953239778731
 20
-86.95075590844743
 30
0.0
 10
109.7435238563321
 20
-86.48137686286402
 30
0.0
 10
109.9176231618415
 20
-86.2472849513958
 30
0.0
 10
110.1023550181408
 20
-86.01799682750163
 30
0.0
 10
110.3003772460647
 20
-85.79711189731559
 30
0.0
 10
110.398724221677
 20
-85.68667057707205
 30
0.0
 10
110.4997290181258
 20
-85.57742905887279
 30
0.0
 10
110.6047199121113
 20
-85.46938734271712
 30
0.0
 10
110.6565518544758
 20
-85.4153664846398
 30
0.0
 10
110.7097120735378
 20
-85.36254542860703
 30
0.0
 10
110.7628722925985
 20
-85.30972666227293
 30
0.0
 10
110.8160325116605
 20
-85.25690560623891
 30
0.0
 10
110.8718505515597
 20
-85.20408455020646
 30
0.0
 10
110.9263403147602
 20
-85.15366538796056
 30
0.0
 10
111.1456263768198
 20
-84.94838704314458
 30
0.0
 10
111.3742141780906
 20
-84.7527116940823
 30
0.0
 10
111.6121075208915
 20
-84.56904123455862
 30
0.0
 10
111.8499983288112
 20
-84.38537077503367
 30
0.0
 10
112.095863866683
 20
-84.21370520504956
 30
0.0
 10
112.3536914994818
 20
-84.0516426308172
 30
0.0
 10
112.4826053158819
 20
-83.97121009987419
 30
0.0
 10
112.6128499438575
 20
-83.89318175241568
 30
0.0
 10
112.7470794019308
 20
-83.81875281109223
 30
0.0
 10
112.8135287251803
 20
-83.78153834042954
 30
0.0
 10
112.8813088600047
 20
-83.74432386976719
 30
0.0
 10
112.9477581832523
 20
-83.70830920114974
 30
0.0
 10
113.0168665947774
 20
-83.67349662427455
 30
0.0
 10
113.0859750063019
 20
-83.63868404739967
 30
0.0
 10
113.1550834178257
 20
-83.60386918082586
 30
0.0
 10
113.4315170639243
 20
-83.46701618771662
 30
0.0
 10
113.7145946283962
 20
-83.34576977997777
 30
0.0
 10
114.0016620927212
 20
-83.23893015556535
 30
0.0
 10
114.2900552988663
 20
-83.1332880434989
 30
0.0
 10
114.5824358699864
 20
-83.04325480650275
 30
0.0
 10
114.8814628943592
 20
-82.96762606313439
 30
0.0
 10
115.1791616420344
 20
-82.89199503006612
 30
0.0
 10
115.483504308083
 20
-82.83197287206814
 30
0.0
 10
115.7931626158034
 20
-82.78875710148611
 30
0.0
 10
115.9473263638752
 20
-82.76714692649612
 30
0.0
 10
116.105477476924
 20
-82.74914073703625
 30
0.0
 10
116.2623003132721
 20
-82.73713584749698
 30
0.0
 10
116.3393834547474
 20
-82.7299347455324
 30
0.0
 10
116.417794872922
 20
-82.72393115591313
 30
0.0
 10
116.4962062910954
 20
-82.72032946008136
 30
0.0
 10
116.5161405810953
 20
-82.71912965803775
 30
0.0
 10
116.5360774059718
 20
-82.71792985599281
 30
0.0
 10
116.5560116959717
 20
-82.71792985599281
 30
0.0
 10
116.5746177092701
 20
-82.71672776425024
 30
0.0
 10
116.59455199927
 20
-82.71552796220596
 30
0.0
 10
116.6131580125684
 20
-82.71432816016107
 30
0.0
 10
116.6530291274448
 20
-82.71312606841846
 30
0.0
 10
116.6915694307431
 20
-82.7119262663742
 30
0.0
 10
116.7314405456195
 20
-82.71072646432992
 30
0.0
 10
116.8882633819676
 20
-82.70712476849816
 30
0.0
 10
117.0490735832933
 20
-82.7059249664539
 30
0.0
 10
117.2151994262915
 20
-82.7059249664539
 30
0.0
 10
117.2151994262915
 20
-82.7059249664539
 30
0.0
 10
117.2776613845641
 20
-82.7059249664539
 30
0.0
 10
117.2776613845641
 20
-82.7059249664539
 30
0.0
 10
117.2776613845641
 20
-82.7059249664539
 30
0.0
 10
117.3401258777146
 20
-82.7059249664539
 30
0.0
 10
117.3401258777146
 20
-82.7059249664539
 30
0.0
 10
117.379996992591
 20
-82.70472287471065
 30
0.0
 10
117.4225246608637
 20
-82.70472287471065
 30
0.0
 10
117.4637240524396
 20
-82.70472287471065
 30
0.0
 10
117.5461228355899
 20
-82.70472287471065
 30
0.0
 10
117.628521618739
 20
-82.70352307266703
 30
0.0
 10
117.7095895903113
 20
-82.70352307266703
 30
0.0
 10
118.3687773206318
 20
-82.70112346857784
 30
0.0
 10
119.0279650509504
 20
-82.69752177274609
 30
0.0
 10
119.6871527812709
 20
-82.69392007691495
 30
0.0
 10
121.0041974303332
 20
-82.68791648729568
 30
0.0
 10
122.3212446142729
 20
-82.67831349154361
 30
0.0
 10
123.6396175400346
 20
-82.6699102978358
 30
0.0
 10
124.9566647239743
 20
-82.66150710412864
 30
0.0
 10
126.2737093730366
 20
-82.65310391042083
 30
0.0
 10
127.590754022097
 20
-82.64470071671301
 30
0.0
 10
128.9078012060386
 20
-82.63869941679271
 30
0.0
 10
130.2235175784028
 20
-82.63269582717375
 30
0.0
 10
131.5392339507643
 20
-82.63269582717375
 30
0.0
  0
SPLINE
  5
9F
330
70
100
AcDbEntity
  8
Capa 2
 62
   178
420
      519
370
    13
100
AcDbSpline
210
0.0
220
0.0
230
1.0
 70
     8
 71
     3
 72
   110
 73
   106
 74
     0
 42
0.0000000001
 43
0.0000000001
 40
0.0
 40
0.0
 40
0.0
 40
0.0
 40
1.0
 40
1.0
 40
1.0
 40
2.0
 40
2.0
 40
2.0
 40
3.0
 40
3.0
 40
3.0
 40
4.0
 40
4.0
 40
4.0
 40
5.0
 40
5.0
 40
5.0
 40
6.0
 40
6.0
 40
6.0
 40
7.0
 40
7.0
 40
7.0
 40
8.0
 40
8.0
 40
8.0
 40
9.0
 40
9.0
 40
9.0
 40
10.0
 40
10.0
 40
10.0
 40
11.0
 40
11.0
 40
11.0
 40
12.0
 40
12.0
 40
12.0
 40
13.0
 40
13.0
 40
13.0
 40
14.0
 40
14.0
 40
14.0
 40
15.0
 40
15.0
 40
15.0
 40
16.0
 40
16.0
 40
16.0
 40
17.0
 40
17.0
 40
17.0
 40
18.0
 40
18.0
 40
18.0
 40
19.0
 40
19.0
 40
19.0
 40
20.0
 40
20.0
 40
20.0
 40
21.0
 40
21.0
 40
21.0
 40
22.0
 40
22.0
 40
22.0
 40
23.0
 40
23.0
 40
23.0
 40
24.0
 40
24.0
 40
24.0
 40
25.0
 40
25.0
 40
25.0
 40
26.0
 40
26.0
 40
26.0
 40
27.0
 40
27.0
 40
27.0
 40
28.0
 40
28.0
 40
28.0
 40
29.0
 40
29.0
 40
29.0
 40
30.0
 40
30.0
 40
30.0
 40
31.0
 40
31.0
 40
31.0
 40
32.0
 40
32.0
 40
32.0
 40
33.0
 40
33.0
 40
33.0
 40
34.0
 40
34.0
 40
34.0
 40
35.0
 40
35.0
 40
35.0
 40
35.0
 10
131.5397662753969
 20
-82.63269582717375
 30
0.0
 10
132.8554826477597
 20
-82.63269582717375
 30
0.0
 10
134.1725247619414
 20
-82.63749961474843
 30
0.0
 10
135.4882436691829
 20
-82.64470071671301
 30
0.0
 10
136.8052908531246
 20
-82.65190410837654
 30
0.0
 10
138.1236612440056
 20
-82.66150710412864
 30
0.0
 10
139.4407084279466
 20
-82.6699102978358
 30
0.0
 10
140.7577556118882
 20
-82.67951558328618
 30
0.0
 10
142.0748027958279
 20
-82.68671668525142
 30
0.0
 10
143.393173186709
 20
-82.69392007691495
 30
0.0
 10
144.0510351752101
 20
-82.69752177274609
 30
0.0
 10
144.71022037065
 20
-82.69992366653358
 30
0.0
 10
145.3694106358492
 20
-82.70472516440962
 30
0.0
 10
145.4518094189996
 20
-82.70472516440962
 30
0.0
 10
145.5342031323894
 20
-82.70472516440962
 30
0.0
 10
145.6166019155417
 20
-82.70472516440962
 30
0.0
 10
145.6166019155417
 20
-82.70472516440962
 30
0.0
 10
145.7388743484459
 20
-82.70472516440962
 30
0.0
 10
145.7388743484459
 20
-82.70472516440962
 30
0.0
 10
145.7614651918414
 20
-82.70472516440962
 30
0.0
 10
145.7813994818412
 20
-82.70472516440962
 30
0.0
 10
145.8013337718391
 20
-82.7059249664539
 30
0.0
 10
145.8013337718391
 20
-82.7059249664539
 30
0.0
 10
145.8637982649896
 20
-82.7059249664539
 30
0.0
 10
145.8637982649896
 20
-82.7059249664539
 30
0.0
 10
146.0299241079886
 20
-82.7059249664539
 30
0.0
 10
146.1907368441917
 20
-82.7059249664539
 30
0.0
 10
146.3475596805411
 20
-82.71072646432992
 30
0.0
 10
146.3874282605375
 20
-82.71192855607251
 30
0.0
 10
146.425968563837
 20
-82.71312835811743
 30
0.0
 10
146.4658371438328
 20
-82.71552796220596
 30
0.0
 10
146.4857765035907
 20
-82.71552796220596
 30
0.0
 10
146.5043825168891
 20
-82.71552796220596
 30
0.0
 10
146.5243168068883
 20
-82.71673005394919
 30
0.0
 10
146.5429228201874
 20
-82.71792985599281
 30
0.0
 10
146.5628571101866
 20
-82.71912965803775
 30
0.0
 10
146.5827914001851
 20
-82.72033174978032
 30
0.0
 10
146.6612053532385
 20
-82.72513324765636
 30
0.0
 10
146.7396142365332
 20
-82.7299347455324
 30
0.0
 10
146.8180281895866
 20
-82.73593604545208
 30
0.0
 10
146.9735176794791
 20
-82.75034282877946
 30
0.0
 10
147.131673862284
 20
-82.76714921619509
 30
0.0
 10
147.2858350754771
 20
-82.78875710148611
 30
0.0
 10
147.5954959180775
 20
-82.83197287206814
 30
0.0
 10
147.8998385841261
 20
-82.89079522802248
 30
0.0
 10
148.1988630736202
 20
-82.96642626108948
 30
0.0
 10
148.4965592864148
 20
-83.04205500445783
 30
0.0
 10
148.7902706691131
 20
-83.13329033319787
 30
0.0
 10
149.0773355985606
 20
-83.24012995761027
 30
0.0
 10
149.3644005280069
 20
-83.34577206967674
 30
0.0
 10
149.6474806273575
 20
-83.46701847741494
 30
0.0
 10
149.9239142734548
 20
-83.60386918082586
 30
0.0
 10
149.9943534965568
 20
-83.63868404739967
 30
0.0
 10
150.0621310965044
 20
-83.67349662427455
 30
0.0
 10
150.131242042907
 20
-83.70951129289233
 30
0.0
 10
150.199019642854
 20
-83.74552367181209
 30
0.0
 10
150.2654689661016
 20
-83.78153834042954
 30
0.0
 10
150.3319182893498
 20
-83.81875281109223
 30
0.0
 10
150.4661502823024
 20
-83.89438155446059
 30
0.0
 10
150.5977206520994
 20
-83.9712123895725
 30
0.0
 10
150.7253061917987
 20
-84.0516426308172
 30
0.0
 10
150.9831338245976
 20
-84.21370520504956
 30
0.0
 10
151.2303301740475
 20
-84.38537077503367
 30
0.0
 10
151.466890170389
 20
-84.57024103660225
 30
0.0
 10
151.7047835131893
 20
-84.75391149612658
 30
0.0
 10
151.9333738493395
 20
-84.94838704314458
 30
0.0
 10
152.15266117884
 20
-85.15366538796056
 30
0.0
 10
152.2084792187386
 20
-85.20528664194905
 30
0.0
 10
152.2629689819397
 20
-85.25690560623891
 30
0.0
 10
152.3161253986821
 20
-85.30972666227293
 30
0.0
 10
152.3692868851837
 20
-85.36254542860703
 30
0.0
 10
152.4237766483848
 20
-85.4153664846398
 30
0.0
 10
152.4742765117296
 20
-85.46938734271712
 30
0.0
 10
152.5792712080347
 20
-85.57622925682851
 30
0.0
 10
152.681604281183
 20
-85.68547077502714
 30
0.0
 10
152.7786191777775
 20
-85.79711418701391
 30
0.0
 10
152.9766439405794
 20
-86.01919891924454
 30
0.0
 10
153.1613757968781
 20
-86.24728724109477
 30
0.0
 10
153.3354763698284
 20
-86.48137686286402
 30
0.0
 10
153.6836775157271
 20
-86.95075590844743
 30
0.0
 10
153.9866868353182
 20
-87.44414702280863
 30
0.0
 10
154.2498326446696
 20
-87.96034582450513
 30
0.0
 10
154.3800747377678
 20
-88.21964502739779
 30
0.0
 10
154.5010138242164
 20
-88.48374572816684
 30
0.0
 10
154.6113216273148
 20
-88.75265021650992
 30
0.0
 10
154.6392306472642
 20
-88.81987576617078
 30
0.0
 10
154.6658113905159
 20
-88.8883011178772
 30
0.0
 10
154.693720410464
 20
-88.95552666753712
 30
0.0
 10
154.7189728770157
 20
-89.02395430894186
 30
0.0
 10
154.74422027381
 20
-89.09117985860337
 30
0.0
 10
154.7694727403624
 20
-89.15960521030818
 30
0.0
 10
154.8186493967683
 20
-89.29645820341805
 30
0.0
 10
154.8651644300167
 20
-89.43331119652761
 30
0.0
 10
154.9090178401095
 20
-89.57016418963716
 30
0.0
 10
154.9967347998137
 20
-89.84386788615829
 30
0.0
 10
155.0724871297108
 20
-90.11997576616426
 30
0.0
 10
155.1376081762609
 20
-90.39848096056141
 30
0.0
 10
155.202729222809
 20
-90.6769884446569
 30
0.0
 10
155.2572189860082
 20
-90.9566957307963
 30
0.0
 10
155.2997491891615
 20
-91.23880491072291
 30
0.0
 10
155.3436025992556
 20
-91.5209140906508
 30
0.0
 10
155.3755015190599
 20
-91.80422307262199
 30
0.0
 10
155.3980923624554
 20
-92.08873185663778
 30
0.0
 10
155.4206882756102
 20
-92.37444044269848
 30
0.0
 10
155.4313195589585
 20
-92.66135112050015
 30
0.0
 10
155.4313195589585
 20
-92.9494616003477
 30
0.0
  0
LWPOLYLINE
  5
A0
330
70
100
AcDbEntity
  8
Capa 2
 62
   178
420
      519
370
    13
100
AcDbPolyline
 90
        3
 70
     0
 43
0.0
 10
164.5371430259002
 20
-108.6738267754004
 10
164.5371430259002
 20
-108.4937577254954
 10
164.5371430259002
 20
-108.0723956621588
  0
LWPOLYLINE
  5
A1
330
70
100
AcDbEntity
  8
Capa 2
 62
   178
420
      519
370
    13
100
AcDbPolyline
 90
        3
 70
     0
 43
0.0
 10
164.5371430259002
 20
-108.0731157723543
 10
165.0036216350913
 20
-108.0731157723543
 10
165.2029746745921
 20
-108.0731157723543
  0
SPLINE
  5
A2
330
70
100
AcDbEntity
  8
Capa 2
 62
   178
420
      519
370
    13
100
AcDbSpline
210
0.0
220
0.0
230
1.0
 70
     8
 71
     3
 72
    98
 73
    94
 74
     0
 42
0.0000000001
 43
0.0000000001
 40
0.0
 40
0.0
 40
0.0
 40
0.0
 40
1.0
 40
1.0
 40
1.0
 40
2.0
 40
2.0
 40
2.0
 40
3.0
 40
3.0
 40
3.0
 40
4.0
 40
4.0
 40
4.0
 40
5.0
 40
5.0
 40
5.0
 40
6.0
 40
6.0
 40
6.0
 40
7.0
 40
7.0
 40
7.0
 40
8.0
 40
8.0
 40
8.0
 40
9.0
 40
9.0
 40
9.0
 40
10.0
 40
10.0
 40
10.0
 40
11.0
 40
11.0
 40
11.0
 40
12.0
 40
12.0
 40
12.0
 40
13.0
 40
13.0
 40
13.0
 40
14.0
 40
14.0
 40
14.0
 40
15.0
 40
15.0
 40
15.0
 40
16.0
 40
16.0
 40
16.0
 40
17.0
 40
17.0
 40
17.0
 40
18.0
 40
18.0
 40
18.0
 40
19.0
 40
19.0
 40
19.0
 40
20.0
 40
20.0
 40
20.0
 40
21.0
 40
21.0
 40
21.0
 40
22.0
 40
22.0
 40
22.0
 40
23.0
 40
23.0
 40
23.0
 40
24.0
 40
24.0
 40
24.0
 40
25.0
 40
25.0
 40
25.0
 40
26.0
 40
26.0
 40
26.0
 40
27.0
 40
27.0
 40
27.0
 40
28.0
 40
28.0
 40
28.0
 40
29.0
 40
29.0
 40
29.0
 40
30.0
 40
30.0
 40
30.0
 40
31.0
 40
31.0
 40
31.0
 40
31.0
 10
165.2023105362433
 20
-108.0731157723543
 30
0.0
 10
165.2023105362433
 20
-108.0731157723543
 30
0.0
 10
165.2023105362433
 20
-108.0947242300707
 30
0.0
 10
165.2023105362433
 20
-108.0947242300707
 30
0.0
 10
165.2009771897871
 20
-108.1007263886283
 30
0.0
 10
165.2009771897871
 20
-108.1079292078664
 30
0.0
 10
165.2009771897871
 20
-108.1151320271049
 30
0.0
 10
165.1996489130877
 20
-108.1211344718744
 30
0.0
 10
165.1996489130877
 20
-108.1271366304319
 30
0.0
 10
165.1996489130877
 20
-108.1343394496701
 30
0.0
 10
165.1983206363883
 20
-108.1403418944412
 30
0.0
 10
165.1969923596907
 20
-108.1463440529971
 30
0.0
 10
165.1969923596907
 20
-108.1523464977679
 30
0.0
 10
165.1956640829913
 20
-108.1583486563242
 30
0.0
 10
165.1943358062919
 20
-108.1643511010949
 30
0.0
 10
165.1943358062919
 20
-108.1703532596512
 30
0.0
 10
165.1930024598357
 20
-108.1751550437398
 30
0.0
 10
165.1916741831363
 20
-108.1811574885093
 30
0.0
 10
165.1903459064369
 20
-108.1871596470669
 30
0.0
 10
165.1890176297393
 20
-108.1919617173676
 30
0.0
 10
165.1876893530412
 20
-108.1979638759252
 30
0.0
 10
165.1863610763418
 20
-108.2039663206947
 30
0.0
 10
165.1850327996423
 20
-108.2087681047833
 30
0.0
 10
165.1836994531868
 20
-108.2135698888718
 30
0.0
 10
165.1823711764874
 20
-108.2183716729594
 30
0.0
 10
165.1810428997879
 20
-108.223173457048
 30
0.0
 10
165.1797146230898
 20
-108.2279755273485
 30
0.0
 10
165.1783863463904
 20
-108.2327773114373
 30
0.0
 10
165.1770580696909
 20
-108.2375790955259
 30
0.0
 10
165.1757297929928
 20
-108.2423808796132
 30
0.0
 10
165.1730681698365
 20
-108.2459822892331
 30
0.0
 10
165.1717398931384
 20
-108.2507840733217
 30
0.0
 10
165.1717398931384
 20
-108.2555861436224
 30
0.0
 10
165.1690833397395
 20
-108.2603879277097
 30
0.0
 10
165.1677550630414
 20
-108.2639893373296
 30
0.0
 10
165.1664267863439
 20
-108.2675907469495
 30
0.0
 10
165.1650934398851
 20
-108.2711921565681
 30
0.0
 10
165.163765163187
 20
-108.2759939406567
 30
0.0
 10
165.1611086097894
 20
-108.2795953502765
 30
0.0
 10
165.1611086097894
 20
-108.2831967598948
 30
0.0
 10
165.15978033309
 20
-108.2855975088325
 30
0.0
 10
165.157123779693
 20
-108.2903992929214
 30
0.0
 10
165.1557904332356
 20
-108.2928003280723
 30
0.0
 10
165.1544621565374
 20
-108.2964017376909
 30
0.0
 10
165.153133879838
 20
-108.3000031473108
 30
0.0
 10
165.1518056031386
 20
-108.3024041824603
 30
0.0
 10
165.1331995898401
 20
-108.34321977653
 30
0.0
 10
165.1092753999859
 20
-108.3816346216608
 30
0.0
 10
165.0826997264954
 20
-108.4176484316416
 30
0.0
 10
165.0601038133406
 20
-108.4464594223843
 30
0.0
 10
165.0348513467882
 20
-108.472869664188
 30
0.0
 10
165.0069423268389
 20
-108.4980792453107
 30
0.0
 10
164.9909979366941
 20
-108.512484883789
 30
0.0
 10
164.9737202000932
 20
-108.5268902360534
 30
0.0
 10
164.9564424634929
 20
-108.5400955000614
 30
0.0
 10
164.9391647268919
 20
-108.5508994427075
 30
0.0
 10
164.9232152669891
 20
-108.5617036715659
 30
0.0
 10
164.9059375303882
 20
-108.5725079004239
 30
0.0
 10
164.8700588502468
 20
-108.5941160719268
 30
0.0
 10
164.8315134771904
 20
-108.6133234944923
 30
0.0
 10
164.7916448971934
 20
-108.6277291329702
 30
0.0
 10
164.7717106071948
 20
-108.6361323266774
 30
0.0
 10
164.7517763171957
 20
-108.6421347714469
 30
0.0
 10
164.7305086807403
 20
-108.6481369300045
 30
0.0
 10
164.7092461140443
 20
-108.6541393747739
 30
0.0
 10
164.6879835473469
 20
-108.6589411588625
 30
0.0
 10
164.6667159108897
 20
-108.6625425684824
 30
0.0
 10
164.6574129042408
 20
-108.6649433174201
 30
0.0
 10
164.6454533441936
 20
-108.666143978101
 30
0.0
 10
164.6348220608434
 20
-108.6673443525697
 30
0.0
 10
164.6241907774963
 20
-108.66854472704
 30
0.0
 10
164.6122312174479
 20
-108.6709457621896
 30
0.0
 10
164.6015948643415
 20
-108.6709457621896
 30
0.0
 10
164.5962817575457
 20
-108.6709457621896
 30
0.0
 10
164.5909635809925
 20
-108.6709457621896
 30
0.0
 10
164.585650474198
 20
-108.6721461366586
 30
0.0
 10
164.5803322976442
 20
-108.6721461366586
 30
0.0
 10
164.5750191908478
 20
-108.6733465111272
 30
0.0
 10
164.5697010142952
 20
-108.6733465111272
 30
0.0
 10
164.5697010142952
 20
-108.6733465111272
 30
0.0
 10
164.5617262843438
 20
-108.6733465111272
 30
0.0
 10
164.5617262843438
 20
-108.6733465111272
 30
0.0
 10
164.5617262843438
 20
-108.6733465111272
 30
0.0
 10
164.5537515543924
 20
-108.6733465111272
 30
0.0
 10
164.5537515543924
 20
-108.6733465111272
 30
0.0
 10
164.5537515543924
 20
-108.6733465111272
 30
0.0
 10
164.545776824441
 20
-108.6733465111272
 30
0.0
 10
164.545776824441
 20
-108.6733465111272
 30
0.0
 10
164.545776824441
 20
-108.6745471718094
 30
0.0
 10
164.5431202710454
 20
-108.6745471718094
 30
0.0
 10
164.5417919943459
 20
-108.6745471718094
 30
0.0
 10
164.5417919943459
 20
-108.6745471718094
 30
0.0
 10
164.5364738177921
 20
-108.6745471718094
 30
0.0
 10
164.5364738177921
 20
-108.6745471718094
 30
0.0
  0
LWPOLYLINE
  5
A3
330
70
100
AcDbEntity
  8
Capa 2
 62
   178
420
      519
370
    13
100
AcDbPolyline
 90
        3
 70
     0
 43
0.0
 10
98.54212399629552
 20
-108.0731157723543
 10
98.54212399629552
 20
-108.4944778356925
 10
98.54212399629552
 20
-108.6745471718094
  0
LINE
  5
A4
330
70
100
AcDbEntity
  8
Capa 2
 62
   178
420
      519
370
    13
100
AcDbLine
 10
164.5371430259002
 20
-108.6738267754004
 30
0.0
 11
98.54265315232794
 21
-108.6738267754004
 31
0.0
  0
LWPOLYLINE
  5
A5
330
70
100
AcDbEntity
  8
Capa 2
 62
   178
420
      519
370
    13
100
AcDbPolyline
 90
        3
 70
     0
 43
0.0
 10
98.54212399629552
 20
-108.0731157723543
 10
98.07564221850524
 20
-108.0731157723543
 10
97.87629108016304
 20
-108.0731157723543
  0
SPLINE
  5
A6
330
70
100
AcDbEntity
  8
Capa 2
 62
   178
420
      519
370
    13
100
AcDbSpline
210
0.0
220
0.0
230
1.0
 70
     8
 71
     3
 72
    74
 73
    70
 74
     0
 42
0.0000000001
 43
0.0000000001
 40
0.0
 40
0.0
 40
0.0
 40
0.0
 40
1.0
 40
1.0
 40
1.0
 40
2.0
 40
2.0
 40
2.0
 40
3.0
 40
3.0
 40
3.0
 40
4.0
 40
4.0
 40
4.0
 40
5.0
 40
5.0
 40
5.0
 40
6.0
 40
6.0
 40
6.0
 40
7.0
 40
7.0
 40
7.0
 40
8.0
 40
8.0
 40
8.0
 40
9.0
 40
9.0
 40
9.0
 40
10.0
 40
10.0
 40
10.0
 40
11.0
 40
11.0
 40
11.0
 40
12.0
 40
12.0
 40
12.0
 40
13.0
 40
13.0
 40
13.0
 40
14.0
 40
14.0
 40
14.0
 40
15.0
 40
15.0
 40
15.0
 40
16.0
 40
16.0
 40
16.0
 40
17.0
 40
17.0
 40
17.0
 40
18.0
 40
18.0
 40
18.0
 40
19.0
 40
19.0
 40
19.0
 40
20.0
 40
20.0
 40
20.0
 40
21.0
 40
21.0
 40
21.0
 40
22.0
 40
22.0
 40
22.0
 40
23.0
 40
23.0
 40
23.0
 40
23.0
 10
98.54212399629552
 20
-108.6738267754004
 30
0.0
 10
98.54212399629552
 20
-108.6738267754004
 30
0.0
 10
98.53680772090186
 20
-108.6738267754004
 30
0.0
 10
98.53680772090186
 20
-108.6738267754004
 30
0.0
 10
98.53680772090186
 20
-108.6738267754004
 30
0.0
 10
98.53282035592615
 20
-108.6738267754004
 30
0.0
 10
98.53282035592615
 20
-108.6738267754004
 30
0.0
 10
98.53282035592615
 20
-108.6738267754004
 30
0.0
 10
98.52617580383302
 20
-108.6738267754004
 30
0.0
 10
98.52617580383302
 20
-108.6738267754004
 30
0.0
 10
98.52617580383302
 20
-108.6738267754004
 30
0.0
 10
98.51687279718348
 20
-108.6738267754004
 30
0.0
 10
98.51687279718348
 20
-108.6738267754004
 30
0.0
 10
98.51554325304469
 20
-108.6726264009314
 30
0.0
 10
98.51155652178917
 20
-108.6726264009314
 30
0.0
 10
98.51022761137054
 20
-108.6726264009314
 30
0.0
 10
98.50358242555822
 20
-108.6726264009314
 30
0.0
 10
98.49826615016359
 20
-108.6726264009314
 30
0.0
 10
98.49295050848942
 20
-108.6714260264628
 30
0.0
 10
98.48763423309573
 20
-108.6714260264628
 30
0.0
 10
98.48231859142092
 20
-108.6714260264628
 30
0.0
 10
98.47700231602658
 20
-108.6714260264628
 30
0.0
 10
98.46637039895842
 20
-108.6702256519937
 30
0.0
 10
98.45573848188992
 20
-108.6690249913115
 30
0.0
 10
98.44510593110193
 20
-108.6666242423738
 30
0.0
 10
98.43447401403309
 20
-108.6666242423738
 30
0.0
 10
98.4225131865463
 20
-108.6642232072243
 30
0.0
 10
98.41188126947812
 20
-108.6618221720734
 30
0.0
 10
98.39061680162132
 20
-108.6582210486667
 30
0.0
 10
98.36935296748432
 20
-108.6534189783662
 30
0.0
 10
98.34941741004612
 20
-108.6474168198086
 30
0.0
 10
98.32815357590977
 20
-108.6414143750392
 30
0.0
 10
98.30688974177277
 20
-108.6354122164816
 30
0.0
 10
98.28828309475319
 20
-108.6282093972434
 30
0.0
 10
98.24708433689815
 20
-108.6126033842965
 30
0.0
 10
98.20854276615989
 20
-108.5945963362
 30
0.0
 10
98.17265964997934
 20
-108.5717877902268
 30
0.0
 10
98.15671145751652
 20
-108.5621839358387
 30
0.0
 10
98.13943435463572
 20
-108.5513797069807
 30
0.0
 10
98.12481570631168
 20
-108.5405757643346
 30
0.0
 10
98.10620969301194
 20
-108.5261701258579
 30
0.0
 10
98.08893259013082
 20
-108.5129651480619
 30
0.0
 10
98.07165548724938
 20
-108.4973591351152
 30
0.0
 10
98.04507537771868
 20
-108.4733499284612
 30
0.0
 10
98.01982417860633
 20
-108.4469396866562
 30
0.0
 10
97.99723080033119
 20
-108.4181286959148
 30
0.0
 10
97.96932178038158
 20
-108.3821148859336
 30
0.0
 10
97.94672840210614
 20
-108.3437000408029
 30
0.0
 10
97.92812238880671
 20
-108.3028844467335
 30
0.0
 10
97.92546456796914
 20
-108.295681627495
 30
0.0
 10
97.9214778367136
 20
-108.2884788082553
 30
0.0
 10
97.91881938215716
 20
-108.2812759890171
 30
0.0
 10
97.91483265090096
 20
-108.27287279531
 30
0.0
 10
97.91217419634421
 20
-108.2644696016015
 30
0.0
 10
97.90818746508834
 20
-108.256066407894
 30
0.0
 10
97.9055296442511
 20
-108.246462553505
 30
0.0
 10
97.90287118969434
 20
-108.2368589853288
 30
0.0
 10
97.89888445843848
 20
-108.2260547564708
 30
0.0
 10
97.89622663760122
 20
-108.2164511882946
 30
0.0
 10
97.89356818304414
 20
-108.2056469594366
 30
0.0
 10
97.89091036220689
 20
-108.1948427305782
 30
0.0
 10
97.88825254136998
 20
-108.1816377527825
 30
0.0
 10
97.8855940868129
 20
-108.1696331494554
 30
0.0
 10
97.88426517639427
 20
-108.1576285461284
 30
0.0
 10
97.88160735555702
 20
-108.1444232821207
 30
0.0
 10
97.88027844513873
 20
-108.1312183043247
 30
0.0
 10
97.87894953472042
 20
-108.1168126658468
 30
0.0
 10
97.87762062430147
 20
-108.102407313582
 30
0.0
 10
97.87762062430147
 20
-108.0880016751041
 30
0.0
 10
97.87629108016304
 20
-108.0723956621588
 30
0.0
  0
SPLINE
  5
A7
330
70
100
AcDbEntity
  8
Capa 2
 62
   178
420
      519
370
    13
100
AcDbSpline
210
0.0
220
0.0
230
1.0
 70
     8
 71
     3
 72
     8
 73
     4
 74
     0
 42
0.0000000001
 43
0.0000000001
 40
0.0
 40
0.0
 40
0.0
 40
0.0
 40
1.0
 40
1.0
 40
1.0
 40
1.0
 10
134.2516028533441
 20
-94.09350147087895
 30
0.0
 10
134.4376629863409
 20
-93.73576469243188
 30
0.0
 10
134.5320213295378
 20
-93.34561494119943
 30
0.0
 10
134.5320213295378
 20
-92.9494627451975
 30
0.0
  0
SPLINE
  5
A8
330
70
100
AcDbEntity
  8
Capa 2
 62
   178
420
      519
370
    13
100
AcDbSpline
210
0.0
220
0.0
230
1.0
 70
     8
 71
     3
 72
     8
 73
     4
 74
     0
 42
0.0000000001
 43
0.0000000001
 40
0.0
 40
0.0
 40
0.0
 40
0.0
 40
1.0
 40
1.0
 40
1.0
 40
1.0
 10
131.5397662753969
 20
-95.6531410921131
 30
0.0
 10
132.07668410769
 20
-95.6531410921131
 30
0.0
 10
132.6042963984535
 20
-95.52229168862281
 30
0.0
 10
133.0654619008495
 20
-95.27619717731335
 30
0.0
  0
SPLINE
  5
A9
330
70
100
AcDbEntity
  8
Capa 2
 62
   178
420
      519
370
    13
100
AcDbSpline
210
0.0
220
0.0
230
1.0
 70
     8
 71
     3
 72
     8
 73
     4
 74
     0
 42
0.0000000001
 43
0.0000000001
 40
0.0
 40
0.0
 40
0.0
 40
0.0
 40
1.0
 40
1.0
 40
1.0
 40
1.0
 10
133.0657305980464
 20
-95.27535571309309
 30
0.0
 10
133.5827141403416
 20
-94.99804917589168
 30
0.0
 10
133.9973595397292
 20
-94.5862915393679
 30
0.0
 10
134.2525306191305
 20
-94.09290156985585
 30
0.0
  0
SPLINE
  5
AA
330
70
100
AcDbEntity
  8
Capa 2
 62
   178
420
      519
370
    13
100
AcDbSpline
210
0.0
220
0.0
230
1.0
 70
     8
 71
     3
 72
     8
 73
     4
 74
     0
 42
0.0000000001
 43
0.0000000001
 40
0.0
 40
0.0
 40
0.0
 40
0.0
 40
1.0
 40
1.0
 40
1.0
 40
1.0
 10
134.532822351364
 20
-92.9494616003477
 30
0.0
 10
134.532822351364
 20
-92.46447596939262
 30
0.0
 10
134.3879590750631
 20
-91.98789353214568
 30
0.0
 10
134.1155102590609
 20
-91.57133325289638
 30
0.0
  0
SPLINE
  5
AB
330
70
100
AcDbEntity
  8
Capa 2
 62
   178
420
      519
370
    13
100
AcDbSpline
210
0.0
220
0.0
230
1.0
 70
     8
 71
     3
 72
     8
 73
     4
 74
     0
 42
0.0000000001
 43
0.0000000001
 40
0.0
 40
0.0
 40
0.0
 40
0.0
 40
1.0
 40
1.0
 40
1.0
 40
1.0
 10
134.1145824932758
 20
-91.57109283454836
 30
0.0
 10
133.807578204071
 20
-91.10411339305221
 30
0.0
 10
133.3517308782302
 20
-90.72957137203964
 30
0.0
 10
132.8055100392862
 20
-90.49908115640254
 30
0.0
  0
SPLINE
  5
AC
330
70
100
AcDbEntity
  8
Capa 2
 62
   178
420
      519
370
    13
100
AcDbSpline
210
0.0
220
0.0
230
1.0
 70
     8
 71
     3
 72
     8
 73
     4
 74
     0
 42
0.0000000001
 43
0.0000000001
 40
0.0
 40
0.0
 40
0.0
 40
0.0
 40
1.0
 40
1.0
 40
1.0
 40
1.0
 10
132.806179247393
 20
-90.49980012175049
 30
0.0
 10
132.4101347915465
 20
-90.33293604964148
 30
0.0
 10
131.9782065857992
 20
-90.24650450847644
 30
0.0
 10
131.5396344616774
 20
-90.24650450847644
 30
0.0
  0
SPLINE
  5
AD
330
70
100
AcDbEntity
  8
Capa 2
 62
   178
420
      519
370
    13
100
AcDbSpline
210
0.0
220
0.0
230
1.0
 70
     8
 71
     3
 72
    11
 73
     7
 74
     0
 42
0.0000000001
 43
0.0000000001
 40
0.0
 40
0.0
 40
0.0
 40
0.0
 40
1.0
 40
1.0
 40
1.0
 40
2.0
 40
2.0
 40
2.0
 40
2.0
 10
131.5397662753969
 20
-90.24590231775567
 30
0.0
 10
130.7450182754243
 20
-90.24590231775567
 30
0.0
 10
129.9848282835355
 20
-90.53041339147009
 30
0.0
 10
129.4226579846882
 20
-91.03820899945878
 30
0.0
 10
128.8618159625421
 20
-91.54480251570552
 30
0.0
 10
128.5468420131453
 20
-92.23266688738707
 30
0.0
 10
128.5468420131453
 20
-92.94934253602287
 30
0.0
  0
SPLINE
  5
AE
330
70
100
AcDbEntity
  8
Capa 2
 62
   178
420
      519
370
    13
100
AcDbSpline
210
0.0
220
0.0
230
1.0
 70
     8
 71
     3
 72
    11
 73
     7
 74
     0
 42
0.0000000001
 43
0.0000000001
 40
0.0
 40
0.0
 40
0.0
 40
0.0
 40
1.0
 40
1.0
 40
1.0
 40
2.0
 40
2.0
 40
2.0
 40
2.0
 10
128.5465783857096
 20
-92.9494616003477
 30
0.0
 10
128.5465783857096
 20
-93.66733819587757
 30
0.0
 10
128.8615523351052
 20
-94.35400162066441
 30
0.0
 10
129.4237226339506
 20
-94.86179722865374
 30
0.0
 10
129.9845621212193
 20
-95.368391889749
 30
0.0
 10
130.7460829246861
 20
-95.65290181861394
 30
0.0
 10
131.5395001130806
 20
-95.65290181861394
 30
0.0
  0
LINE
  5
AF
330
70
100
AcDbEntity
  8
Capa 2
 62
   178
420
      519
370
    13
100
AcDbLine
 10
164.5475106818116
 20
-108.6831904976524
 30
0.0
 11
164.5368743287052
 21
-108.6735869294765
 31
0.0
  0
LINE
  5
B0
330
70
100
AcDbEntity
  8
Capa 2
 62
   178
420
      519
370
    13
100
AcDbLine
 10
98.54212399629552
 20
-108.6738267754004
 30
0.0
 11
98.53149144550719
 21
-108.6834306297898
 31
0.0
  0
LINE
  5
B1
330
70
100
AcDbEntity
  8
Capa 2
 62
   178
420
      519
370
    13
100
AcDbLine
 10
98.53189068898096
 20
-108.6831904976524
 30
0.0
 11
164.547642495531
 21
-108.6831904976524
 31
0.0
  0
SPLINE
  5
B2
330
70
100
AcDbEntity
  8
Capa 2
 62
   178
420
      519
370
    13
100
AcDbSpline
210
0.0
220
0.0
230
1.0
 70
     8
 71
     3
 72
    14
 73
    10
 74
     0
 42
0.0000000001
 43
0.0000000001
 40
0.0
 40
0.0
 40
0.0
 40
0.0
 40
1.0
 40
1.0
 40
1.0
 40
2.0
 40
2.0
 40
2.0
 40
3.0
 40
3.0
 40
3.0
 40
3.0
 10
131.5397662753969
 20
-94.67692582223598
 30
0.0
 10
132.2228756606891
 20
-94.67692582223598
 30
0.0
 10
132.854149301301
 20
-94.34800032074411
 30
0.0
 10
133.195703993949
 20
-93.81379418473921
 30
0.0
 10
133.5372586865951
 20
-93.27958919358282
 30
0.0
 10
133.5372586865951
 20
-92.61933515196174
 30
0.0
 10
133.195703993949
 20
-92.08513016080665
 30
0.0
 10
132.854149301301
 20
-91.55092516965027
 30
0.0
 10
132.2228756606891
 20
-91.22199852330794
 30
0.0
 10
131.5397662753969
 20
-91.22199852330794
 30
0.0
  0
SPLINE
  5
B3
330
70
100
AcDbEntity
  8
Capa 2
 62
   178
420
      519
370
    13
100
AcDbSpline
210
0.0
220
0.0
230
1.0
 70
     8
 71
     3
 72
    17
 73
    13
 74
     0
 42
0.0000000001
 43
0.0000000001
 40
0.0
 40
0.0
 40
0.0
 40
0.0
 40
1.0
 40
1.0
 40
1.0
 40
2.0
 40
2.0
 40
2.0
 40
3.0
 40
3.0
 40
3.0
 40
4.0
 40
4.0
 40
4.0
 40
4.0
 10
131.5397662753969
 20
-91.22199852330794
 30
0.0
 10
131.0334140164487
 20
-91.22199852330794
 30
0.0
 10
130.5456677708022
 20
-91.40446918078703
 30
0.0
 10
130.1868353415545
 20
-91.72859432925363
 30
0.0
 10
129.8280054471855
 20
-92.05151738597541
 30
0.0
 10
129.6273241309854
 20
-92.49088649740981
 30
0.0
 10
129.6273241309854
 20
-92.9494627451975
 30
0.0
 10
129.6273241309854
 20
-93.40803899298393
 30
0.0
 10
129.8280054471855
 20
-93.84740810441865
 30
0.0
 10
130.1868353415545
 20
-94.17033230599022
 30
0.0
 10
130.5456677708022
 20
-94.49445745445522
 30
0.0
 10
131.0334140164487
 20
-94.67692696708516
 30
0.0
 10
131.5397662753969
 20
-94.67692696708516
 30
0.0
  0
ENDSEC
  0
SECTION
  2
OBJECTS
  0
DICTIONARY
  5
C
330
0
100
AcDbDictionary
281
     1
  3
ACAD_COLOR
350
63
  3
ACAD_DETAILVIEWSTYLE
350
6A
  3
ACAD_GROUP
350
D
  3
ACAD_LAYOUT
350
62
  3
ACAD_MATERIAL
350
10
  3
ACAD_MLEADERSTYLE
350
66
  3
ACAD_MLINESTYLE
350
5F
  3
ACAD_PLOTSETTINGS
350
61
  3
ACAD_PLOTSTYLENAME
350
E
  3
ACAD_SCALELIST
350
42
  3
ACAD_SECTIONVIEWSTYLE
350
68
  3
ACAD_TABLESTYLE
350
64
  3
ACAD_VISUALSTYLE
350
29
  3
ACDB_RECOMPOSE_DATA
350
BC
  3
AcDbVariableDictionary
350
B4
  0
DICTIONARY
  5
63
102
{ACAD_REACTORS
330
C
102
}
330
C
100
AcDbDictionary
281
     1
  0
DICTIONARY
  5
6A
102
{ACAD_REACTORS
330
C
102
}
330
C
100
AcDbDictionary
281
     1
  3
Imperial24
350
6B
  0
DICTIONARY
  5
D
102
{ACAD_REACTORS
330
C
102
}
330
C
100
AcDbDictionary
281
     1
  0
DICTIONARY
  5
62
102
{ACAD_REACTORS
330
C
102
}
330
C
100
AcDbDictionary
281
     1
  3
Layout1
350
6F
  3
Layout2
350
77
  3
Model
350
73
  0
DICTIONARY
  5
10
102
{ACAD_REACTORS
330
C
102
}
330
C
100
AcDbDictionary
281
     1
  3
ByBlock
350
19
  3
ByLayer
350
11
  3
Global
350
21
  0
DICTIONARY
  5
66
102
{ACAD_REACTORS
330
C
102
}
330
C
100
AcDbDictionary
281
     1
  3
Standard
350
67
  0
DICTIONARY
  5
5F
102
{ACAD_REACTORS
330
C
102
}
330
C
100
AcDbDictionary
281
     1
  3
Standard
350
60
  0
DICTIONARY
  5
61
102
{ACAD_REACTORS
330
C
102
}
330
C
100
AcDbDictionary
281
     1
  0
ACDBDICTIONARYWDFLT
  5
E
102
{ACAD_REACTORS
330
C
102
}
330
C
100
AcDbDictionary
281
     1
  3
Normal
350
F
100
AcDbDictionaryWithDefault
340
F
  0
DICTIONARY
  5
42
102
{ACAD_REACTORS
330
C
102
}
330
C
100
AcDbDictionary
281
     1
  3
A0
350
43
  3
A1
350
44
  3
A2
350
45
  3
A3
350
46
  3
A4
350
47
  3
A5
350
48
  3
A6
350
49
  3
A7
350
4A
  3
A8
350
4B
  3
A9
350
4C
  3
B0
350
4D
  3
B1
350
4E
  3
B2
350
4F
  3
B3
350
50
  3
B4
350
51
  3
B5
350
52
  3
B6
350
53
  0
DICTIONARY
  5
68
102
{ACAD_REACTORS
330
C
102
}
330
C
100
AcDbDictionary
281
     1
  3
Imperial24
350
69
  0
DICTIONARY
  5
64
102
{ACAD_REACTORS
330
C
102
}
330
C
100
AcDbDictionary
281
     1
  3
Standard
350
65
  0
DICTIONARY
  5
29
102
{ACAD_REACTORS
330
C
102
}
330
C
100
AcDbDictionary
281
     1
  3
2dWireframe
350
2F
  3
Basic
350
2E
  3
Brighten
350
35
  3
ColorChange
350
39
  3
Conceptual
350
32
  3
Dim
350
34
  3
EdgeColorOff
350
41
  3
Facepattern
350
38
  3
Flat
350
2A
  3
FlatWithEdges
350
2B
  3
Gouraud
350
2C
  3
GouraudWithEdges
350
2D
  3
Hidden
350
31
  3
JitterOff
350
3F
  3
Linepattern
350
37
  3
OverhangOff
350
40
  3
Realistic
350
33
  3
Shaded
350
3E
  3
Shaded with edges
350
3D
  3
Shades of Gray
350
3A
  3
Sketchy
350
3B
  3
Thicken
350
36
  3
Wireframe
350
30
  3
X-Ray
350
3C
  0
XRECORD
  5
BC
102
{ACAD_REACTORS
330
C
102
}
330
C
100
AcDbXrecord
280
     1
 90
        1
330
65
  0
DICTIONARY
  5
B4
102
{ACAD_REACTORS
330
C
102
}
330
C
100
AcDbDictionary
281
     1
  3
CANNOSCALE
350
B9
  3
CMLEADERSTYLE
350
B6
  3
CTABLESTYLE
350
B5
  3
CVIEWDETAILSTYLE
350
B7
  3
CVIEWSECTIONSTYLE
350
B8
  0
ACDBDETAILVIEWSTYLE
  5
6B
102
{ACAD_REACTORS
330
6A
102
}
330
6A
100
AcDbModelDocViewStyle
 70
     0
  3
Imperial24
290
     1
300
Imperial24
 90
        0
100
AcDbDetailViewStyle
 70
     0
 71
     0
 90
        3
 71
     1
340
55
 62
   256
 40
0.24
340
0
 62
   256
 40
0.24
300

 40
0.36
280
     3
 71
     2
340
5D
 90
       25
 62
   256
 71
     3
340
55
 62
   256
 40
0.24
 90
        1
 40
0.75
 90
        1
300
%<\AcVar ViewType \f "%tc1">% %<\AcVar ViewDetailId>%\PSCALE %<\AcVar ViewScale \f "%sn">%
 71
     4
340
5D
 90
       25
 62
   256
340
5D
 90
       25
 62
   256
280
     0
  0
LAYOUT
  5
6F
102
{ACAD_REACTORS
330
62
102
}
330
62
100
AcDbPlotSettings
  1

  2

  4

  6

 40
0.0
 41
0.0
 42
0.0
 43
0.0
 44
0.0
 45
0.0
 46
0.0
 47
0.0
 48
0.0
 49
0.0
140
0.0
141
0.0
142
1.0
143
1.0
 70
   688
 72
     0
 73
     0
 74
     5
  7

 75
    16
147
1.0
 76
     0
 77
     2
 78
   300
148
0.0
149
0.0
100
AcDbLayout
  1
Layout1
 70
     1
 71
     1
 10
0.0
 20
0.0
 11
12.0
 21
9.0
 12
0.0
 22
0.0
 32
0.0
 14
0.0
 24
0.0
 34
0.0
 15
0.0
 25
0.0
 35
0.0
146
0.0
 13
0.0
 23
0.0
 33
0.0
 16
1.0
 26
0.0
 36
0.0
 17
0.0
 27
1.0
 37
0.0
 76
     0
330
6C
  0
LAYOUT
  5
77
102
{ACAD_REACTORS
330
62
102
}
330
62
100
AcDbPlotSettings
  1

  2

  4

  6

 40
0.0
 41
0.0
 42
0.0
 43
0.0
 44
0.0
 45
0.0
 46
0.0
 47
0.0
 48
0.0
 49
0.0
140
0.0
141
0.0
142
1.0
143
1.0
 70
   688
 72
     0
 73
     0
 74
     5
  7

 75
    16
147
1.0
 76
     0
 77
     2
 78
   300
148
0.0
149
0.0
100
AcDbLayout
  1
Layout2
 70
     1
 71
     2
 10
0.0
 20
0.0
 11
12.0
 21
9.0
 12
0.0
 22
0.0
 32
0.0
 14
0.0
 24
0.0
 34
0.0
 15
0.0
 25
0.0
 35
0.0
146
0.0
 13
0.0
 23
0.0
 33
0.0
 16
1.0
 26
0.0
 36
0.0
 17
0.0
 27
1.0
 37
0.0
 76
     0
330
74
  0
LAYOUT
  5
73
102
{ACAD_REACTORS
330
62
102
}
330
62
100
AcDbPlotSettings
  1

  2

  4

  6

 40
0.0
 41
0.0
 42
0.0
 43
0.0
 44
0.0
 45
0.0
 46
0.0
 47
0.0
 48
0.0
 49
0.0
140
0.0
141
0.0
142
1.0
143
1.0
 70
  1712
 72
     0
 73
     0
 74
     0
  7

 75
     0
147
1.0
 76
     0
 77
     2
 78
   300
148
0.0
149
0.0
100
AcDbLayout
  1
Model
 70
     1
 71
     0
 10
0.0
 20
0.0
 11
12.0
 21
9.0
 12
0.0
 22
0.0
 32
0.0
 14
0.0
 24
0.0
 34
0.0
 15
0.0
 25
0.0
 35
0.0
146
0.0
 13
0.0
 23
0.0
 33
0.0
 16
1.0
 26
0.0
 36
0.0
 17
0.0
 27
1.0
 37
0.0
 76
     0
330
70
  0
MATERIAL
  5
19
102
{ACAD_XDICTIONARY
360
1A
102
}
102
{ACAD_REACTORS
330
10
102
}
330
10
100
AcDbMaterial
  1
ByBlock
 72
     0
 43
0.0208333333333333
 43
0.0
 43
0.0
 43
0.0
 43
0.0
 43
0.0208333333333333
 43
0.0
 43
0.0
 43
0.0
 43
0.0
 43
1.0
 43
0.0
 43
0.0
 43
0.0
 43
0.0
 43
1.0
 77
     0
 47
0.0208333333333333
 47
0.0
 47
0.0
 47
0.0
 47
0.0
 47
0.0208333333333333
 47
0.0
 47
0.0
 47
0.0
 47
0.0
 47
1.0
 47
0.0
 47
0.0
 47
0.0
 47
0.0
 47
1.0
171
     0
 49
0.0208333333333333
 49
0.0
 49
0.0
 49
0.0
 49
0.0
 49
0.0208333333333333
 49
0.0
 49
0.0
 49
0.0
 49
0.0
 49
1.0
 49
0.0
 49
0.0
 49
0.0
 49
0.0
 49
1.0
175
     0
142
0.0208333333333333
142
0.0
142
0.0
142
0.0
142
0.0
142
0.0208333333333333
142
0.0
142
0.0
142
0.0
142
0.0
142
1.0
142
0.0
142
0.0
142
0.0
142
0.0
142
1.0
179
     0
144
0.0208333333333333
144
0.0
144
0.0
144
0.0
144
0.0
144
0.0208333333333333
144
0.0
144
0.0
144
0.0
144
0.0
144
1.0
144
0.0
144
0.0
144
0.0
144
0.0
144
1.0
147
0.0208333333333333
147
0.0
147
0.0
147
0.0
147
0.0
147
0.0208333333333333
147
0.0
147
0.0
147
0.0
147
0.0
147
1.0
147
0.0
147
0.0
147
0.0
147
0.0
147
1.0
  0
MATERIAL
  5
11
102
{ACAD_XDICTIONARY
360
12
102
}
102
{ACAD_REACTORS
330
10
102
}
330
10
100
AcDbMaterial
  1
ByLayer
 72
     0
 43
0.0208333333333333
 43
0.0
 43
0.0
 43
0.0
 43
0.0
 43
0.0208333333333333
 43
0.0
 43
0.0
 43
0.0
 43
0.0
 43
1.0
 43
0.0
 43
0.0
 43
0.0
 43
0.0
 43
1.0
 77
     0
 47
0.0208333333333333
 47
0.0
 47
0.0
 47
0.0
 47
0.0
 47
0.0208333333333333
 47
0.0
 47
0.0
 47
0.0
 47
0.0
 47
1.0
 47
0.0
 47
0.0
 47
0.0
 47
0.0
 47
1.0
171
     0
 49
0.0208333333333333
 49
0.0
 49
0.0
 49
0.0
 49
0.0
 49
0.0208333333333333
 49
0.0
 49
0.0
 49
0.0
 49
0.0
 49
1.0
 49
0.0
 49
0.0
 49
0.0
 49
0.0
 49
1.0
175
     0
142
0.0208333333333333
142
0.0
142
0.0
142
0.0
142
0.0
142
0.0208333333333333
142
0.0
142
0.0
142
0.0
142
0.0
142
1.0
142
0.0
142
0.0
142
0.0
142
0.0
142
1.0
179
     0
144
0.0208333333333333
144
0.0
144
0.0
144
0.0
144
0.0
144
0.0208333333333333
144
0.0
144
0.0
144
0.0
144
0.0
144
1.0
144
0.0
144
0.0
144
0.0
144
0.0
144
1.0
147
0.0208333333333333
147
0.0
147
0.0
147
0.0
147
0.0
147
0.0208333333333333
147
0.0
147
0.0
147
0.0
147
0.0
147
1.0
147
0.0
147
0.0
147
0.0
147
0.0
147
1.0
  0
MATERIAL
  5
21
102
{ACAD_XDICTIONARY
360
22
102
}
102
{ACAD_REACTORS
330
10
102
}
330
10
100
AcDbMaterial
  1
Global
 72
     0
 43
0.0208333333333333
 43
0.0
 43
0.0
 43
0.0
 43
0.0
 43
0.0208333333333333
 43
0.0
 43
0.0
 43
0.0
 43
0.0
 43
1.0
 43
0.0
 43
0.0
 43
0.0
 43
0.0
 43
1.0
 77
     0
 47
0.0208333333333333
 47
0.0
 47
0.0
 47
0.0
 47
0.0
 47
0.0208333333333333
 47
0.0
 47
0.0
 47
0.0
 47
0.0
 47
1.0
 47
0.0
 47
0.0
 47
0.0
 47
0.0
 47
1.0
171
     0
 49
0.0208333333333333
 49
0.0
 49
0.0
 49
0.0
 49
0.0
 49
0.0208333333333333
 49
0.0
 49
0.0
 49
0.0
 49
0.0
 49
1.0
 49
0.0
 49
0.0
 49
0.0
 49
0.0
 49
1.0
175
     0
142
0.0208333333333333
142
0.0
142
0.0
142
0.0
142
0.0
142
0.0208333333333333
142
0.0
142
0.0
142
0.0
142
0.0
142
1.0
142
0.0
142
0.0
142
0.0
142
0.0
142
1.0
179
     0
144
0.0208333333333333
144
0.0
144
0.0
144
0.0
144
0.0
144
0.0208333333333333
144
0.0
144
0.0
144
0.0
144
0.0
144
1.0
144
0.0
144
0.0
144
0.0
144
0.0
144
1.0
147
0.0208333333333333
147
0.0
147
0.0
147
0.0
147
0.0
147
0.0208333333333333
147
0.0
147
0.0
147
0.0
147
0.0
147
1.0
147
0.0
147
0.0
147
0.0
147
0.0
147
1.0
  0
MLEADERSTYLE
  5
67
102
{ACAD_REACTORS
330
66
102
}
330
66
100
AcDbMLeaderStyle
179
     2
170
     2
171
     1
172
     0
 90
        2
 40
0.0
 41
0.0
173
     1
 91
-1056964608
340
5B
 92
       -2
290
     1
 42
0.09
291
     1
 43
0.36
  3
Standard
 44
0.18
300

342
55
174
     1
178
     6
175
     1
176
     0
 93
-1056964608
 45
0.18
292
     0
297
     0
 46
0.18
 94
-1056964608
 47
1.0
 49
1.0
140
1.0
293
     1
141
0.0
294
     1
177
     0
142
1.0
295
     1
296
     0
143
0.125
271
     0
272
     9
273
     9
298
     1
  0
MLINESTYLE
  5
60
102
{ACAD_REACTORS
330
5F
102
}
330
5F
100
AcDbMlineStyle
  2
STANDARD
 70
     0
  3

 62
   256
 51
90.0
 52
90.0
 71
     2
 49
0.5
 62
   256
  6
BYLAYER
 49
-0.5
 62
   256
  6
BYLAYER
  0
ACDBPLACEHOLDER
  5
F
102
{ACAD_REACTORS
330
E
102
}
330
E
  0
SCALE
  5
43
102
{ACAD_REACTORS
330
42
102
}
330
42
100
AcDbScale
 70
     0
300
1:1
140
1.0
141
1.0
290
     1
  0
SCALE
  5
44
102
{ACAD_REACTORS
330
42
102
}
330
42
100
AcDbScale
 70
     0
300
1/128" = 1'-0"
140
0.0078125
141
12.0
290
     0
  0
SCALE
  5
45
102
{ACAD_REACTORS
330
42
102
}
330
42
100
AcDbScale
 70
     0
300
1/64" = 1'-0"
140
0.015625
141
12.0
290
     0
  0
SCALE
  5
46
102
{ACAD_REACTORS
330
42
102
}
330
42
100
AcDbScale
 70
     0
300
1/32" = 1'-0"
140
0.03125
141
12.0
290
     0
  0
SCALE
  5
47
102
{ACAD_REACTORS
330
42
102
}
330
42
100
AcDbScale
 70
     0
300
1/16" = 1'-0"
140
0.0625
141
12.0
290
     0
  0
SCALE
  5
48
102
{ACAD_REACTORS
330
42
102
}
330
42
100
AcDbScale
 70
     0
300
3/32" = 1'-0"
140
0.09375
141
12.0
290
     0
  0
SCALE
  5
49
102
{ACAD_REACTORS
330
42
102
}
330
42
100
AcDbScale
 70
     0
300
1/8" = 1'-0"
140
0.125
141
12.0
290
     0
  0
SCALE
  5
4A
102
{ACAD_REACTORS
330
42
102
}
330
42
100
AcDbScale
 70
     0
300
3/16" = 1'-0"
140
0.1875
141
12.0
290
     0
  0
SCALE
  5
4B
102
{ACAD_REACTORS
330
42
102
}
330
42
100
AcDbScale
 70
     0
300
1/4" = 1'-0"
140
0.25
141
12.0
290
     0
  0
SCALE
  5
4C
102
{ACAD_REACTORS
330
42
102
}
330
42
100
AcDbScale
 70
     0
300
3/8" = 1'-0"
140
0.375
141
12.0
290
     0
  0
SCALE
  5
4D
102
{ACAD_REACTORS
330
42
102
}
330
42
100
AcDbScale
 70
     0
300
1/2" = 1'-0"
140
0.5
141
12.0
290
     0
  0
SCALE
  5
4E
102
{ACAD_REACTORS
330
42
102
}
330
42
100
AcDbScale
 70
     0
300
3/4" = 1'-0"
140
0.75
141
12.0
290
     0
  0
SCALE
  5
4F
102
{ACAD_REACTORS
330
42
102
}
330
42
100
AcDbScale
 70
     0
300
1" = 1'-0"
140
1.0
141
12.0
290
     0
  0
SCALE
  5
50
102
{ACAD_REACTORS
330
42
102
}
330
42
100
AcDbScale
 70
     0
300
1-1/2" = 1'-0"
140
1.5
141
12.0
290
     0
  0
SCALE
  5
51
102
{ACAD_REACTORS
330
42
102
}
330
42
100
AcDbScale
 70
     0
300
3" = 1'-0"
140
3.0
141
12.0
290
     0
  0
SCALE
  5
52
102
{ACAD_REACTORS
330
42
102
}
330
42
100
AcDbScale
 70
     0
300
6" = 1'-0"
140
6.0
141
12.0
290
     0
  0
SCALE
  5
53
102
{ACAD_REACTORS
330
42
102
}
330
42
100
AcDbScale
 70
     0
300
1'-0" = 1'-0"
140
12.0
141
12.0
290
     0
  0
ACDBSECTIONVIEWSTYLE
  5
69
102
{ACAD_REACTORS
330
68
102
}
330
68
100
AcDbModelDocViewStyle
 70
     0
  3
Imperial24
290
     1
300
Imperial24
 90
        0
100
AcDbSectionViewStyle
 70
     0
 71
     0
 90
       78
 71
     1
340
55
 62
   256
 40
0.24
340
0
340
0
 62
   256
 40
0.24
300
I, O, Q, S, X, Z
 40
0.48
 90
        3
 40
0.18
 90
        1
 71
     2
340
5D
 90
       25
 62
   256
340
5D
 90
       50
 62
   256
 40
0.24
 40
0.0
 40
0.24
 71
     3
340
55
 62
   256
 40
0.24
 90
        1
 40
0.75
 90
        1
300
%<\AcVar ViewType \f "%tc1">% %<\AcVar ViewSectionStartId>%-%<\AcVar ViewSectionEndId>%\PSCALE %<\AcVar ViewScale \f "%sn">%
 71
     4
 62
   256
 62
   257
300
ANSI31
 40
1.0
 90
        0
290
     0
290
     0
 90
        6
 40
0.0
 40
1.570796326794896
 40
0.2617993877991494
 40
1.308996938995747
 40
-0.2617993877991494
 40
1.832595714594046
  0
TABLESTYLE
  5
65
102
{ACAD_XDICTIONARY
360
BA
102
}
102
{ACAD_REACTORS
330
64
102
}
330
64
100
AcDbTableStyle
280
     0
  3
Standard
 70
     0
 71
     0
 40
0.06
 41
0.06
280
     0
281
     0
  7
Standard
140
0.18
170
     2
 62
     0
 63
     7
283
     0
 90
      512
 91
        0
  1

274
    -2
284
     1
 64
     0
275
    -2
285
     1
 65
     0
276
    -2
286
     1
 66
     0
277
    -2
287
     1
 67
     0
278
    -2
288
     1
 68
     0
279
    -2
289
     1
 69
     0
  7
Standard
140
0.25
170
     5
 62
     0
 63
     7
283
     0
 90
      512
 91
        0
  1

274
    -2
284
     1
 64
     0
275
    -2
285
     1
 65
     0
276
    -2
286
     1
 66
     0
277
    -2
287
     1
 67
     0
278
    -2
288
     1
 68
     0
279
    -2
289
     1
 69
     0
  7
Standard
140
0.18
170
     5
 62
     0
 63
     7
283
     0
 90
      512
 91
        0
  1

274
    -2
284
     1
 64
     0
275
    -2
285
     1
 65
     0
276
    -2
286
     1
 66
     0
277
    -2
287
     1
 67
     0
278
    -2
288
     1
 68
     0
279
    -2
289
     1
 69
     0
  0
VISUALSTYLE
  5
2F
102
{ACAD_REACTORS
330
29
102
}
330
29
100
AcDbVisualStyle
  2
2dWireframe
 70
     4
177
     3
291
     0
 70
    58
 90
        0
176
     1
 90
        2
176
     1
 90
        0
176
     1
 90
        0
176
     1
 40
0.6
176
     1
 40
30.0
176
     1
 62
     7
420
 16777215
176
     1
 90
        1
176
     1
 90
        4
176
     1
 62
     7
176
     1
 62
   257
176
     1
 90
        1
176
     1
 90
        1
176
     1
 40
1.0
176
     1
 90
        0
176
     1
 62
   257
176
     1
 40
1.0
176
     1
 90
        1
176
     1
 90
        6
176
     1
 90
        2
176
     1
 62
     7
176
     1
 90
        5
176
     1
 90
        0
176
     1
 90
        0
176
     1
290
     0
176
     1
 90
        1
176
     1
 40
0.0
176
     1
 90
        0
176
     1
290
     1
176
     1
290
     1
176
     1
290
     0
176
     1
290
     0
176
     1
290
     0
176
     1
290
     0
176
     1
290
     0
176
     1
290
     0
176
     1
290
     0
176
     1
 90
       50
176
     1
 40
0.0
176
     1
 40
1.0
176
     1
 90
        0
176
     1
 62
    18
420
        0
176
     1
 90
       50
176
     1
 90
        3
176
     1
 62
     5
420
      255
176
     1
290
     0
176
     1
 90
       50
176
     1
 90
       50
176
     1
 90
       50
176
     1
290
     0
176
     1
 90
       50
176
     1
 62
   256
176
     0
 40
1.0
176
     0
 90
        2
176
     1
  1
strokes_ogs.tif
176
     1
290
     0
176
     1
 40
1.0
176
     1
 40
1.0
176
     1
  0
VISUALSTYLE
  5
2E
102
{ACAD_REACTORS
330
29
102
}
330
29
100
AcDbVisualStyle
  2
Basic
 70
     7
177
     3
291
     1
 70
    58
 90
        1
176
     1
 90
        0
176
     1
 90
        1
176
     1
 90
        0
176
     1
 40
0.6
176
     1
 40
30.0
176
     1
 62
     7
420
 16777215
176
     1
 90
        0
176
     1
 90
        4
176
     1
 62
     7
176
     1
 62
   257
176
     1
 90
        1
176
     1
 90
        1
176
     1
 40
1.0
176
     1
 90
        8
176
     1
 62
     7
176
     1
 40
1.0
176
     1
 90
        1
176
     1
 90
        6
176
     1
 90
        2
176
     1
 62
     7
176
     1
 90
        5
176
     1
 90
        0
176
     1
 90
        0
176
     1
290
     0
176
     1
 90
        1
176
     1
 40
0.0
176
     1
 90
        0
176
     1
290
     0
176
     1
290
     1
176
     1
290
     1
176
     1
290
     0
176
     1
290
     0
176
     1
290
     0
176
     1
290
     0
176
     1
290
     0
176
     1
290
     0
176
     1
 90
       50
176
     1
 40
0.0
176
     1
 40
1.0
176
     1
 90
        0
176
     1
 62
    18
420
        0
176
     1
 90
       50
176
     1
 90
        3
176
     1
 62
     5
420
      255
176
     1
290
     0
176
     1
 90
       50
176
     1
 90
       50
176
     1
 90
       50
176
     1
290
     0
176
     1
 90
       50
176
     1
 62
   256
176
     0
 40
1.0
176
     0
 90
        2
176
     1
  1
strokes_ogs.tif
176
     1
290
     0
176
     1
 40
1.0
176
     1
 40
1.0
176
     1
  0
VISUALSTYLE
  5
35
102
{ACAD_REACTORS
330
29
102
}
330
29
100
AcDbVisualStyle
  2
Brighten
 70
    12
177
     3
291
     1
 70
    58
 90
        2
176
     1
 90
        2
176
     1
 90
        0
176
     1
 90
        0
176
     1
 40
0.6
176
     1
 40
30.0
176
     1
 62
     7
420
 16777215
176
     1
 90
        1
176
     1
 90
        4
176
     1
 62
     7
176
     1
 62
   257
176
     1
 90
        1
176
     1
 90
        1
176
     1
 40
1.0
176
     1
 90
        8
176
     1
 62
     7
176
     1
 40
1.0
176
     1
 90
        1
176
     1
 90
        6
176
     1
 90
        2
176
     1
 62
     7
176
     1
 90
        5
176
     1
 90
        0
176
     1
 90
        0
176
     1
290
     0
176
     1
 90
        1
176
     1
 40
50.0
176
     1
 90
        0
176
     1
290
     0
176
     1
290
     1
176
     1
290
     1
176
     1
290
     0
176
     1
290
     0
176
     1
290
     0
176
     1
290
     0
176
     1
290
     0
176
     1
290
     0
176
     1
 90
       50
176
     1
 40
0.0
176
     1
 40
1.0
176
     1
 90
        0
176
     1
 62
    18
420
        0
176
     1
 90
       50
176
     1
 90
        3
176
     1
 62
     5
420
      255
176
     1
290
     0
176
     1
 90
       50
176
     1
 90
       50
176
     1
 90
       50
176
     1
290
     0
176
     1
 90
       50
176
     1
 62
   256
176
     0
 40
1.0
176
     0
 90
        2
176
     1
  1
strokes_ogs.tif
176
     1
290
     0
176
     1
 40
1.0
176
     1
 40
1.0
176
     1
  0
VISUALSTYLE
  5
39
102
{ACAD_REACTORS
330
29
102
}
330
29
100
AcDbVisualStyle
  2
ColorChange
 70
    16
177
     3
291
     1
 70
    58
 90
        2
176
     1
 90
        2
176
     1
 90
        3
176
     1
 90
        0
176
     1
 40
0.6
176
     1
 40
30.0
176
     1
 62
     8
420
  8421504
176
     1
 90
        1
176
     1
 90
        4
176
     1
 62
     7
176
     1
 62
   257
176
     1
 90
        1
176
     1
 90
        1
176
     1
 40
1.0
176
     1
 90
        8
176
     1
 62
     8
420
  8421504
176
     1
 40
1.0
176
     1
 90
        1
176
     1
 90
        6
176
     1
 90
        2
176
     1
 62
     7
176
     1
 90
        5
176
     1
 90
        0
176
     1
 90
        0
176
     1
290
     0
176
     1
 90
        1
176
     1
 40
0.0
176
     1
 90
        0
176
     1
290
     0
176
     1
290
     1
176
     1
290
     1
176
     1
290
     0
176
     1
290
     0
176
     1
290
     0
176
     1
290
     0
176
     1
290
     0
176
     1
290
     0
176
     1
 90
       50
176
     1
 40
0.0
176
     1
 40
1.0
176
     1
 90
        0
176
     1
 62
    18
420
        0
176
     1
 90
       50
176
     1
 90
        3
176
     1
 62
     5
420
      255
176
     1
290
     0
176
     1
 90
       50
176
     1
 90
       50
176
     1
 90
       50
176
     1
290
     0
176
     1
 90
       50
176
     1
 62
   256
176
     0
 40
1.0
176
     0
 90
        2
176
     1
  1
strokes_ogs.tif
176
     1
290
     0
176
     1
 40
1.0
176
     1
 40
1.0
176
     1
  0
VISUALSTYLE
  5
32
102
{ACAD_REACTORS
330
29
102
}
330
29
100
AcDbVisualStyle
  2
Conceptual
 70
     9
177
     3
291
     0
 70
    58
 90
        3
176
     1
 90
        2
176
     1
 90
        0
176
     1
 90
        0
176
     1
 40
0.6
176
     1
 40
30.0
176
     1
 62
     7
420
 16777215
176
     1
 90
        2
176
     1
 90
        2
176
     1
 62
     7
176
     1
 62
   257
176
     1
 90
        1
176
     1
 90
        1
176
     1
 40
179.0
176
     1
 90
        8
176
     1
 62
     7
176
     1
 40
1.0
176
     1
 90
        1
176
     1
 90
        6
176
     1
 90
        2
176
     1
 62
     7
176
     1
 90
        3
176
     1
 90
        0
176
     1
 90
        0
176
     1
290
     0
176
     1
 90
        1
176
     1
 40
0.0
176
     1
 90
        0
176
     1
290
     0
176
     1
290
     1
176
     1
290
     1
176
     1
290
     0
176
     1
290
     0
176
     1
290
     0
176
     1
290
     0
176
     1
290
     0
176
     1
290
     0
176
     1
 90
       50
176
     1
 40
0.0
176
     1
 40
1.0
176
     1
 90
        0
176
     1
 62
    18
420
        0
176
     1
 90
       50
176
     1
 90
        3
176
     1
 62
     5
420
      255
176
     1
290
     0
176
     1
 90
       50
176
     1
 90
       50
176
     1
 90
       50
176
     1
290
     0
176
     1
 90
       50
176
     1
 62
   256
176
     0
 40
1.0
176
     0
 90
        2
176
     1
  1
strokes_ogs.tif
176
     1
290
     0
176
     1
 40
1.0
176
     1
 40
1.0
176
     1
  0
VISUALSTYLE
  5
34
102
{ACAD_REACTORS
330
29
102
}
330
29
100
AcDbVisualStyle
  2
Dim
 70
    11
177
     3
291
     1
 70
    58
 90
        2
176
     1
 90
        2
176
     1
 90
        0
176
     1
 90
        0
176
     1
 40
0.6
176
     1
 40
30.0
176
     1
 62
     7
420
 16777215
176
     1
 90
        1
176
     1
 90
        4
176
     1
 62
     7
176
     1
 62
   257
176
     1
 90
        1
176
     1
 90
        1
176
     1
 40
1.0
176
     1
 90
        8
176
     1
 62
     7
176
     1
 40
1.0
176
     1
 90
        1
176
     1
 90
        6
176
     1
 90
        2
176
     1
 62
     7
176
     1
 90
        5
176
     1
 90
        0
176
     1
 90
        0
176
     1
290
     0
176
     1
 90
        1
176
     1
 40
-50.0
176
     1
 90
        0
176
     1
290
     0
176
     1
290
     1
176
     1
290
     1
176
     1
290
     0
176
     1
290
     0
176
     1
290
     0
176
     1
290
     0
176
     1
290
     0
176
     1
290
     0
176
     1
 90
       50
176
     1
 40
0.0
176
     1
 40
1.0
176
     1
 90
        0
176
     1
 62
    18
420
        0
176
     1
 90
       50
176
     1
 90
        3
176
     1
 62
     5
420
      255
176
     1
290
     0
176
     1
 90
       50
176
     1
 90
       50
176
     1
 90
       50
176
     1
290
     0
176
     1
 90
       50
176
     1
 62
   256
176
     0
 40
1.0
176
     0
 90
        2
176
     1
  1
strokes_ogs.tif
176
     1
290
     0
176
     1
 40
1.0
176
     1
 40
1.0
176
     1
  0
VISUALSTYLE
  5
41
102
{ACAD_REACTORS
330
29
102
}
330
29
100
AcDbVisualStyle
  2
EdgeColorOff
 70
    22
177
     3
291
     1
 70
    58
 90
        2
176
     0
 90
        2
176
     0
 90
        0
176
     0
 90
        0
176
     0
 40
0.6
176
     0
 40
30.0
176
     0
 62
     7
420
 16777215
176
     0
 90
        1
176
     0
 90
        4
176
     0
 62
     7
176
     0
 62
   257
176
     0
 90
        1
176
     0
 90
        1
176
     0
 40
1.0
176
     0
 90
        8
176
     2
 62
     7
176
     0
 40
1.0
176
     0
 90
        1
176
     0
 90
        6
176
     0
 90
        2
176
     0
 62
     7
176
     0
 90
        5
176
     0
 90
        0
176
     0
 90
        0
176
     0
290
     0
176
     0
 90
        1
176
     0
 40
0.0
176
     0
 90
        0
176
     0
290
     0
176
     0
290
     1
176
     0
290
     1
176
     0
290
     0
176
     0
290
     0
176
     0
290
     0
176
     0
290
     0
176
     0
290
     0
176
     0
290
     0
176
     0
 90
       50
176
     0
 40
0.0
176
     0
 40
1.0
176
     0
 90
        0
176
     0
 62
    18
420
        0
176
     0
 90
       50
176
     0
 90
        3
176
     0
 62
     5
420
      255
176
     0
290
     0
176
     0
 90
       50
176
     0
 90
       50
176
     0
 90
       50
176
     0
290
     0
176
     0
 90
       50
176
     0
 62
   256
176
     0
 40
1.0
176
     0
 90
        2
176
     0
  1
strokes_ogs.tif
176
     0
290
     0
176
     0
 40
1.0
176
     0
 40
1.0
176
     0
  0
VISUALSTYLE
  5
38
102
{ACAD_REACTORS
330
29
102
}
330
29
100
AcDbVisualStyle
  2
Facepattern
 70
    15
177
     3
291
     1
 70
    58
 90
        2
176
     1
 90
        2
176
     1
 90
        0
176
     1
 90
        0
176
     1
 40
0.6
176
     1
 40
30.0
176
     1
 62
     7
420
 16777215
176
     1
 90
        1
176
     1
 90
        4
176
     1
 62
     7
176
     1
 62
   257
176
     1
 90
        1
176
     1
 90
        1
176
     1
 40
1.0
176
     1
 90
        8
176
     1
 62
     7
176
     1
 40
1.0
176
     1
 90
        1
176
     1
 90
        6
176
     1
 90
        2
176
     1
 62
     7
176
     1
 90
        5
176
     1
 90
        0
176
     1
 90
        0
176
     1
290
     0
176
     1
 90
        1
176
     1
 40
0.0
176
     1
 90
        0
176
     1
290
     0
176
     1
290
     1
176
     1
290
     1
176
     1
290
     0
176
     1
290
     0
176
     1
290
     0
176
     1
290
     0
176
     1
290
     0
176
     1
290
     0
176
     1
 90
       50
176
     1
 40
0.0
176
     1
 40
1.0
176
     1
 90
        0
176
     1
 62
    18
420
        0
176
     1
 90
       50
176
     1
 90
        3
176
     1
 62
     5
420
      255
176
     1
290
     0
176
     1
 90
       50
176
     1
 90
       50
176
     1
 90
       50
176
     1
290
     0
176
     1
 90
       50
176
     1
 62
   256
176
     0
 40
1.0
176
     0
 90
        2
176
     1
  1
strokes_ogs.tif
176
     1
290
     0
176
     1
 40
1.0
176
     1
 40
1.0
176
     1
  0
VISUALSTYLE
  5
2A
102
{ACAD_REACTORS
330
29
102
}
330
29
100
AcDbVisualStyle
  2
Flat
 70
     0
177
     3
291
     1
 70
    58
 90
        2
176
     1
 90
        1
176
     1
 90
        1
176
     1
 90
        2
176
     1
 40
0.6
176
     1
 40
30.0
176
     1
 62
     7
420
 16777215
176
     1
 90
        0
176
     1
 90
        0
176
     1
 62
     7
176
     1
 62
   257
176
     1
 90
        1
176
     1
 90
        1
176
     1
 40
1.0
176
     1
 90
        8
176
     1
 62
     7
176
     1
 40
1.0
176
     1
 90
        1
176
     1
 90
        6
176
     1
 90
        2
176
     1
 62
     7
176
     1
 90
        5
176
     1
 90
        0
176
     1
 90
        0
176
     1
290
     0
176
     1
 90
       13
176
     1
 40
0.0
176
     1
 90
        0
176
     1
290
     0
176
     1
290
     1
176
     1
290
     1
176
     1
290
     0
176
     1
290
     0
176
     1
290
     0
176
     1
290
     0
176
     1
290
     0
176
     1
290
     0
176
     1
 90
       50
176
     1
 40
0.0
176
     1
 40
1.0
176
     1
 90
        0
176
     1
 62
    18
420
        0
176
     1
 90
       50
176
     1
 90
        3
176
     1
 62
     5
420
      255
176
     1
290
     0
176
     1
 90
       50
176
     1
 90
       50
176
     1
 90
       50
176
     1
290
     0
176
     1
 90
       50
176
     1
 62
   256
176
     0
 40
1.0
176
     0
 90
        2
176
     1
  1
strokes_ogs.tif
176
     1
290
     0
176
     1
 40
1.0
176
     1
 40
1.0
176
     1
  0
VISUALSTYLE
  5
2B
102
{ACAD_REACTORS
330
29
102
}
330
29
100
AcDbVisualStyle
  2
FlatWithEdges
 70
     1
177
     3
291
     1
 70
    58
 90
        2
176
     1
 90
        1
176
     1
 90
        1
176
     1
 90
        2
176
     1
 40
0.6
176
     1
 40
30.0
176
     1
 62
     7
420
 16777215
176
     1
 90
        1
176
     1
 90
        0
176
     1
 62
     7
176
     1
 62
   257
176
     1
 90
        1
176
     1
 90
        1
176
     1
 40
1.0
176
     1
 90
        0
176
     1
 62
   257
176
     1
 40
1.0
176
     1
 90
        1
176
     1
 90
        6
176
     1
 90
        2
176
     1
 62
     7
176
     1
 90
        5
176
     1
 90
        0
176
     1
 90
        0
176
     1
290
     0
176
     1
 90
       13
176
     1
 40
0.0
176
     1
 90
        0
176
     1
290
     0
176
     1
290
     1
176
     1
290
     1
176
     1
290
     0
176
     1
290
     0
176
     1
290
     0
176
     1
290
     0
176
     1
290
     0
176
     1
290
     0
176
     1
 90
       50
176
     1
 40
0.0
176
     1
 40
1.0
176
     1
 90
        0
176
     1
 62
    18
420
        0
176
     1
 90
       50
176
     1
 90
        3
176
     1
 62
     5
420
      255
176
     1
290
     0
176
     1
 90
       50
176
     1
 90
       50
176
     1
 90
       50
176
     1
290
     0
176
     1
 90
       50
176
     1
 62
   256
176
     0
 40
1.0
176
     0
 90
        2
176
     1
  1
strokes_ogs.tif
176
     1
290
     0
176
     1
 40
1.0
176
     1
 40
1.0
176
     1
  0
VISUALSTYLE
  5
2C
102
{ACAD_REACTORS
330
29
102
}
330
29
100
AcDbVisualStyle
  2
Gouraud
 70
     2
177
     3
291
     1
 70
    58
 90
        2
176
     1
 90
        2
176
     1
 90
        1
176
     1
 90
        2
176
     1
 40
0.6
176
     1
 40
30.0
176
     1
 62
     7
420
 16777215
176
     1
 90
        0
176
     1
 90
        0
176
     1
 62
     7
176
     1
 62
   257
176
     1
 90
        1
176
     1
 90
        1
176
     1
 40
1.0
176
     1
 90
        0
176
     1
 62
     7
176
     1
 40
1.0
176
     1
 90
        1
176
     1
 90
        6
176
     1
 90
        2
176
     1
 62
     7
176
     1
 90
        5
176
     1
 90
        0
176
     1
 90
        0
176
     1
290
     0
176
     1
 90
       13
176
     1
 40
0.0
176
     1
 90
        0
176
     1
290
     0
176
     1
290
     1
176
     1
290
     1
176
     1
290
     0
176
     1
290
     0
176
     1
290
     0
176
     1
290
     0
176
     1
290
     0
176
     1
290
     0
176
     1
 90
       50
176
     1
 40
0.0
176
     1
 40
1.0
176
     1
 90
        0
176
     1
 62
    18
420
        0
176
     1
 90
       50
176
     1
 90
        3
176
     1
 62
     5
420
      255
176
     1
290
     0
176
     1
 90
       50
176
     1
 90
       50
176
     1
 90
       50
176
     1
290
     0
176
     1
 90
       50
176
     1
 62
   256
176
     0
 40
1.0
176
     0
 90
        2
176
     1
  1
strokes_ogs.tif
176
     1
290
     0
176
     1
 40
1.0
176
     1
 40
1.0
176
     1
  0
VISUALSTYLE
  5
2D
102
{ACAD_REACTORS
330
29
102
}
330
29
100
AcDbVisualStyle
  2
GouraudWithEdges
 70
     3
177
     3
291
     1
 70
    58
 90
        2
176
     1
 90
        2
176
     1
 90
        1
176
     1
 90
        2
176
     1
 40
0.6
176
     1
 40
30.0
176
     1
 62
     7
420
 16777215
176
     1
 90
        1
176
     1
 90
        0
176
     1
 62
     7
176
     1
 62
   257
176
     1
 90
        1
176
     1
 90
        1
176
     1
 40
1.0
176
     1
 90
        0
176
     1
 62
   257
176
     1
 40
1.0
176
     1
 90
        1
176
     1
 90
        6
176
     1
 90
        2
176
     1
 62
     7
176
     1
 90
        5
176
     1
 90
        0
176
     1
 90
        0
176
     1
290
     0
176
     1
 90
       13
176
     1
 40
0.0
176
     1
 90
        0
176
     1
290
     0
176
     1
290
     1
176
     1
290
     1
176
     1
290
     0
176
     1
290
     0
176
     1
290
     0
176
     1
290
     0
176
     1
290
     0
176
     1
290
     0
176
     1
 90
       50
176
     1
 40
0.0
176
     1
 40
1.0
176
     1
 90
        0
176
     1
 62
    18
420
        0
176
     1
 90
       50
176
     1
 90
        3
176
     1
 62
     5
420
      255
176
     1
290
     0
176
     1
 90
       50
176
     1
 90
       50
176
     1
 90
       50
176
     1
290
     0
176
     1
 90
       50
176
     1
 62
   256
176
     0
 40
1.0
176
     0
 90
        2
176
     1
  1
strokes_ogs.tif
176
     1
290
     0
176
     1
 40
1.0
176
     1
 40
1.0
176
     1
  0
VISUALSTYLE
  5
31
102
{ACAD_REACTORS
330
29
102
}
330
29
100
AcDbVisualStyle
  2
Hidden
 70
     6
177
     3
291
     0
 70
    58
 90
        1
176
     1
 90
        2
176
     1
 90
        2
176
     1
 90
        0
176
     1
 40
0.6
176
     1
 40
30.0
176
     1
 62
     7
420
 16777215
176
     1
 90
        2
176
     1
 90
        2
176
     1
 62
     7
176
     1
 62
   257
176
     1
 90
        2
176
     1
 90
        1
176
     1
 40
40.0
176
     1
 90
        0
176
     1
 62
   257
176
     1
 40
1.0
176
     1
 90
        1
176
     1
 90
        6
176
     1
 90
        2
176
     1
 62
     7
176
     1
 90
        3
176
     1
 90
        0
176
     1
 90
        0
176
     1
290
     0
176
     1
 90
        1
176
     1
 40
0.0
176
     1
 90
        0
176
     1
290
     0
176
     1
290
     1
176
     1
290
     1
176
     1
290
     0
176
     1
290
     0
176
     1
290
     0
176
     1
290
     0
176
     1
290
     0
176
     1
290
     0
176
     1
 90
       50
176
     1
 40
0.0
176
     1
 40
1.0
176
     1
 90
        0
176
     1
 62
    18
420
        0
176
     1
 90
       50
176
     1
 90
        3
176
     1
 62
     5
420
      255
176
     1
290
     0
176
     1
 90
       50
176
     1
 90
       50
176
     1
 90
       50
176
     1
290
     0
176
     1
 90
       50
176
     1
 62
   256
176
     0
 40
1.0
176
     0
 90
        2
176
     1
  1
strokes_ogs.tif
176
     1
290
     0
176
     1
 40
1.0
176
     1
 40
1.0
176
     1
  0
VISUALSTYLE
  5
3F
102
{ACAD_REACTORS
330
29
102
}
330
29
100
AcDbVisualStyle
  2
JitterOff
 70
    20
177
     3
291
     1
 70
    58
 90
        2
176
     0
 90
        2
176
     0
 90
        0
176
     0
 90
        0
176
     0
 40
0.6
176
     0
 40
30.0
176
     0
 62
     7
420
 16777215
176
     0
 90
        1
176
     0
 90
        4
176
     0
 62
     7
176
     0
 62
   257
176
     0
 90
        1
176
     0
 90
        1
176
     0
 40
1.0
176
     0
 90
       10
176
     2
 62
     7
176
     0
 40
1.0
176
     0
 90
        1
176
     0
 90
        6
176
     0
 90
        2
176
     0
 62
     7
176
     0
 90
        5
176
     0
 90
        0
176
     0
 90
        0
176
     0
290
     0
176
     0
 90
        1
176
     0
 40
0.0
176
     0
 90
        0
176
     0
290
     0
176
     0
290
     1
176
     0
290
     1
176
     0
290
     0
176
     0
290
     0
176
     0
290
     0
176
     0
290
     0
176
     0
290
     0
176
     0
290
     0
176
     0
 90
       50
176
     0
 40
0.0
176
     0
 40
1.0
176
     0
 90
        0
176
     0
 62
    18
420
        0
176
     0
 90
       50
176
     0
 90
        3
176
     0
 62
     5
420
      255
176
     0
290
     0
176
     0
 90
       50
176
     0
 90
       50
176
     0
 90
       50
176
     0
290
     0
176
     0
 90
       50
176
     0
 62
   256
176
     0
 40
1.0
176
     0
 90
        2
176
     0
  1
strokes_ogs.tif
176
     0
290
     0
176
     0
 40
1.0
176
     0
 40
1.0
176
     0
  0
VISUALSTYLE
  5
37
102
{ACAD_REACTORS
330
29
102
}
330
29
100
AcDbVisualStyle
  2
Linepattern
 70
    14
177
     3
291
     1
 70
    58
 90
        2
176
     1
 90
        2
176
     1
 90
        0
176
     1
 90
        0
176
     1
 40
0.6
176
     1
 40
30.0
176
     1
 62
     7
420
 16777215
176
     1
 90
        1
176
     1
 90
        4
176
     1
 62
     7
176
     1
 62
   257
176
     1
 90
        7
176
     1
 90
        7
176
     1
 40
1.0
176
     1
 90
        8
176
     1
 62
     7
176
     1
 40
1.0
176
     1
 90
        1
176
     1
 90
        6
176
     1
 90
        2
176
     1
 62
     7
176
     1
 90
        5
176
     1
 90
        0
176
     1
 90
        0
176
     1
290
     0
176
     1
 90
        1
176
     1
 40
0.0
176
     1
 90
        0
176
     1
290
     0
176
     1
290
     1
176
     1
290
     1
176
     1
290
     0
176
     1
290
     0
176
     1
290
     0
176
     1
290
     0
176
     1
290
     0
176
     1
290
     0
176
     1
 90
       50
176
     1
 40
0.0
176
     1
 40
1.0
176
     1
 90
        0
176
     1
 62
    18
420
        0
176
     1
 90
       50
176
     1
 90
        3
176
     1
 62
     5
420
      255
176
     1
290
     0
176
     1
 90
       50
176
     1
 90
       50
176
     1
 90
       50
176
     1
290
     0
176
     1
 90
       50
176
     1
 62
   256
176
     0
 40
1.0
176
     0
 90
        2
176
     1
  1
strokes_ogs.tif
176
     1
290
     0
176
     1
 40
1.0
176
     1
 40
1.0
176
     1
  0
VISUALSTYLE
  5
40
102
{ACAD_REACTORS
330
29
102
}
330
29
100
AcDbVisualStyle
  2
OverhangOff
 70
    21
177
     3
291
     1
 70
    58
 90
        2
176
     0
 90
        2
176
     0
 90
        0
176
     0
 90
        0
176
     0
 40
0.6
176
     0
 40
30.0
176
     0
 62
     7
420
 16777215
176
     0
 90
        1
176
     0
 90
        4
176
     0
 62
     7
176
     0
 62
   257
176
     0
 90
        1
176
     0
 90
        1
176
     0
 40
1.0
176
     0
 90
        9
176
     2
 62
     7
176
     0
 40
1.0
176
     0
 90
        1
176
     0
 90
        6
176
     0
 90
        2
176
     0
 62
     7
176
     0
 90
        5
176
     0
 90
        0
176
     0
 90
        0
176
     0
290
     0
176
     0
 90
        1
176
     0
 40
0.0
176
     0
 90
        0
176
     0
290
     0
176
     0
290
     1
176
     0
290
     1
176
     0
290
     0
176
     0
290
     0
176
     0
290
     0
176
     0
290
     0
176
     0
290
     0
176
     0
290
     0
176
     0
 90
       50
176
     0
 40
0.0
176
     0
 40
1.0
176
     0
 90
        0
176
     0
 62
    18
420
        0
176
     0
 90
       50
176
     0
 90
        3
176
     0
 62
     5
420
      255
176
     0
290
     0
176
     0
 90
       50
176
     0
 90
       50
176
     0
 90
       50
176
     0
290
     0
176
     0
 90
       50
176
     0
 62
   256
176
     0
 40
1.0
176
     0
 90
        2
176
     0
  1
strokes_ogs.tif
176
     0
290
     0
176
     0
 40
1.0
176
     0
 40
1.0
176
     0
  0
VISUALSTYLE
  5
33
102
{ACAD_REACTORS
330
29
102
}
330
29
100
AcDbVisualStyle
  2
Realistic
 70
     8
177
     3
291
     0
 70
    58
 90
        2
176
     1
 90
        3
176
     1
 90
        0
176
     1
 90
        2
176
     1
 40
0.6
176
     1
 40
30.0
176
     1
 62
     7
420
 16777215
176
     1
 90
        0
176
     1
 90
        0
176
     1
 62
     7
176
     1
 62
   257
176
     1
 90
        1
176
     1
 90
        1
176
     1
 40
1.0
176
     1
 90
        8
176
     1
 62
   257
176
     1
 40
1.0
176
     1
 90
        1
176
     1
 90
        6
176
     1
 90
        2
176
     1
 62
     7
176
     1
 90
        3
176
     1
 90
        0
176
     1
 90
        0
176
     1
290
     0
176
     1
 90
       13
176
     1
 40
0.0
176
     1
 90
        0
176
     1
290
     0
176
     1
290
     1
176
     1
290
     1
176
     1
290
     0
176
     1
290
     0
176
     1
290
     0
176
     1
290
     0
176
     1
290
     0
176
     1
290
     0
176
     1
 90
       50
176
     1
 40
0.0
176
     1
 40
1.0
176
     1
 90
        0
176
     1
 62
    18
420
        0
176
     1
 90
       50
176
     1
 90
        3
176
     1
 62
     5
420
      255
176
     1
290
     0
176
     1
 90
       50
176
     1
 90
       50
176
     1
 90
       50
176
     1
290
     0
176
     1
 90
       50
176
     1
 62
   256
176
     0
 40
1.0
176
     0
 90
        2
176
     1
  1
strokes_ogs.tif
176
     1
290
     0
176
     1
 40
1.0
176
     1
 40
1.0
176
     1
  0
VISUALSTYLE
  5
3E
102
{ACAD_REACTORS
330
29
102
}
330
29
100
AcDbVisualStyle
  2
Shaded
 70
    27
177
     3
291
     0
 70
    58
 90
        2
176
     1
 90
        2
176
     1
 90
        1
176
     1
 90
        2
176
     1
 40
0.6
176
     1
 40
30.0
176
     1
 62
     7
420
 16777215
176
     1
 90
        0
176
     1
 90
        4
176
     1
 62
     7
176
     1
 62
   257
176
     1
 90
        1
176
     1
 90
        1
176
     1
 40
1.0
176
     1
 90
        8
176
     1
 62
   257
176
     1
 40
1.0
176
     1
 90
        1
176
     1
 90
        6
176
     1
 90
        2
176
     1
 62
     8
420
  7895160
176
     1
 90
        3
176
     1
 90
        0
176
     1
 90
        0
176
     1
290
     0
176
     1
 90
        5
176
     1
 40
0.0
176
     1
 90
        0
176
     1
290
     0
176
     1
290
     1
176
     1
290
     1
176
     1
290
     0
176
     1
290
     0
176
     1
290
     0
176
     1
290
     0
176
     1
290
     0
176
     1
290
     0
176
     1
 90
       50
176
     1
 40
0.0
176
     1
 40
1.0
176
     1
 90
        0
176
     1
 62
    18
420
        0
176
     1
 90
       50
176
     1
 90
        3
176
     1
 62
     5
420
      255
176
     1
290
     0
176
     1
 90
       50
176
     1
 90
       50
176
     1
 90
       50
176
     1
290
     0
176
     1
 90
       50
176
     1
 62
   256
176
     0
 40
1.0
176
     0
 90
        2
176
     1
  1
strokes_ogs.tif
176
     1
290
     0
176
     1
 40
1.0
176
     1
 40
1.0
176
     1
  0
VISUALSTYLE
  5
3D
102
{ACAD_REACTORS
330
29
102
}
330
29
100
AcDbVisualStyle
  2
Shaded with edges
 70
    26
177
     3
291
     0
 70
    58
 90
        2
176
     1
 90
        2
176
     1
 90
        1
176
     1
 90
        2
176
     1
 40
0.6
176
     1
 40
30.0
176
     1
 62
     7
420
 16777215
176
     1
 90
        1
176
     1
 90
        2
176
     1
 62
     7
176
     1
 62
   257
176
     1
 90
        2
176
     1
 90
        1
176
     1
 40
1.0
176
     1
 90
        8
176
     1
 62
   257
176
     1
 40
1.0
176
     1
 90
        1
176
     1
 90
        6
176
     1
 90
        2
176
     1
 62
     7
176
     1
 90
        3
176
     1
 90
        0
176
     1
 90
        0
176
     1
290
     0
176
     1
 90
        5
176
     1
 40
0.0
176
     1
 90
        0
176
     1
290
     0
176
     1
290
     1
176
     1
290
     1
176
     1
290
     0
176
     1
290
     0
176
     1
290
     0
176
     1
290
     0
176
     1
290
     0
176
     1
290
     0
176
     1
 90
       50
176
     1
 40
0.0
176
     1
 40
1.0
176
     1
 90
        0
176
     1
 62
    18
420
        0
176
     1
 90
       50
176
     1
 90
        3
176
     1
 62
     5
420
      255
176
     1
290
     0
176
     1
 90
       50
176
     1
 90
       50
176
     1
 90
       50
176
     1
290
     0
176
     1
 90
       50
176
     1
 62
   256
176
     0
 40
1.0
176
     0
 90
        2
176
     1
  1
strokes_ogs.tif
176
     1
290
     0
176
     1
 40
1.0
176
     1
 40
1.0
176
     1
  0
VISUALSTYLE
  5
3A
102
{ACAD_REACTORS
330
29
102
}
330
29
100
AcDbVisualStyle
  2
Shades of Gray
 70
    23
177
     3
291
     0
 70
    58
 90
        2
176
     1
 90
        2
176
     1
 90
        3
176
     1
 90
        0
176
     1
 40
0.6
176
     1
 40
30.0
176
     1
 62
     7
420
 16777215
176
     1
 90
        2
176
     1
 90
        2
176
     1
 62
     7
176
     1
 62
     7
176
     1
 90
        1
176
     1
 90
        1
176
     1
 40
40.0
176
     1
 90
        8
176
     1
 62
     7
176
     1
 40
1.0
176
     1
 90
        1
176
     1
 90
        6
176
     1
 90
        2
176
     1
 62
     7
176
     1
 90
        3
176
     1
 90
        0
176
     1
 90
        0
176
     1
290
     0
176
     1
 90
        1
176
     1
 40
0.0
176
     1
 90
        0
176
     1
290
     0
176
     1
290
     1
176
     1
290
     1
176
     1
290
     0
176
     1
290
     0
176
     1
290
     0
176
     1
290
     0
176
     1
290
     0
176
     1
290
     0
176
     1
 90
       50
176
     1
 40
0.0
176
     1
 40
1.0
176
     1
 90
        0
176
     1
 62
    18
420
        0
176
     1
 90
       50
176
     1
 90
        3
176
     1
 62
     5
420
      255
176
     1
290
     0
176
     1
 90
       50
176
     1
 90
       50
176
     1
 90
       50
176
     1
290
     0
176
     1
 90
       50
176
     1
 62
   256
176
     0
 40
1.0
176
     0
 90
        2
176
     1
  1
strokes_ogs.tif
176
     1
290
     0
176
     1
 40
1.0
176
     1
 40
1.0
176
     1
  0
VISUALSTYLE
  5
3B
102
{ACAD_REACTORS
330
29
102
}
330
29
100
AcDbVisualStyle
  2
Sketchy
 70
    24
177
     3
291
     0
 70
    58
 90
        1
176
     1
 90
        2
176
     1
 90
        2
176
     1
 90
        0
176
     1
 40
0.6
176
     1
 40
30.0
176
     1
 62
     7
420
 16777215
176
     1
 90
        2
176
     1
 90
        2
176
     1
 62
     7
176
     1
 62
     7
176
     1
 90
        1
176
     1
 90
        1
176
     1
 40
40.0
176
     1
 90
       11
176
     1
 62
     7
176
     1
 40
1.0
176
     1
 90
        1
176
     1
 90
        6
176
     1
 90
        2
176
     1
 62
     7
176
     1
 90
        6
176
     1
 90
        0
176
     1
 90
        0
176
     1
290
     0
176
     1
 90
        1
176
     1
 40
0.0
176
     1
 90
        0
176
     1
290
     0
176
     1
290
     1
176
     1
290
     1
176
     1
290
     0
176
     1
290
     0
176
     1
290
     0
176
     1
290
     0
176
     1
290
     0
176
     1
290
     0
176
     1
 90
       50
176
     1
 40
0.0
176
     1
 40
1.0
176
     1
 90
        0
176
     1
 62
    18
420
        0
176
     1
 90
       50
176
     1
 90
        3
176
     1
 62
     5
420
      255
176
     1
290
     0
176
     1
 90
       50
176
     1
 90
       50
176
     1
 90
       50
176
     1
290
     0
176
     1
 90
       50
176
     1
 62
   256
176
     0
 40
1.0
176
     0
 90
        2
176
     1
  1
strokes_ogs.tif
176
     1
290
     0
176
     1
 40
1.0
176
     1
 40
1.0
176
     1
  0
VISUALSTYLE
  5
36
102
{ACAD_REACTORS
330
29
102
}
330
29
100
AcDbVisualStyle
  2
Thicken
 70
    13
177
     3
291
     1
 70
    58
 90
        2
176
     1
 90
        2
176
     1
 90
        0
176
     1
 90
        0
176
     1
 40
0.6
176
     1
 40
30.0
176
     1
 62
     7
420
 16777215
176
     1
 90
        1
176
     1
 90
        4
176
     1
 62
     7
176
     1
 62
   257
176
     1
 90
        1
176
     1
 90
        1
176
     1
 40
1.0
176
     1
 90
       12
176
     1
 62
     7
176
     1
 40
1.0
176
     1
 90
        1
176
     1
 90
        6
176
     1
 90
        2
176
     1
 62
     7
176
     1
 90
        5
176
     1
 90
        0
176
     1
 90
        0
176
     1
290
     0
176
     1
 90
        1
176
     1
 40
0.0
176
     1
 90
        0
176
     1
290
     0
176
     1
290
     1
176
     1
290
     1
176
     1
290
     0
176
     1
290
     0
176
     1
290
     0
176
     1
290
     0
176
     1
290
     0
176
     1
290
     0
176
     1
 90
       50
176
     1
 40
0.0
176
     1
 40
1.0
176
     1
 90
        0
176
     1
 62
    18
420
        0
176
     1
 90
       50
176
     1
 90
        3
176
     1
 62
     5
420
      255
176
     1
290
     0
176
     1
 90
       50
176
     1
 90
       50
176
     1
 90
       50
176
     1
290
     0
176
     1
 90
       50
176
     1
 62
   256
176
     0
 40
1.0
176
     0
 90
        2
176
     1
  1
strokes_ogs.tif
176
     1
290
     0
176
     1
 40
1.0
176
     1
 40
1.0
176
     1
  0
VISUALSTYLE
  5
30
102
{ACAD_REACTORS
330
29
102
}
330
29
100
AcDbVisualStyle
  2
Wireframe
 70
     5
177
     3
291
     0
 70
    58
 90
        0
176
     1
 90
        2
176
     1
 90
        0
176
     1
 90
        0
176
     1
 40
0.6
176
     1
 40
30.0
176
     1
 62
     7
420
 16777215
176
     1
 90
        1
176
     1
 90
        4
176
     1
 62
     7
176
     1
 62
   257
176
     1
 90
        1
176
     1
 90
        1
176
     1
 40
1.0
176
     1
 90
        0
176
     1
 62
   257
176
     1
 40
1.0
176
     1
 90
        1
176
     1
 90
        6
176
     1
 90
        2
176
     1
 62
     7
176
     1
 90
        3
176
     1
 90
        0
176
     1
 90
        0
176
     1
290
     0
176
     1
 90
        1
176
     1
 40
0.0
176
     1
 90
        0
176
     1
290
     0
176
     1
290
     1
176
     1
290
     1
176
     1
290
     0
176
     1
290
     0
176
     1
290
     0
176
     1
290
     0
176
     1
290
     0
176
     1
290
     0
176
     1
 90
       50
176
     1
 40
0.0
176
     1
 40
1.0
176
     1
 90
        0
176
     1
 62
    18
420
        0
176
     1
 90
       50
176
     1
 90
        3
176
     1
 62
     5
420
      255
176
     1
290
     0
176
     1
 90
       50
176
     1
 90
       50
176
     1
 90
       50
176
     1
290
     0
176
     1
 90
       50
176
     1
 62
   256
176
     0
 40
1.0
176
     0
 90
        2
176
     1
  1
strokes_ogs.tif
176
     1
290
     0
176
     1
 40
1.0
176
     1
 40
1.0
176
     1
  0
VISUALSTYLE
  5
3C
102
{ACAD_REACTORS
330
29
102
}
330
29
100
AcDbVisualStyle
  2
X-Ray
 70
    25
177
     3
291
     0
 70
    58
 90
        2
176
     1
 90
        2
176
     1
 90
        1
176
     1
 90
        1
176
     1
 40
0.5
176
     1
 40
30.0
176
     1
 62
     7
420
 16777215
176
     1
 90
        1
176
     1
 90
        0
176
     1
 62
     7
176
     1
 62
   257
176
     1
 90
        1
176
     1
 90
        1
176
     1
 40
1.0
176
     1
 90
        8
176
     1
 62
     7
176
     1
 40
1.0
176
     1
 90
        1
176
     1
 90
        6
176
     1
 90
        2
176
     1
 62
     7
176
     1
 90
        3
176
     1
 90
        0
176
     1
 90
        0
176
     1
290
     0
176
     1
 90
       13
176
     1
 40
0.0
176
     1
 90
        0
176
     1
290
     0
176
     1
290
     1
176
     1
290
     1
176
     1
290
     0
176
     1
290
     0
176
     1
290
     0
176
     1
290
     0
176
     1
290
     0
176
     1
290
     0
176
     1
 90
       50
176
     1
 40
0.0
176
     1
 40
1.0
176
     1
 90
        0
176
     1
 62
    18
420
        0
176
     1
 90
       50
176
     1
 90
        3
176
     1
 62
     5
420
      255
176
     1
290
     0
176
     1
 90
       50
176
     1
 90
       50
176
     1
 90
       50
176
     1
290
     0
176
     1
 90
       50
176
     1
 62
   256
176
     0
 40
1.0
176
     0
 90
        2
176
     1
  1
strokes_ogs.tif
176
     1
290
     0
176
     1
 40
1.0
176
     1
 40
1.0
176
     1
  0
DICTIONARYVAR
  5
B9
102
{ACAD_REACTORS
330
B4
102
}
330
B4
100
DictionaryVariables
280
     0
  1
1:1
  0
DICTIONARYVAR
  5
B6
102
{ACAD_REACTORS
330
B4
102
}
330
B4
100
DictionaryVariables
280
     0
  1
STANDARD
  0
DICTIONARYVAR
  5
B5
102
{ACAD_REACTORS
330
B4
102
}
330
B4
100
DictionaryVariables
280
     0
  1
STANDARD
  0
DICTIONARYVAR
  5
B7
102
{ACAD_REACTORS
330
B4
102
}
330
B4
100
DictionaryVariables
280
     0
  1
Imperial24
  0
DICTIONARYVAR
  5
B8
102
{ACAD_REACTORS
330
B4
102
}
330
B4
100
DictionaryVariables
280
     0
  1
Imperial24
  0
DICTIONARY
  5
1A
330
19
100
AcDbDictionary
280
     1
281
     1
  3
BUMPTILE
360
1C
  3
DIFFUSETILE
360
1B
  3
OPACITYTILE
360
1F
  3
REFLECTIONTILE
360
1E
  3
REFRACTIONTILE
360
20
  3
SPECULARTILE
360
1D
  0
DICTIONARY
  5
12
330
11
100
AcDbDictionary
280
     1
281
     1
  3
BUMPTILE
360
14
  3
DIFFUSETILE
360
13
  3
OPACITYTILE
360
17
  3
REFLECTIONTILE
360
16
  3
REFRACTIONTILE
360
18
  3
SPECULARTILE
360
15
  0
DICTIONARY
  5
22
330
21
100
AcDbDictionary
280
     1
281
     1
  3
BUMPTILE
360
24
  3
DIFFUSETILE
360
23
  3
OPACITYTILE
360
27
  3
REFLECTIONTILE
360
26
  3
REFRACTIONTILE
360
28
  3
SPECULARTILE
360
25
  0
DICTIONARY
  5
BA
330
65
100
AcDbDictionary
280
     1
281
     1
  3
ACAD_ROUNDTRIP_2008_TABLESTYLE_CELLSTYLEMAP
360
BB
  0
XRECORD
  5
1C
102
{ACAD_REACTORS
330
1A
102
}
330
1A
100
AcDbXrecord
280
     1
270
     1
271
     1
  0
XRECORD
  5
1B
102
{ACAD_REACTORS
330
1A
102
}
330
1A
100
AcDbXrecord
280
     1
270
     1
271
     1
  0
XRECORD
  5
1F
102
{ACAD_REACTORS
330
1A
102
}
330
1A
100
AcDbXrecord
280
     1
270
     1
271
     1
  0
XRECORD
  5
1E
102
{ACAD_REACTORS
330
1A
102
}
330
1A
100
AcDbXrecord
280
     1
270
     1
271
     1
  0
XRECORD
  5
20
102
{ACAD_REACTORS
330
1A
102
}
330
1A
100
AcDbXrecord
280
     1
270
     1
271
     1
  0
XRECORD
  5
1D
102
{ACAD_REACTORS
330
1A
102
}
330
1A
100
AcDbXrecord
280
     1
270
     1
271
     1
  0
XRECORD
  5
14
102
{ACAD_REACTORS
330
12
102
}
330
12
100
AcDbXrecord
280
     1
270
     1
271
     1
  0
XRECORD
  5
13
102
{ACAD_REACTORS
330
12
102
}
330
12
100
AcDbXrecord
280
     1
270
     1
271
     1
  0
XRECORD
  5
17
102
{ACAD_REACTORS
330
12
102
}
330
12
100
AcDbXrecord
280
     1
270
     1
271
     1
  0
XRECORD
  5
16
102
{ACAD_REACTORS
330
12
102
}
330
12
100
AcDbXrecord
280
     1
270
     1
271
     1
  0
XRECORD
  5
18
102
{ACAD_REACTORS
330
12
102
}
330
12
100
AcDbXrecord
280
     1
270
     1
271
     1
  0
XRECORD
  5
15
102
{ACAD_REACTORS
330
12
102
}
330
12
100
AcDbXrecord
280
     1
270
     1
271
     1
  0
XRECORD
  5
24
102
{ACAD_REACTORS
330
22
102
}
330
22
100
AcDbXrecord
280
     1
270
     1
271
     1
  0
XRECORD
  5
23
102
{ACAD_REACTORS
330
22
102
}
330
22
100
AcDbXrecord
280
     1
270
     1
271
     1
  0
XRECORD
  5
27
102
{ACAD_REACTORS
330
22
102
}
330
22
100
AcDbXrecord
280
     1
270
     1
271
     1
  0
XRECORD
  5
26
102
{ACAD_REACTORS
330
22
102
}
330
22
100
AcDbXrecord
280
     1
270
     1
271
     1
  0
XRECORD
  5
28
102
{ACAD_REACTORS
330
22
102
}
330
22
100
AcDbXrecord
280
     1
270
     1
271
     1
  0
XRECORD
  5
25
102
{ACAD_REACTORS
330
22
102
}
330
22
100
AcDbXrecord
280
     1
270
     1
271
     1
  0
CELLSTYLEMAP
  5
BB
102
{ACAD_REACTORS
330
BA
102
}
330
BA
100
AcDbCellStyleMap
 90
        3
300
CELLSTYLE
  1
TABLEFORMAT_BEGIN
 90
        5
170
     1
 91
        0
 92
    32768
 62
   257
 93
        1
300
CONTENTFORMAT
  1
CONTENTFORMAT_BEGIN
 90
        0
 91
        0
 92
      512
 93
        0
300

 40
0.0
140
1.0
 94
        5
 62
     0
340
55
144
0.25
309
CONTENTFORMAT_END
171
     0
 94
        0
309
TABLEFORMAT_END
  1
CELLSTYLE_BEGIN
 90
        1
 91
        1
300
_TITLE
309
CELLSTYLE_END
300
CELLSTYLE
  1
TABLEFORMAT_BEGIN
 90
        5
170
     1
 91
        0
 92
        0
 62
   257
 93
        1
300
CONTENTFORMAT
  1
CONTENTFORMAT_BEGIN
 90
        0
 91
        0
 92
      512
 93
        0
300

 40
0.0
140
1.0
 94
        5
 62
     0
340
55
144
0.18
309
CONTENTFORMAT_END
171
     0
 94
        0
309
TABLEFORMAT_END
  1
CELLSTYLE_BEGIN
 90
        2
 91
        1
300
_HEADER
309
CELLSTYLE_END
300
CELLSTYLE
  1
TABLEFORMAT_BEGIN
 90
        5
170
     1
 91
        0
 92
        0
 62
   257
 93
        1
300
CONTENTFORMAT
  1
CONTENTFORMAT_BEGIN
 90
        0
 91
        0
 92
      512
 93
        0
300

 40
0.0
140
1.0
 94
        2
 62
     0
340
55
144
0.18
309
CONTENTFORMAT_END
171
     0
 94
        0
309
TABLEFORMAT_END
  1
CELLSTYLE_BEGIN
 90
        3
 91
        2
300
_DATA
309
CELLSTYLE_END
  0
ENDSEC
  0
EOF
