  0
SECTION
  2
HEADER
  9
$ACADVER
  1
AC1032
  9
$ACADMAINTVER
 90
      251
  9
$DWGCODEPAGE
  3
ANSI_1252
  9
$REQUIREDVERSIONS
160
                 0
  9
$INSBASE
 10
0.0
 20
0.0
 30
0.0
  9
$EXTMIN
 10
1.000000000000000E+20
 20
1.000000000000000E+20
 30
1.000000000000000E+20
  9
$EXTMAX
 10
-1.000000000000000E+20
 20
-1.000000000000000E+20
 30
-1.000000000000000E+20
  9
$LIMMIN
 10
0.0
 20
0.0
  9
$LIMMAX
 10
12.0
 20
9.0
  9
$ORTHOMODE
 70
     0
  9
$REGENMODE
 70
     1
  9
$FILLMODE
 70
     1
  9
$QTEXTMODE
 70
     0
  9
$MIRRTEXT
 70
     0
  9
$LTSCALE
 40
1.0
  9
$ATTMODE
 70
     1
  9
$TEXTSIZE
 40
0.2
  9
$TRACEWID
 40
0.05
  9
$TEXTSTYLE
  7
Standard
  9
$CLAYER
  8
0
  9
$CELTYPE
  6
ByLayer
  9
$CECOLOR
 62
   256
  9
$CELTSCALE
 40
1.0
  9
$DISPSILH
 70
     0
  9
$DIMSCALE
 40
1.0
  9
$DIMASZ
 40
0.18
  9
$DIMEXO
 40
0.0625
  9
$DIMDLI
 40
0.38
  9
$DIMRND
 40
0.0
  9
$DIMDLE
 40
0.0
  9
$DIMEXE
 40
0.18
  9
$DIMTP
 40
0.0
  9
$DIMTM
 40
0.0
  9
$DIMTXT
 40
0.18
  9
$DIMCEN
 40
0.09
  9
$DIMTSZ
 40
0.0
  9
$DIMTOL
 70
     0
  9
$DIMLIM
 70
     0
  9
$DIMTIH
 70
     1
  9
$DIMTOH
 70
     1
  9
$DIMSE1
 70
     0
  9
$DIMSE2
 70
     0
  9
$DIMTAD
 70
     0
  9
$DIMZIN
 70
     0
  9
$DIMBLK
  1

  9
$DIMASO
 70
     1
  9
$DIMSHO
 70
     1
  9
$DIMPOST
  1

  9
$DIMAPOST
  1

  9
$DIMALT
 70
     0
  9
$DIMALTD
 70
     2
  9
$DIMALTF
 40
25.4
  9
$DIMLFAC
 40
1.0
  9
$DIMTOFL
 70
     0
  9
$DIMTVP
 40
0.0
  9
$DIMTIX
 70
     0
  9
$DIMSOXD
 70
     0
  9
$DIMSAH
 70
     0
  9
$DIMBLK1
  1

  9
$DIMBLK2
  1

  9
$DIMSTYLE
  2
Standard
  9
$DIMCLRD
 70
     0
  9
$DIMCLRE
 70
     0
  9
$DIMCLRT
 70
     0
  9
$DIMTFAC
 40
1.0
  9
$DIMGAP
 40
0.09
  9
$DIMJUST
 70
     0
  9
$DIMSD1
 70
     0
  9
$DIMSD2
 70
     0
  9
$DIMTOLJ
 70
     1
  9
$DIMTZIN
 70
     0
  9
$DIMALTZ
 70
     0
  9
$DIMALTTZ
 70
     0
  9
$DIMUPT
 70
     0
  9
$DIMDEC
 70
     4
  9
$DIMTDEC
 70
     4
  9
$DIMALTU
 70
     2
  9
$DIMALTTD
 70
     2
  9
$DIMTXSTY
  7
Standard
  9
$DIMAUNIT
 70
     0
  9
$DIMADEC
 70
     0
  9
$DIMALTRND
 40
0.0
  9
$DIMAZIN
 70
     0
  9
$DIMDSEP
 70
    46
  9
$DIMATFIT
 70
     3
  9
$DIMFRAC
 70
     0
  9
$DIMLDRBLK
  1

  9
$DIMLUNIT
 70
     2
  9
$DIMLWD
 70
    -2
  9
$DIMLWE
 70
    -2
  9
$DIMTMOVE
 70
     0
  9
$DIMFXL
 40
1.0
  9
$DIMFXLON
 70
     0
  9
$DIMJOGANG
 40
0.7853981633974483
  9
$DIMTFILL
 70
     0
  9
$DIMTFILLCLR
 70
     0
  9
$DIMARCSYM
 70
     0
  9
$DIMLTYPE
  6

  9
$DIMLTEX1
  6

  9
$DIMLTEX2
  6

  9
$DIMTXTDIRECTION
 70
     0
  9
$LUNITS
 70
     2
  9
$LUPREC
 70
     4
  9
$SKETCHINC
 40
0.1
  9
$FILLETRAD
 40
0.0
  9
$AUNITS
 70
     0
  9
$AUPREC
 70
     0
  9
$MENU
  1
.
  9
$ELEVATION
 40
0.0
  9
$PELEVATION
 40
0.0
  9
$THICKNESS
 40
0.0
  9
$LIMCHECK
 70
     0
  9
$CHAMFERA
 40
0.0
  9
$CHAMFERB
 40
0.0
  9
$CHAMFERC
 40
0.0
  9
$CHAMFERD
 40
0.0
  9
$SKPOLY
 70
     0
  9
$TDCREATE
 40
2460481.520659723
  9
$TDUCREATE
 40
2460481.437326389
  9
$TDUPDATE
 40
2460481.520659723
  9
$TDUUPDATE
 40
2460481.437326389
  9
$TDINDWG
 40
0.0000115741
  9
$TDUSRTIMER
 40
0.0000115741
  9
$USRTIMER
 70
     1
  9
$ANGBASE
 50
0.0
  9
$ANGDIR
 70
     0
  9
$PDMODE
 70
     0
  9
$PDSIZE
 40
0.0
  9
$PLINEWID
 40
0.0
  9
$SPLFRAME
 70
     0
  9
$SPLINETYPE
 70
     6
  9
$SPLINESEGS
 70
     8
  9
$HANDSEED
  5
1B3
  9
$SURFTAB1
 70
     6
  9
$SURFTAB2
 70
     6
  9
$SURFTYPE
 70
     6
  9
$SURFU
 70
     6
  9
$SURFV
 70
     6
  9
$UCSBASE
  2

  9
$UCSNAME
  2

  9
$UCSORG
 10
0.0
 20
0.0
 30
0.0
  9
$UCSXDIR
 10
1.0
 20
0.0
 30
0.0
  9
$UCSYDIR
 10
0.0
 20
1.0
 30
0.0
  9
$UCSORTHOREF
  2

  9
$UCSORTHOVIEW
 70
     0
  9
$UCSORGTOP
 10
0.0
 20
0.0
 30
0.0
  9
$UCSORGBOTTOM
 10
0.0
 20
0.0
 30
0.0
  9
$UCSORGLEFT
 10
0.0
 20
0.0
 30
0.0
  9
$UCSORGRIGHT
 10
0.0
 20
0.0
 30
0.0
  9
$UCSORGFRONT
 10
0.0
 20
0.0
 30
0.0
  9
$UCSORGBACK
 10
0.0
 20
0.0
 30
0.0
  9
$PUCSBASE
  2

  9
$PUCSNAME
  2

  9
$PUCSORG
 10
0.0
 20
0.0
 30
0.0
  9
$PUCSXDIR
 10
1.0
 20
0.0
 30
0.0
  9
$PUCSYDIR
 10
0.0
 20
1.0
 30
0.0
  9
$PUCSORTHOREF
  2

  9
$PUCSORTHOVIEW
 70
     0
  9
$PUCSORGTOP
 10
0.0
 20
0.0
 30
0.0
  9
$PUCSORGBOTTOM
 10
0.0
 20
0.0
 30
0.0
  9
$PUCSORGLEFT
 10
0.0
 20
0.0
 30
0.0
  9
$PUCSORGRIGHT
 10
0.0
 20
0.0
 30
0.0
  9
$PUCSORGFRONT
 10
0.0
 20
0.0
 30
0.0
  9
$PUCSORGBACK
 10
0.0
 20
0.0
 30
0.0
  9
$USERI1
 70
     0
  9
$USERI2
 70
     0
  9
$USERI3
 70
     0
  9
$USERI4
 70
     0
  9
$USERI5
 70
     0
  9
$USERR1
 40
0.0
  9
$USERR2
 40
0.0
  9
$USERR3
 40
0.0
  9
$USERR4
 40
0.0
  9
$USERR5
 40
0.0
  9
$WORLDVIEW
 70
     1
  9
$SHADEDGE
 70
     3
  9
$SHADEDIF
 70
    70
  9
$TILEMODE
 70
     1
  9
$MAXACTVP
 70
    64
  9
$PINSBASE
 10
0.0
 20
0.0
 30
0.0
  9
$PLIMCHECK
 70
     0
  9
$PEXTMIN
 10
1.000000000000000E+20
 20
1.000000000000000E+20
 30
1.000000000000000E+20
  9
$PEXTMAX
 10
-1.000000000000000E+20
 20
-1.000000000000000E+20
 30
-1.000000000000000E+20
  9
$PLIMMIN
 10
0.0
 20
0.0
  9
$PLIMMAX
 10
12.0
 20
9.0
  9
$UNITMODE
 70
     0
  9
$VISRETAIN
 70
     1
  9
$PLINEGEN
 70
     0
  9
$PSLTSCALE
 70
     1
  9
$TREEDEPTH
 70
  3020
  9
$CMLSTYLE
  2
Standard
  9
$CMLJUST
 70
     0
  9
$CMLSCALE
 40
1.0
  9
$PROXYGRAPHICS
 70
     1
  9
$MEASUREMENT
 70
     0
  9
$CELWEIGHT
370
    -1
  9
$ENDCAPS
280
     0
  9
$JOINSTYLE
280
     0
  9
$LWDISPLAY
290
     1
  9
$INSUNITS
 70
     4
  9
$HYPERLINKBASE
  1

  9
$STYLESHEET
  1

  9
$XEDIT
290
     1
  9
$CEPSNTYPE
380
     0
  9
$PSTYLEMODE
290
     1
  9
$FINGERPRINTGUID
  2
{EBABB148-7B9F-2048-8227-E6F2EDC1C15D}
  9
$VERSIONGUID
  2
{24F74108-D32C-8548-81B8-800E2DBA26D6}
  9
$EXTNAMES
290
     1
  9
$PSVPSCALE
 40
0.0
  9
$OLESTARTUP
290
     0
  9
$SORTENTS
280
   127
  9
$INDEXCTL
280
     0
  9
$HIDETEXT
280
     1
  9
$XCLIPFRAME
280
     2
  9
$HALOGAP
280
     0
  9
$OBSCOLOR
 70
   257
  9
$OBSLTYPE
280
     0
  9
$INTERSECTIONDISPLAY
280
     0
  9
$INTERSECTIONCOLOR
 70
   257
  9
$DIMASSOC
280
     2
  9
$PROJECTNAME
  1

  9
$CAMERADISPLAY
290
     0
  9
$LENSLENGTH
 40
50.0
  9
$CAMERAHEIGHT
 40
0.0
  9
$STEPSPERSEC
 40
2.0
  9
$STEPSIZE
 40
6.0
  9
$3DDWFPREC
 40
2.0
  9
$PSOLWIDTH
 40
0.25
  9
$PSOLHEIGHT
 40
4.0
  9
$LOFTANG1
 40
1.570796326794896
  9
$LOFTANG2
 40
1.570796326794896
  9
$LOFTMAG1
 40
0.0
  9
$LOFTMAG2
 40
0.0
  9
$LOFTPARAM
 70
     7
  9
$LOFTNORMALS
280
     1
  9
$LATITUDE
 40
37.795
  9
$LONGITUDE
 40
-122.394
  9
$NORTHDIRECTION
 40
0.0
  9
$TIMEZONE
 70
 -8000
  9
$LIGHTGLYPHDISPLAY
280
     1
  9
$TILEMODELIGHTSYNCH
280
     1
  9
$CMATERIAL
347
11
  9
$SOLIDHIST
280
     0
  9
$SHOWHIST
280
     1
  9
$DWFFRAME
280
     2
  9
$DGNFRAME
280
     0
  9
$REALWORLDSCALE
290
     1
  9
$INTERFERECOLOR
 62
     1
  9
$INTERFEREOBJVS
345
33
  9
$INTERFEREVPVS
346
30
  9
$CSHADOW
280
     0
  9
$SHADOWPLANELOCATION
 40
0.0
  0
ENDSEC
  0
SECTION
  2
CLASSES
  0
CLASS
  1
ACDBDICTIONARYWDFLT
  2
AcDbDictionaryWithDefault
  3
ObjectDBX Classes
 90
        0
 91
        1
280
     0
281
     0
  0
CLASS
  1
MATERIAL
  2
AcDbMaterial
  3
ObjectDBX Classes
 90
     1153
 91
        3
280
     0
281
     0
  0
CLASS
  1
VISUALSTYLE
  2
AcDbVisualStyle
  3
ObjectDBX Classes
 90
     4095
 91
       24
280
     0
281
     0
  0
CLASS
  1
SCALE
  2
AcDbScale
  3
ObjectDBX Classes
 90
     1153
 91
       17
280
     0
281
     0
  0
CLASS
  1
TABLESTYLE
  2
AcDbTableStyle
  3
ObjectDBX Classes
 90
     4095
 91
        1
280
     0
281
     0
  0
CLASS
  1
MLEADERSTYLE
  2
AcDbMLeaderStyle
  3
ACDB_MLEADERSTYLE_CLASS
 90
     4095
 91
        1
280
     0
281
     0
  0
CLASS
  1
ACDBSECTIONVIEWSTYLE
  2
AcDbSectionViewStyle
  3
ObjectDBX Classes
 90
     1025
 91
        1
280
     0
281
     0
  0
CLASS
  1
ACDBDETAILVIEWSTYLE
  2
AcDbDetailViewStyle
  3
ObjectDBX Classes
 90
     1025
 91
        1
280
     0
281
     0
  0
CLASS
  1
DICTIONARYVAR
  2
AcDbDictionaryVar
  3
ObjectDBX Classes
 90
        0
 91
        5
280
     0
281
     0
  0
CLASS
  1
CELLSTYLEMAP
  2
AcDbCellStyleMap
  3
ObjectDBX Classes
 90
     1152
 91
        1
280
     0
281
     0
  0
ENDSEC
  0
SECTION
  2
TABLES
  0
TABLE
  2
VPORT
  5
8
330
0
100
AcDbSymbolTable
 70
     1
  0
VPORT
  5
57
330
8
100
AcDbSymbolTableRecord
100
AcDbViewportTableRecord
  2
*Active
 70
     0
 10
0.0
 20
0.0
 11
1.0
 21
1.0
 12
0.0
 22
0.0
 13
0.0
 23
0.0
 14
1.0
 24
1.0
 15
0.0
 25
0.0
 16
0.0
 26
0.0
 36
1.0
 17
104.9999970067632
 27
-148.5000119155931
 37
0.0
 40
302.9400243078099
 41
0.7070706301791066
 42
50.0
 43
0.0
 44
0.0
 50
0.0
 51
0.0
 71
     0
 72
   100
 73
     1
 74
     1
 75
     0
 76
     0
 77
     0
 78
     0
281
     0
 65
     1
110
0.0
120
0.0
130
0.0
111
1.0
121
0.0
131
0.0
112
0.0
122
1.0
132
0.0
 79
     0
146
0.0
 60
     3
 61
     5
292
     1
282
     1
141
0.0
142
0.0
 63
   250
421
  3355443
  0
ENDTAB
  0
TABLE
  2
LTYPE
  5
5
330
0
100
AcDbSymbolTable
 70
     1
  0
LTYPE
  5
5B
330
5
100
AcDbSymbolTableRecord
100
AcDbLinetypeTableRecord
  2
ByBlock
 70
     0
  3

 72
    65
 73
     0
 40
0.0
  0
LTYPE
  5
5C
330
5
100
AcDbSymbolTableRecord
100
AcDbLinetypeTableRecord
  2
ByLayer
 70
     0
  3

 72
    65
 73
     0
 40
0.0
  0
LTYPE
  5
5D
330
5
100
AcDbSymbolTableRecord
100
AcDbLinetypeTableRecord
  2
Continuous
 70
     0
  3
Solid line
 72
    65
 73
     0
 40
0.0
  0
ENDTAB
  0
TABLE
  2
LAYER
  5
2
330
0
100
AcDbSymbolTable
 70
     3
  0
LAYER
  5
54
330
2
100
AcDbSymbolTableRecord
100
AcDbLayerTableRecord
  2
0
 70
     0
 62
     7
  6
Continuous
370
    -3
390
F
347
21
348
0
  0
LAYER
  5
78
330
2
100
AcDbSymbolTableRecord
100
AcDbLayerTableRecord
  2
Capa 1
 70
     0
 62
     7
  6
Continuous
370
     0
390
F
347
21
348
0
  0
LAYER
  5
86
330
2
100
AcDbSymbolTableRecord
100
AcDbLayerTableRecord
  2
Capa 2
 70
     0
 62
     7
  6
Continuous
370
     0
390
F
347
21
348
0
  0
ENDTAB
  0
TABLE
  2
STYLE
  5
3
330
0
100
AcDbSymbolTable
 70
     2
  0
STYLE
  5
55
330
3
100
AcDbSymbolTableRecord
100
AcDbTextStyleTableRecord
  2
Standard
 70
     0
 40
0.0
 41
1.0
 50
0.0
 71
     0
 42
0.2
  3
txt
  4

  0
STYLE
  5
5A
330
3
100
AcDbSymbolTableRecord
100
AcDbTextStyleTableRecord
  2
Annotative
 70
     0
 40
0.0
 41
1.0
 50
0.0
 71
     0
 42
0.2
  3
txt
  4

1001
AcadAnnotative
1000
AnnotativeData
1002
{
1070
     1
1070
     1
1002
}
  0
ENDTAB
  0
TABLE
  2
VIEW
  5
6
330
0
100
AcDbSymbolTable
 70
     0
  0
ENDTAB
  0
TABLE
  2
UCS
  5
7
330
0
100
AcDbSymbolTable
 70
     0
  0
ENDTAB
  0
TABLE
  2
APPID
  5
9
330
0
100
AcDbSymbolTable
 70
     2
  0
APPID
  5
56
330
9
100
AcDbSymbolTableRecord
100
AcDbRegAppTableRecord
  2
ACAD
 70
     0
  0
APPID
  5
5E
330
9
100
AcDbSymbolTableRecord
100
AcDbRegAppTableRecord
  2
AcadAnnotative
 70
     0
  0
ENDTAB
  0
TABLE
  2
DIMSTYLE
  5
A
330
0
100
AcDbSymbolTable
 70
     2
100
AcDbDimStyleTable
 71
     0
  0
DIMSTYLE
105
58
330
A
100
AcDbSymbolTableRecord
100
AcDbDimStyleTableRecord
  2
Standard
 70
     0
340
55
  0
DIMSTYLE
105
59
330
A
100
AcDbSymbolTableRecord
100
AcDbDimStyleTableRecord
  2
Annotative
 70
     0
340
55
1001
AcadAnnotative
1000
AnnotativeData
1002
{
1070
     1
1070
     1
1002
}
  0
ENDTAB
  0
TABLE
  2
BLOCK_RECORD
  5
1
330
0
100
AcDbSymbolTable
 70
    20
  0
BLOCK_RECORD
  5
70
330
1
100
AcDbSymbolTableRecord
100
AcDbBlockTableRecord
  2
*Model_Space
340
73
 70
     0
280
     1
281
     0
  0
BLOCK_RECORD
  5
6C
330
1
100
AcDbSymbolTableRecord
100
AcDbBlockTableRecord
  2
*Paper_Space
340
6F
 70
     0
280
     1
281
     0
  0
BLOCK_RECORD
  5
74
330
1
100
AcDbSymbolTableRecord
100
AcDbBlockTableRecord
  2
*Paper_Space0
340
77
 70
     0
280
     1
281
     0
  0
BLOCK_RECORD
  5
79
330
1
100
AcDbSymbolTableRecord
100
AcDbBlockTableRecord
  2
Block_0
340
0
102
{BLKREFS
331
7A
102
}
 70
     0
280
     1
281
     0
  0
BLOCK_RECORD
  5
8C
330
1
100
AcDbSymbolTableRecord
100
AcDbBlockTableRecord
  2
Block_1
340
0
102
{BLKREFS
331
8D
102
}
 70
     0
280
     1
281
     0
  0
BLOCK_RECORD
  5
90
330
1
100
AcDbSymbolTableRecord
100
AcDbBlockTableRecord
  2
Block_2
340
0
102
{BLKREFS
331
91
102
}
 70
     0
280
     1
281
     0
  0
BLOCK_RECORD
  5
94
330
1
100
AcDbSymbolTableRecord
100
AcDbBlockTableRecord
  2
Block_3
340
0
102
{BLKREFS
331
95
102
}
 70
     0
280
     1
281
     0
  0
BLOCK_RECORD
  5
98
330
1
100
AcDbSymbolTableRecord
100
AcDbBlockTableRecord
  2
Block_4
340
0
102
{BLKREFS
331
99
102
}
 70
     0
280
     1
281
     0
  0
BLOCK_RECORD
  5
9C
330
1
100
AcDbSymbolTableRecord
100
AcDbBlockTableRecord
  2
Block_5
340
0
102
{BLKREFS
331
9D
102
}
 70
     0
280
     1
281
     0
  0
BLOCK_RECORD
  5
A0
330
1
100
AcDbSymbolTableRecord
100
AcDbBlockTableRecord
  2
Block_6
340
0
102
{BLKREFS
331
A1
102
}
 70
     0
280
     1
281
     0
  0
BLOCK_RECORD
  5
C1
330
1
100
AcDbSymbolTableRecord
100
AcDbBlockTableRecord
  2
Block_7
340
0
102
{BLKREFS
331
C2
102
}
 70
     0
280
     1
281
     0
  0
BLOCK_RECORD
  5
C8
330
1
100
AcDbSymbolTableRecord
100
AcDbBlockTableRecord
  2
Block_8
340
0
102
{BLKREFS
331
C9
102
}
 70
     0
280
     1
281
     0
  0
BLOCK_RECORD
  5
D3
330
1
100
AcDbSymbolTableRecord
100
AcDbBlockTableRecord
  2
Block_9
340
0
102
{BLKREFS
331
D4
102
}
 70
     0
280
     1
281
     0
  0
BLOCK_RECORD
  5
E6
330
1
100
AcDbSymbolTableRecord
100
AcDbBlockTableRecord
  2
Block_10
340
0
102
{BLKREFS
331
E7
102
}
 70
     0
280
     1
281
     0
  0
BLOCK_RECORD
  5
EA
330
1
100
AcDbSymbolTableRecord
100
AcDbBlockTableRecord
  2
Block_11
340
0
102
{BLKREFS
331
EB
102
}
 70
     0
280
     1
281
     0
  0
BLOCK_RECORD
  5
F1
330
1
100
AcDbSymbolTableRecord
100
AcDbBlockTableRecord
  2
Block_12
340
0
102
{BLKREFS
331
F2
102
}
 70
     0
280
     1
281
     0
  0
BLOCK_RECORD
  5
FF
330
1
100
AcDbSymbolTableRecord
100
AcDbBlockTableRecord
  2
Block_13
340
0
102
{BLKREFS
331
100
102
}
 70
     0
280
     1
281
     0
  0
BLOCK_RECORD
  5
10B
330
1
100
AcDbSymbolTableRecord
100
AcDbBlockTableRecord
  2
Block_14
340
0
102
{BLKREFS
331
10C
102
}
 70
     0
280
     1
281
     0
  0
BLOCK_RECORD
  5
118
330
1
100
AcDbSymbolTableRecord
100
AcDbBlockTableRecord
  2
Block_15
340
0
102
{BLKREFS
331
119
102
}
 70
     0
280
     1
281
     0
  0
BLOCK_RECORD
  5
121
330
1
100
AcDbSymbolTableRecord
100
AcDbBlockTableRecord
  2
Block_16
340
0
102
{BLKREFS
331
122
102
}
 70
     0
280
     1
281
     0
  0
BLOCK_RECORD
  5
132
330
1
100
AcDbSymbolTableRecord
100
AcDbBlockTableRecord
  2
Block_17
340
0
102
{BLKREFS
331
133
102
}
 70
     0
280
     1
281
     0
  0
BLOCK_RECORD
  5
139
330
1
100
AcDbSymbolTableRecord
100
AcDbBlockTableRecord
  2
Block_18
340
0
102
{BLKREFS
331
13A
102
}
 70
     0
280
     1
281
     0
  0
ENDTAB
  0
ENDSEC
  0
SECTION
  2
BLOCKS
  0
BLOCK
  5
71
330
70
100
AcDbEntity
  8
0
100
AcDbBlockBegin
  2
*Model_Space
 70
     0
 10
0.0
 20
0.0
 30
0.0
  3
*Model_Space
  1

  0
ENDBLK
  5
72
330
70
100
AcDbEntity
  8
0
100
AcDbBlockEnd
  0
BLOCK
  5
6D
330
6C
100
AcDbEntity
 67
     1
  8
0
100
AcDbBlockBegin
  2
*Paper_Space
 70
     0
 10
0.0
 20
0.0
 30
0.0
  3
*Paper_Space
  1

  0
ENDBLK
  5
6E
330
6C
100
AcDbEntity
 67
     1
  8
0
100
AcDbBlockEnd
  0
BLOCK
  5
75
330
74
100
AcDbEntity
 67
     1
  8
0
100
AcDbBlockBegin
  2
*Paper_Space0
 70
     0
 10
0.0
 20
0.0
 30
0.0
  3
*Paper_Space0
  1

  0
ENDBLK
  5
76
330
74
100
AcDbEntity
 67
     1
  8
0
100
AcDbBlockEnd
  0
BLOCK
  5
7B
330
79
100
AcDbEntity
  8
0
100
AcDbBlockBegin
  2
Block_0
 70
     0
 10
0.0
 20
0.0
 30
0.0
  3
Block_0
  1

  0
LWPOLYLINE
  5
7D
330
79
100
AcDbEntity
  8
Capa 1
 62
   250
420
  4078912
370
     9
100
AcDbPolyline
 90
        4
 70
     1
 43
0.0
 10
140.0301136047134
 20
-196.4193556852252
 10
99.78740311767436
 20
-196.4193556852252
 10
99.78740311767436
 20
-172.6655505714973
 10
140.0301136047134
 20
-172.6655505714973
  0
LWPOLYLINE
  5
7E
330
79
100
AcDbEntity
  8
Capa 1
 62
   250
420
  4078912
370
     9
100
AcDbPolyline
 90
        4
 70
     1
 43
0.0
 10
139.9899554472147
 20
-220.4898799789048
 10
99.74724496017568
 20
-220.4898799789048
 10
99.74724496017568
 20
-196.736074865175
 10
139.9899554472147
 20
-196.736074865175
  0
LWPOLYLINE
  5
7F
330
79
100
AcDbEntity
  8
Capa 1
 62
   250
420
  4078912
370
     9
100
AcDbPolyline
 90
        4
 70
     1
 43
0.0
 10
95.56580076907673
 20
-220.831848954329
 10
50.96733977408672
 20
-220.831848954329
 10
50.96733977408672
 20
-172.9775630238948
 10
95.56580076907673
 20
-172.9775630238948
  0
LWPOLYLINE
  5
80
330
79
100
AcDbEntity
  8
Capa 1
 62
   250
420
  4078912
370
     9
100
AcDbPolyline
 90
        4
 70
     1
 43
0.0
 10
160.6564655934541
 20
-196.4193556852252
 10
140.535110349936
 20
-196.4193556852252
 10
140.535110349936
 20
-172.6655505714973
 10
160.6564655934541
 20
-172.6655505714973
  0
LWPOLYLINE
  5
81
330
79
100
AcDbEntity
  8
Capa 1
 62
   250
420
  4078912
370
     9
100
AcDbPolyline
 90
        4
 70
     1
 43
0.0
 10
160.636386514706
 20
-220.4898799789048
 10
140.5150312711854
 20
-220.4898799789048
 10
140.5150312711854
 20
-196.736074865175
 10
160.636386514706
 20
-196.736074865175
  0
LINE
  5
82
330
79
100
AcDbEntity
  8
Capa 1
 62
   250
420
  4078912
370
     9
100
AcDbLine
 10
162.1532219741962
 20
-220.68223509553
 30
0.0
 11
162.1532219741962
 21
-172.8065785361808
 31
0.0
  0
LINE
  5
83
330
79
100
AcDbEntity
  8
Capa 1
 62
   250
420
  4078912
370
     9
100
AcDbLine
 10
99.72960116946383
 20
-171.0967336590617
 30
0.0
 11
160.5526163125346
 21
-171.0967336590617
 31
0.0
  0
LINE
  5
84
330
79
100
AcDbEntity
  8
Capa 1
 62
   250
420
  4078912
370
     9
100
AcDbLine
 10
51.07118905500779
 20
-171.0967336590617
 30
0.0
 11
94.92778418448535
 21
-171.0967336590617
 31
0.0
  0
ENDBLK
  5
7C
330
79
100
AcDbEntity
  8
0
100
AcDbBlockEnd
  0
BLOCK
  5
8E
330
8C
100
AcDbEntity
  8
0
100
AcDbBlockBegin
  2
Block_1
 70
     0
 10
0.0
 20
0.0
 30
0.0
  3
Block_1
  1

  0
INSERT
  5
91
330
8C
100
AcDbEntity
  8
Capa 2
100
AcDbBlockReference
  2
Block_2
 10
0.0
 20
0.0
 30
0.0
  0
ENDBLK
  5
8F
330
8C
100
AcDbEntity
  8
0
100
AcDbBlockEnd
  0
BLOCK
  5
92
330
90
100
AcDbEntity
  8
0
100
AcDbBlockBegin
  2
Block_2
 70
     0
 10
0.0
 20
0.0
 30
0.0
  3
Block_2
  1

  0
INSERT
  5
95
330
90
100
AcDbEntity
  8
Capa 2
100
AcDbBlockReference
  2
Block_3
 10
0.0
 20
0.0
 30
0.0
  0
LWPOLYLINE
  5
159
330
90
100
AcDbEntity
  8
Capa 2
100
AcDbPolyline
 90
        4
 70
     1
 43
0.0
 10
92.4278671233594
 20
-158.9601676150024
 10
169.6861110686896
 20
-158.9601676150024
 10
169.6861110686896
 20
-37.35370780083135
 10
92.4278671233594
 20
-37.35370780083135
  0
ENDBLK
  5
93
330
90
100
AcDbEntity
  8
0
100
AcDbBlockEnd
  0
BLOCK
  5
96
330
94
100
AcDbEntity
  8
0
100
AcDbBlockBegin
  2
Block_3
 70
     0
 10
0.0
 20
0.0
 30
0.0
  3
Block_3
  1

  0
INSERT
  5
99
330
94
100
AcDbEntity
  8
Capa 2
100
AcDbBlockReference
  2
Block_4
 10
0.0
 20
0.0
 30
0.0
  0
INSERT
  5
E7
330
94
100
AcDbEntity
  8
Capa 2
100
AcDbBlockReference
  2
Block_10
 10
0.0
 20
0.0
 30
0.0
  0
LWPOLYLINE
  5
158
330
94
100
AcDbEntity
  8
Capa 2
100
AcDbPolyline
 90
        4
 70
     1
 43
0.0
 10
92.4278671233594
 20
-158.9601676150024
 10
169.685854331593
 20
-158.9601676150024
 10
169.685854331593
 20
-37.35370780083135
 10
92.4278671233594
 20
-37.35370780083135
  0
ENDBLK
  5
97
330
94
100
AcDbEntity
  8
0
100
AcDbBlockEnd
  0
BLOCK
  5
9A
330
98
100
AcDbEntity
  8
0
100
AcDbBlockBegin
  2
Block_4
 70
     0
 10
0.0
 20
0.0
 30
0.0
  3
Block_4
  1

  0
INSERT
  5
9D
330
98
100
AcDbEntity
  8
Capa 2
100
AcDbBlockReference
  2
Block_5
 10
0.0
 20
0.0
 30
0.0
  0
ENDBLK
  5
9B
330
98
100
AcDbEntity
  8
0
100
AcDbBlockEnd
  0
BLOCK
  5
9E
330
9C
100
AcDbEntity
  8
0
100
AcDbBlockBegin
  2
Block_5
 70
     0
 10
0.0
 20
0.0
 30
0.0
  3
Block_5
  1

  0
INSERT
  5
A1
330
9C
100
AcDbEntity
  8
Capa 2
100
AcDbBlockReference
  2
Block_6
 10
0.0
 20
0.0
 30
0.0
  0
INSERT
  5
C2
330
9C
100
AcDbEntity
  8
Capa 2
100
AcDbBlockReference
  2
Block_7
 10
0.0
 20
0.0
 30
0.0
  0
LWPOLYLINE
  5
C7
330
9C
100
AcDbEntity
  8
Capa 2
 62
   250
420
  1777181
370
    30
100
AcDbPolyline
 90
        4
 70
     1
 43
0.0
 10
100.1075160903551
 20
-57.34687077866999
 10
159.5965540741714
 20
-57.34687077866999
 10
159.5965540741714
 20
-109.4002299520153
 10
100.1075160903551
 20
-109.4002299520153
  0
INSERT
  5
C9
330
9C
100
AcDbEntity
  8
Capa 2
100
AcDbBlockReference
  2
Block_8
 10
0.0
 20
0.0
 30
0.0
  0
INSERT
  5
D4
330
9C
100
AcDbEntity
  8
Capa 2
100
AcDbBlockReference
  2
Block_9
 10
0.0
 20
0.0
 30
0.0
  0
LWPOLYLINE
  5
DB
330
9C
100
AcDbEntity
  8
Capa 2
100
AcDbPolyline
 90
        4
 70
     1
 43
0.0
 10
98.62446680345412
 20
-112.2873715533666
 10
169.685854331593
 20
-112.2873715533666
 10
169.685854331593
 20
-39.67322660515588
 10
98.62446680345412
 20
-39.67322660515588
  0
LWPOLYLINE
  5
DC
330
9C
100
AcDbEntity
  8
Capa 2
100
AcDbPolyline
 90
        4
 70
     1
 43
0.0
 10
98.62446680345412
 20
-112.2873715533666
 10
169.685854331593
 20
-112.2873715533666
 10
169.685854331593
 20
-39.67322660515588
 10
98.62446680345412
 20
-39.67322660515588
  0
LWPOLYLINE
  5
DD
330
9C
100
AcDbEntity
  8
Capa 2
100
AcDbPolyline
 90
        4
 70
     1
 43
0.0
 10
98.62446680345412
 20
-112.2873715533666
 10
169.685854331593
 20
-112.2873715533666
 10
169.685854331593
 20
-39.67322660515588
 10
98.62446680345412
 20
-39.67322660515588
  0
LWPOLYLINE
  5
DE
330
9C
100
AcDbEntity
  8
Capa 2
100
AcDbPolyline
 90
        4
 70
     1
 43
0.0
 10
98.62446680345412
 20
-112.2873715533666
 10
169.685854331593
 20
-112.2873715533666
 10
169.685854331593
 20
-39.67322660515588
 10
98.62446680345412
 20
-39.67322660515588
  0
LWPOLYLINE
  5
DF
330
9C
100
AcDbEntity
  8
Capa 2
100
AcDbPolyline
 90
        4
 70
     1
 43
0.0
 10
98.62446680345412
 20
-112.2873715533666
 10
169.685854331593
 20
-112.2873715533666
 10
169.685854331593
 20
-39.67322660515588
 10
98.62446680345412
 20
-39.67322660515588
  0
LWPOLYLINE
  5
E0
330
9C
100
AcDbEntity
  8
Capa 2
100
AcDbPolyline
 90
        4
 70
     1
 43
0.0
 10
98.62446680345412
 20
-112.2873715533666
 10
169.685854331593
 20
-112.2873715533666
 10
169.685854331593
 20
-39.67322660515588
 10
98.62446680345412
 20
-39.67322660515588
  0
LWPOLYLINE
  5
E1
330
9C
100
AcDbEntity
  8
Capa 2
100
AcDbPolyline
 90
        4
 70
     1
 43
0.0
 10
98.62446680345412
 20
-112.2873715533666
 10
169.685854331593
 20
-112.2873715533666
 10
169.685854331593
 20
-39.67322660515588
 10
98.62446680345412
 20
-39.67322660515588
  0
LWPOLYLINE
  5
E2
330
9C
100
AcDbEntity
  8
Capa 2
100
AcDbPolyline
 90
        4
 70
     1
 43
0.0
 10
98.62446680345412
 20
-112.2873715533666
 10
169.685854331593
 20
-112.2873715533666
 10
169.685854331593
 20
-39.67322660515588
 10
98.62446680345412
 20
-39.67322660515588
  0
LWPOLYLINE
  5
E3
330
9C
100
AcDbEntity
  8
Capa 2
100
AcDbPolyline
 90
        4
 70
     1
 43
0.0
 10
98.62446680345412
 20
-112.2873715533666
 10
169.685854331593
 20
-112.2873715533666
 10
169.685854331593
 20
-39.67322660515588
 10
98.62446680345412
 20
-39.67322660515588
  0
LWPOLYLINE
  5
E4
330
9C
100
AcDbEntity
  8
Capa 2
100
AcDbPolyline
 90
        4
 70
     1
 43
0.0
 10
98.62446680345412
 20
-112.2873715533666
 10
169.685854331593
 20
-112.2873715533666
 10
169.685854331593
 20
-39.67322660515588
 10
98.62446680345412
 20
-39.67322660515588
  0
LWPOLYLINE
  5
E5
330
9C
100
AcDbEntity
  8
Capa 2
100
AcDbPolyline
 90
        4
 70
     1
 43
0.0
 10
81.61145990158964
 20
-113.4896759600631
 10
180.5025091212769
 20
-113.4896759600631
 10
180.5025091212769
 20
-28.94094662834369
 10
81.61145990158964
 20
-28.94094662834369
  0
ENDBLK
  5
9F
330
9C
100
AcDbEntity
  8
0
100
AcDbBlockEnd
  0
BLOCK
  5
A2
330
A0
100
AcDbEntity
  8
0
100
AcDbBlockBegin
  2
Block_6
 70
     0
 10
0.0
 20
0.0
 30
0.0
  3
Block_6
  1

  0
SPLINE
  5
A4
330
A0
100
AcDbEntity
  8
Capa 2
 62
   178
420
      519
370
    30
100
AcDbSpline
210
0.0
220
0.0
230
1.0
 70
     8
 71
     3
 72
    14
 73
    10
 74
     0
 42
0.0000000001
 43
0.0000000001
 40
0.0
 40
0.0
 40
0.0
 40
0.0
 40
1.0
 40
1.0
 40
1.0
 40
2.0
 40
2.0
 40
2.0
 40
3.0
 40
3.0
 40
3.0
 40
3.0
 10
130.1897472306961
 20
-126.9293013404546
 30
0.0
 10
130.6596586396142
 20
-126.9293013404546
 30
0.0
 10
131.0935145325682
 20
-126.6781207684254
 30
0.0
 10
131.3290754030402
 20
-126.2707042118029
 30
0.0
 10
131.5634305260782
 20
-125.8644865257283
 30
0.0
 10
131.5634305260782
 20
-125.3621253816699
 30
0.0
 10
131.3290754030402
 20
-124.9547065327515
 30
0.0
 10
131.0935145325682
 20
-124.5484911389725
 30
0.0
 10
130.6596586396142
 20
-124.298511729787
 30
0.0
 10
130.1897472306961
 20
-124.298511729787
 30
0.0
  0
SPLINE
  5
A5
330
A0
100
AcDbEntity
  8
Capa 2
 62
   178
420
      519
370
    30
100
AcDbSpline
210
0.0
220
0.0
230
1.0
 70
     8
 71
     3
 72
    17
 73
    13
 74
     0
 42
0.0000000001
 43
0.0000000001
 40
0.0
 40
0.0
 40
0.0
 40
0.0
 40
1.0
 40
1.0
 40
1.0
 40
2.0
 40
2.0
 40
2.0
 40
3.0
 40
3.0
 40
3.0
 40
4.0
 40
4.0
 40
4.0
 40
4.0
 10
130.1897472306961
 20
-124.2977896567035
 30
0.0
 10
129.8412174532477
 20
-124.2977896567035
 30
0.0
 10
129.5071107991044
 20
-124.4360013217573
 30
0.0
 10
129.2595360079014
 20
-124.6835761129603
 30
0.0
 10
129.0119589244026
 20
-124.9299497413201
 30
0.0
 10
128.8737495516444
 20
-125.2652575583066
 30
0.0
 10
128.8737495516444
 20
-125.6137873357546
 30
0.0
 10
128.8737495516444
 20
-125.9623148209067
 30
0.0
 10
129.0119589244026
 20
-126.2976249301894
 30
0.0
 10
129.2595360079014
 20
-126.5439985585489
 30
0.0
 10
129.5071107991044
 20
-126.7903721869088
 30
0.0
 10
129.8412174532477
 20
-126.9285815596666
 30
0.0
 10
130.1897472306961
 20
-126.9285815596666
 30
0.0
  0
SPLINE
  5
A6
330
A0
100
AcDbEntity
  8
Capa 2
 62
   178
420
      519
370
    30
100
AcDbSpline
210
0.0
220
0.0
230
1.0
 70
     8
 71
     3
 72
    89
 73
    85
 74
     0
 42
0.0000000001
 43
0.0000000001
 40
0.0
 40
0.0
 40
0.0
 40
0.0
 40
1.0
 40
1.0
 40
1.0
 40
2.0
 40
2.0
 40
2.0
 40
3.0
 40
3.0
 40
3.0
 40
4.0
 40
4.0
 40
4.0
 40
5.0
 40
5.0
 40
5.0
 40
6.0
 40
6.0
 40
6.0
 40
7.0
 40
7.0
 40
7.0
 40
8.0
 40
8.0
 40
8.0
 40
9.0
 40
9.0
 40
9.0
 40
10.0
 40
10.0
 40
10.0
 40
11.0
 40
11.0
 40
11.0
 40
12.0
 40
12.0
 40
12.0
 40
13.0
 40
13.0
 40
13.0
 40
14.0
 40
14.0
 40
14.0
 40
15.0
 40
15.0
 40
15.0
 40
16.0
 40
16.0
 40
16.0
 40
17.0
 40
17.0
 40
17.0
 40
18.0
 40
18.0
 40
18.0
 40
19.0
 40
19.0
 40
19.0
 40
20.0
 40
20.0
 40
20.0
 40
21.0
 40
21.0
 40
21.0
 40
22.0
 40
22.0
 40
22.0
 40
23.0
 40
23.0
 40
23.0
 40
24.0
 40
24.0
 40
24.0
 40
25.0
 40
25.0
 40
25.0
 40
26.0
 40
26.0
 40
26.0
 40
27.0
 40
27.0
 40
27.0
 40
28.0
 40
28.0
 40
28.0
 40
28.0
 10
130.1897472306961
 20
-129.984454448398
 30
0.0
 10
128.9987392562369
 20
-129.984454448398
 30
0.0
 10
127.8065301189356
 20
-129.989263684363
 30
0.0
 10
126.6155244367723
 20
-129.9976764088589
 30
0.0
 10
125.4245187546104
 20
-130.0060891333549
 30
0.0
 10
124.2323096173077
 20
-130.0169041835374
 30
0.0
 10
123.0413039351458
 20
-130.0265203631727
 30
0.0
 10
121.8502959606879
 20
-130.0373354133552
 30
0.0
 10
120.6592902785246
 20
-130.0469493006943
 30
0.0
 10
119.4670811412233
 20
-130.0577666431727
 30
0.0
 10
118.8721800277113
 20
-130.0625735868421
 30
0.0
 10
118.27607545906
 20
-130.0673805305121
 30
0.0
 10
117.6799708904087
 20
-130.0721897664774
 30
0.0
 10
117.5321476303118
 20
-130.0733909293205
 30
0.0
 10
117.3831209150755
 20
-130.0745920921643
 30
0.0
 10
117.2340941998385
 20
-130.0757932550078
 30
0.0
 10
117.0850674846021
 20
-130.0769967101468
 30
0.0
 10
116.9360430616604
 20
-130.0769967101468
 30
0.0
 10
116.7870163464241
 20
-130.0818036538168
 30
0.0
 10
116.6391930863265
 20
-130.0866105974862
 30
0.0
 10
116.4889652082468
 20
-130.0962244848256
 30
0.0
 10
116.3411396558532
 20
-130.1094441529912
 30
0.0
 10
116.1921129406163
 20
-130.1226661134518
 30
0.0
 10
116.0430885176759
 20
-130.1418938881303
 30
0.0
 10
115.8964664204211
 20
-130.1647297359306
 30
0.0
 10
115.602018770774
 20
-130.2091956840966
 30
0.0
 10
115.3123803570926
 20
-130.2728939915319
 30
0.0
 10
115.0299512127678
 20
-130.3510108376811
 30
0.0
 10
114.7475220684423
 20
-130.4291299761252
 30
0.0
 10
114.468698704943
 20
-130.5240745635611
 30
0.0
 10
114.1958857402522
 20
-130.6358445999884
 30
0.0
 10
113.9218693204233
 20
-130.7464111812769
 30
0.0
 10
113.6550644622456
 20
-130.8726020487136
 30
0.0
 10
113.3918653848949
 20
-131.0156206574371
 30
0.0
 10
113.3257670440679
 20
-131.0504727182633
 30
0.0
 10
113.2608675737885
 20
-131.0877293970727
 30
0.0
 10
113.1971715586485
 20
-131.1249860758818
 30
0.0
 10
113.1322720883704
 20
-131.1622427546912
 30
0.0
 10
113.0685760732303
 20
-131.1994994335
 30
0.0
 10
113.0048800580903
 20
-131.2391584379959
 30
0.0
 10
112.8786868983583
 20
-131.3172775764404
 30
0.0
 10
112.7549006489045
 20
-131.3977990405723
 30
0.0
 10
112.6335167251375
 20
-131.4819262855295
 30
0.0
 10
112.3895454224649
 20
-131.6489796126015
 30
0.0
 10
112.156391462271
 20
-131.8292549001341
 30
0.0
 10
111.9316502265724
 20
-132.020342945554
 30
0.0
 10
111.7069112831698
 20
-132.2114332832691
 30
0.0
 10
111.4917850809576
 20
-132.4145421263067
 30
0.0
 10
111.2838692942509
 20
-132.6272648566831
 30
0.0
 10
111.2333929472765
 20
-132.6801435293444
 30
0.0
 10
111.181714291311
 20
-132.7342256571453
 30
0.0
 10
111.131237944336
 20
-132.789511240085
 30
0.0
 10
111.0807615973616
 20
-132.8447945307295
 30
0.0
 10
111.0302841042389
 20
-132.9000778213735
 30
0.0
 10
110.9810100662556
 20
-132.9553611120176
 30
0.0
 10
110.8824596979943
 20
-133.0671311484452
 30
0.0
 10
110.7875174028539
 20
-133.1801023477162
 30
0.0
 10
110.693773978261
 20
-133.2954781649694
 30
0.0
 10
110.508694039354
 20
-133.5250263443377
 30
0.0
 10
110.3344291506311
 20
-133.7629872482016
 30
0.0
 10
110.1721827672285
 20
-134.0057550957348
 30
0.0
 10
109.8440842195983
 20
-134.491290790802
 30
0.0
 10
109.559252749586
 20
-135.0032681144951
 30
0.0
 10
109.3140802840705
 20
-135.5368778308495
 30
0.0
 10
109.1914951974601
 20
-135.8048838518707
 30
0.0
 10
109.077322835345
 20
-136.0776991088567
 30
0.0
 10
108.9751666862568
 20
-136.3565201800604
 30
0.0
 10
108.9487273499262
 20
-136.4262265940088
 30
0.0
 10
108.923489176439
 20
-136.4959330079576
 30
0.0
 10
108.8994521657952
 20
-136.5668405847502
 30
0.0
 10
108.874213992308
 20
-136.636544706403
 30
0.0
 10
108.851380436803
 20
-136.707452283195
 30
0.0
 10
108.8273434261599
 20
-136.7771586971437
 30
0.0
 10
108.7804728600111
 20
-136.9189738507279
 30
0.0
 10
108.7372057823926
 20
-137.0595878414686
 30
0.0
 10
108.6963433227583
 20
-137.201402995053
 30
0.0
 10
108.5328957765122
 20
-137.7686636093912
 30
0.0
 10
108.4127130155893
 20
-138.343133493085
 30
0.0
 10
108.3309903886146
 20
-138.9248172307272
 30
0.0
 10
108.2901279289789
 20
-139.2144556444099
 30
0.0
 10
108.260082811822
 20
-139.5064986760745
 30
0.0
 10
108.2408527448473
 20
-139.8009451795739
 30
0.0
 10
108.2192203521864
 20
-140.095391683073
 30
0.0
 10
108.2096064648476
 20
-140.3910404955638
 30
0.0
 10
108.2096064648476
 20
-140.687890470898
 30
0.0
  0
SPLINE
  5
A7
330
A0
100
AcDbEntity
  8
Capa 2
 62
   178
420
      519
370
    30
100
AcDbSpline
210
0.0
220
0.0
230
1.0
 70
     8
 71
     3
 72
    89
 73
    85
 74
     0
 42
0.0000000001
 43
0.0000000001
 40
0.0
 40
0.0
 40
0.0
 40
0.0
 40
1.0
 40
1.0
 40
1.0
 40
2.0
 40
2.0
 40
2.0
 40
3.0
 40
3.0
 40
3.0
 40
4.0
 40
4.0
 40
4.0
 40
5.0
 40
5.0
 40
5.0
 40
6.0
 40
6.0
 40
6.0
 40
7.0
 40
7.0
 40
7.0
 40
8.0
 40
8.0
 40
8.0
 40
9.0
 40
9.0
 40
9.0
 40
10.0
 40
10.0
 40
10.0
 40
11.0
 40
11.0
 40
11.0
 40
12.0
 40
12.0
 40
12.0
 40
13.0
 40
13.0
 40
13.0
 40
14.0
 40
14.0
 40
14.0
 40
15.0
 40
15.0
 40
15.0
 40
16.0
 40
16.0
 40
16.0
 40
17.0
 40
17.0
 40
17.0
 40
18.0
 40
18.0
 40
18.0
 40
19.0
 40
19.0
 40
19.0
 40
20.0
 40
20.0
 40
20.0
 40
21.0
 40
21.0
 40
21.0
 40
22.0
 40
22.0
 40
22.0
 40
23.0
 40
23.0
 40
23.0
 40
24.0
 40
24.0
 40
24.0
 40
25.0
 40
25.0
 40
25.0
 40
26.0
 40
26.0
 40
26.0
 40
27.0
 40
27.0
 40
27.0
 40
28.0
 40
28.0
 40
28.0
 40
28.0
 10
108.208885537912
 20
-140.6883718529535
 30
0.0
 10
108.208885537912
 20
-140.9864241372789
 30
0.0
 10
108.2197017342425
 20
-141.2808706407783
 30
0.0
 10
108.2401318179124
 20
-141.5765194532688
 30
0.0
 10
108.2605630477299
 20
-141.8697647939244
 30
0.0
 10
108.2918104738779
 20
-142.1618078255892
 30
0.0
 10
108.3314706245218
 20
-142.4526485482628
 30
0.0
 10
108.4119932348007
 20
-143.0331288307653
 30
0.0
 10
108.5321748495766
 20
-143.6088021695988
 30
0.0
 10
108.6968247048137
 20
-144.1748604749446
 30
0.0
 10
108.7364848554577
 20
-144.316675628529
 30
0.0
 10
108.7809530959189
 20
-144.4584907821135
 30
0.0
 10
108.8266224992236
 20
-144.6003059356979
 30
0.0
 10
108.8506583637198
 20
-144.6700123496467
 30
0.0
 10
108.8746953743635
 20
-144.7397176174479
 30
0.0
 10
108.898731238859
 20
-144.8094228852487
 30
0.0
 10
108.9227682495034
 20
-144.8803304620406
 30
0.0
 10
108.9480064229906
 20
-144.9500368759894
 30
0.0
 10
108.9744457593212
 20
-145.0197421437902
 30
0.0
 10
109.0778030712529
 20
-145.2985655072898
 30
0.0
 10
109.1907742705239
 20
-145.5713796181273
 30
0.0
 10
109.3133605032819
 20
-145.8393856391481
 30
0.0
 10
109.5597341316414
 20
-146.3729953555025
 30
0.0
 10
109.8445656016538
 20
-146.8849715330483
 30
0.0
 10
110.1714618402929
 20
-147.3705083742631
 30
0.0
 10
110.334910532686
 20
-147.6132762217964
 30
0.0
 10
110.5091742752619
 20
-147.8512371256603
 30
0.0
 10
110.6942553603172
 20
-148.0807853050282
 30
0.0
 10
110.78679532977
 20
-148.1961611222817
 30
0.0
 10
110.8829410800498
 20
-148.309132321553
 30
0.0
 10
110.9814903021634
 20
-148.4209012118323
 30
0.0
 10
111.0295631773039
 20
-148.4773868114681
 30
0.0
 10
111.080040670426
 20
-148.5326712482602
 30
0.0
 10
111.1305170173997
 20
-148.5879545389043
 30
0.0
 10
111.1809933643748
 20
-148.6420366667053
 30
0.0
 10
111.2326720203409
 20
-148.6961187945056
 30
0.0
 10
111.284350676307
 20
-148.7489986133148
 30
0.0
 10
111.4910641540226
 20
-148.962923652683
 30
0.0
 10
111.7061892100859
 20
-149.1648301867282
 30
0.0
 10
111.9309304457838
 20
-149.355919378296
 30
0.0
 10
112.1556716814824
 20
-149.5482114519294
 30
0.0
 10
112.3900268045204
 20
-149.7272827112494
 30
0.0
 10
112.6327946520543
 20
-149.8955377742377
 30
0.0
 10
112.7553820309593
 20
-149.9796655922691
 30
0.0
 10
112.8791682804138
 20
-150.0601876294748
 30
0.0
 10
113.0053591478498
 20
-150.1383061948454
 30
0.0
 10
113.0678562924417
 20
-150.1767646095721
 30
0.0
 10
113.1315523075818
 20
-150.2152230242988
 30
0.0
 10
113.1964494855652
 20
-150.2512773941164
 30
0.0
 10
113.2613489558446
 20
-150.2897358088424
 30
0.0
 10
113.3262461338282
 20
-150.3257907517346
 30
0.0
 10
113.3923467669504
 20
-150.3606439587088
 30
0.0
 10
113.6543446814583
 20
-150.5036602751367
 30
0.0
 10
113.9223507024788
 20
-150.6310534515645
 30
0.0
 10
114.1951659594649
 20
-150.7404200161569
 30
0.0
 10
114.4679789241557
 20
-150.8521889064368
 30
0.0
 10
114.7468022876543
 20
-150.9471334938731
 30
0.0
 10
115.0292314319791
 20
-151.0264537951603
 30
0.0
 10
115.3128594468528
 20
-151.1045717874577
 30
0.0
 10
115.6025001528302
 20
-151.1670666397537
 30
0.0
 10
115.8957443473378
 20
-151.2115337340673
 30
0.0
 10
116.0435698997313
 20
-151.2355707447117
 30
0.0
 10
116.1925943226724
 20
-151.2535985026941
 30
0.0
 10
116.3404198750653
 20
-151.2668181708597
 30
0.0
 10
116.4894442980063
 20
-151.2812401480158
 30
0.0
 10
116.6384710132426
 20
-151.2908540353552
 30
0.0
 10
116.7874977284803
 20
-151.2956621251731
 30
0.0
 10
116.9353209885772
 20
-151.2992679059988
 30
0.0
 10
117.0855488666576
 20
-151.3004690688422
 30
0.0
 10
117.234575581894
 20
-151.3016713778339
 30
0.0
 10
117.3823988419909
 20
-151.3016713778339
 30
0.0
 10
117.5314255572285
 20
-151.3028725406767
 30
0.0
 10
117.6804522724649
 20
-151.3040748496685
 30
0.0
 10
118.2765568411155
 20
-151.3088817933381
 30
0.0
 10
118.8714579546275
 20
-151.3136887370079
 30
0.0
 10
119.4675625232781
 20
-151.3196979896686
 30
0.0
 10
120.6585704977367
 20
-151.3293130231557
 30
0.0
 10
121.8495761798993
 20
-151.3401292194868
 30
0.0
 10
123.0417853172012
 20
-151.3509454158166
 30
0.0
 10
124.2327909993639
 20
-151.3617616121477
 30
0.0
 10
125.4237989738218
 20
-151.3713766456348
 30
0.0
 10
126.614804655985
 20
-151.3785882072873
 30
0.0
 10
127.8070115009917
 20
-151.3870009317826
 30
0.0
 10
128.9980194754496
 20
-151.3918078754529
 30
0.0
 10
130.1890251576122
 20
-151.3918078754529
 30
0.0
  0
SPLINE
  5
A8
330
A0
100
AcDbEntity
  8
Capa 2
 62
   178
420
      519
370
    30
100
AcDbSpline
210
0.0
220
0.0
230
1.0
 70
     8
 71
     3
 72
    89
 73
    85
 74
     0
 42
0.0000000001
 43
0.0000000001
 40
0.0
 40
0.0
 40
0.0
 40
0.0
 40
1.0
 40
1.0
 40
1.0
 40
2.0
 40
2.0
 40
2.0
 40
3.0
 40
3.0
 40
3.0
 40
4.0
 40
4.0
 40
4.0
 40
5.0
 40
5.0
 40
5.0
 40
6.0
 40
6.0
 40
6.0
 40
7.0
 40
7.0
 40
7.0
 40
8.0
 40
8.0
 40
8.0
 40
9.0
 40
9.0
 40
9.0
 40
10.0
 40
10.0
 40
10.0
 40
11.0
 40
11.0
 40
11.0
 40
12.0
 40
12.0
 40
12.0
 40
13.0
 40
13.0
 40
13.0
 40
14.0
 40
14.0
 40
14.0
 40
15.0
 40
15.0
 40
15.0
 40
16.0
 40
16.0
 40
16.0
 40
17.0
 40
17.0
 40
17.0
 40
18.0
 40
18.0
 40
18.0
 40
19.0
 40
19.0
 40
19.0
 40
20.0
 40
20.0
 40
20.0
 40
21.0
 40
21.0
 40
21.0
 40
22.0
 40
22.0
 40
22.0
 40
23.0
 40
23.0
 40
23.0
 40
24.0
 40
24.0
 40
24.0
 40
25.0
 40
25.0
 40
25.0
 40
26.0
 40
26.0
 40
26.0
 40
27.0
 40
27.0
 40
27.0
 40
28.0
 40
28.0
 40
28.0
 40
28.0
 10
130.1897472306961
 20
-151.3922881113601
 30
0.0
 10
131.380752912858
 20
-151.3922881113601
 30
0.0
 10
132.5729620501607
 20
-151.3874811676904
 30
0.0
 10
133.7639654400274
 20
-151.3790684431951
 30
0.0
 10
134.9549734144859
 20
-151.3706557186985
 30
0.0
 10
136.1471825517872
 20
-151.3598389492949
 30
0.0
 10
137.3381905262458
 20
-151.3502244888817
 30
0.0
 10
138.5291939161131
 20
-151.3394082925505
 30
0.0
 10
139.720201890571
 20
-151.329793832138
 30
0.0
 10
140.912411027873
 20
-151.318977062733
 30
0.0
 10
141.5073121413849
 20
-151.3141701190633
 30
0.0
 10
142.1034190023315
 20
-151.3093626023198
 30
0.0
 10
142.6995212786862
 20
-151.3045550855763
 30
0.0
 10
142.8473468310798
 20
-151.303353349659
 30
0.0
 10
142.9963735463167
 20
-151.3021516137418
 30
0.0
 10
143.1453956769625
 20
-151.3009498778245
 30
0.0
 10
143.2944223921988
 20
-151.2997481419073
 30
0.0
 10
143.4434491074352
 20
-151.2997481419073
 30
0.0
 10
143.5924758226721
 20
-151.2949406251637
 30
0.0
 10
143.740301375065
 20
-151.2901336814934
 30
0.0
 10
143.8905292531448
 20
-151.2805186480064
 30
0.0
 10
144.0383502209471
 20
-151.2672989798407
 30
0.0
 10
144.1873769361834
 20
-151.2540787386019
 30
0.0
 10
144.3364036514204
 20
-151.2348498177755
 30
0.0
 10
144.4830280409698
 20
-151.2120151161228
 30
0.0
 10
144.777473398321
 20
-151.167547448736
 30
0.0
 10
145.0671141042989
 20
-151.1038508605215
 30
0.0
 10
145.3495432486238
 20
-151.0257322951509
 30
0.0
 10
145.6319678083581
 20
-150.9476137297803
 30
0.0
 10
145.9107934641532
 20
-150.8526697154185
 30
0.0
 10
146.1836041365475
 20
-150.7409002520654
 30
0.0
 10
146.457620556377
 20
-150.6303325246289
 30
0.0
 10
146.7244254145541
 20
-150.5041410841184
 30
0.0
 10
146.9876267842007
 20
-150.3611241946167
 30
0.0
 10
147.0537274173236
 20
-150.3262715607163
 30
0.0
 10
147.1186268876024
 20
-150.2890148819075
 30
0.0
 10
147.1823206104465
 20
-150.2517582030987
 30
0.0
 10
147.2472200807259
 20
-150.2145015242887
 30
0.0
 10
147.3109183881613
 20
-150.1772454185538
 30
0.0
 10
147.374612111006
 20
-150.1375852679098
 30
0.0
 10
147.500802978442
 20
-150.0594667025392
 30
0.0
 10
147.6245915201918
 20
-149.9789446653341
 30
0.0
 10
147.7459777362534
 20
-149.8948168473027
 30
0.0
 10
147.9899467466307
 20
-149.7277635202304
 30
0.0
 10
148.2231007068252
 20
-149.5474899519193
 30
0.0
 10
148.4478419425238
 20
-149.3564001872783
 30
0.0
 10
148.6725831782224
 20
-149.1653104226367
 30
0.0
 10
148.8877059419904
 20
-148.9622027257467
 30
0.0
 10
149.0956217286971
 20
-148.7494799953707
 30
0.0
 10
149.1460980756715
 20
-148.6965990304135
 30
0.0
 10
149.1977801700812
 20
-148.6425169026128
 30
0.0
 10
149.2482565170549
 20
-148.5872336119687
 30
0.0
 10
149.2987328640293
 20
-148.5319491751766
 30
0.0
 10
149.3492092110044
 20
-148.4766658845322
 30
0.0
 10
149.3984843951353
 20
-148.4213825938881
 30
0.0
 10
149.4970347633973
 20
-148.3096125574606
 30
0.0
 10
149.5919770585383
 20
-148.1966413581895
 30
0.0
 10
149.6857181908352
 20
-148.081265540937
 30
0.0
 10
149.8707981297416
 20
-147.8517173615681
 30
0.0
 10
150.0450630184651
 20
-147.6137564577046
 30
0.0
 10
150.207311694163
 20
-147.3709886101709
 30
0.0
 10
150.5354079494973
 20
-146.8854517689561
 30
0.0
 10
150.8202394195097
 20
-146.3734755914103
 30
0.0
 10
151.0654141773217
 20
-145.8398658750563
 30
0.0
 10
151.1879969716362
 20
-145.5718598540351
 30
0.0
 10
151.3021716260459
 20
-145.299045743197
 30
0.0
 10
151.4043254828388
 20
-145.0202223796981
 30
0.0
 10
151.4307648191694
 20
-144.9505171118976
 30
0.0
 10
151.4560029926573
 20
-144.8808106979485
 30
0.0
 10
151.480040003301
 20
-144.8099031211563
 30
0.0
 10
151.5052781767876
 20
-144.7401978533554
 30
0.0
 10
151.5281140245879
 20
-144.6692902765632
 30
0.0
 10
151.5521510352316
 20
-144.599585008762
 30
0.0
 10
151.5978181462411
 20
-144.4577698551779
 30
0.0
 10
151.6422886789983
 20
-144.3171558644369
 30
0.0
 10
151.6831511386333
 20
-144.175340710853
 30
0.0
 10
151.8465963925834
 20
-143.6080800965152
 30
0.0
 10
151.9667814458022
 20
-143.0336090666731
 30
0.0
 10
152.0485017804817
 20
-142.4531287841702
 30
0.0
 10
152.0881630772732
 20
-142.1622880614968
 30
0.0
 10
152.1194116495689
 20
-141.8702450298326
 30
0.0
 10
152.1386394242477
 20
-141.5757973801855
 30
0.0
 10
152.1602741092045
 20
-141.2813508766861
 30
0.0
 10
152.1698879965439
 20
-140.9857020641956
 30
0.0
 10
152.1698879965439
 20
-140.6888520888614
 30
0.0
  0
SPLINE
  5
A9
330
A0
100
AcDbEntity
  8
Capa 2
 62
   178
420
      519
370
    30
100
AcDbSpline
210
0.0
220
0.0
230
1.0
 70
     8
 71
     3
 72
    89
 73
    85
 74
     0
 42
0.0000000001
 43
0.0000000001
 40
0.0
 40
0.0
 40
0.0
 40
0.0
 40
1.0
 40
1.0
 40
1.0
 40
2.0
 40
2.0
 40
2.0
 40
3.0
 40
3.0
 40
3.0
 40
4.0
 40
4.0
 40
4.0
 40
5.0
 40
5.0
 40
5.0
 40
6.0
 40
6.0
 40
6.0
 40
7.0
 40
7.0
 40
7.0
 40
8.0
 40
8.0
 40
8.0
 40
9.0
 40
9.0
 40
9.0
 40
10.0
 40
10.0
 40
10.0
 40
11.0
 40
11.0
 40
11.0
 40
12.0
 40
12.0
 40
12.0
 40
13.0
 40
13.0
 40
13.0
 40
14.0
 40
14.0
 40
14.0
 40
15.0
 40
15.0
 40
15.0
 40
16.0
 40
16.0
 40
16.0
 40
17.0
 40
17.0
 40
17.0
 40
18.0
 40
18.0
 40
18.0
 40
19.0
 40
19.0
 40
19.0
 40
20.0
 40
20.0
 40
20.0
 40
21.0
 40
21.0
 40
21.0
 40
22.0
 40
22.0
 40
22.0
 40
23.0
 40
23.0
 40
23.0
 40
24.0
 40
24.0
 40
24.0
 40
25.0
 40
25.0
 40
25.0
 40
26.0
 40
26.0
 40
26.0
 40
27.0
 40
27.0
 40
27.0
 40
28.0
 40
28.0
 40
28.0
 40
28.0
 10
152.1704885779653
 20
-140.6883718529535
 30
0.0
 10
152.1704885779653
 20
-140.3903207147758
 30
0.0
 10
152.1596689431913
 20
-140.0958742112761
 30
0.0
 10
152.1392400056697
 20
-139.800225398786
 30
0.0
 10
152.1188064835569
 20
-139.5069800581306
 30
0.0
 10
152.0875624958518
 20
-139.2149370264654
 30
0.0
 10
152.0479011990603
 20
-138.9240974499396
 30
0.0
 10
151.9673774426331
 20
-138.3436171674358
 30
0.0
 10
151.8471969740048
 20
-137.767943828603
 30
0.0
 10
151.6825459726207
 20
-137.2018843771089
 30
0.0
 10
151.6428846758291
 20
-137.0600692235244
 30
0.0
 10
151.5984187276631
 20
-136.9182540699402
 30
0.0
 10
151.5527470320625
 20
-136.7764389163555
 30
0.0
 10
151.5287146060093
 20
-136.706732502407
 30
0.0
 10
151.5046775953662
 20
-136.6370283807541
 30
0.0
 10
151.4806405847224
 20
-136.567321966805
 30
0.0
 10
151.4566035740787
 20
-136.4964143900131
 30
0.0
 10
151.4313654005908
 20
-136.4267079760643
 30
0.0
 10
151.4049260642608
 20
-136.3570015621155
 30
0.0
 10
151.3015664600333
 20
-136.0781804909122
 30
0.0
 10
151.1885975530582
 20
-135.8053652339265
 30
0.0
 10
151.0660101741519
 20
-135.5373592129053
 30
0.0
 10
150.8196388380876
 20
-135.0037494965509
 30
0.0
 10
150.5348073680759
 20
-134.4917721728578
 30
0.0
 10
150.2079076909939
 20
-134.0062364777907
 30
0.0
 10
150.0444624370437
 20
-133.763468630257
 30
0.0
 10
149.8701975483196
 20
-133.5255077263935
 30
0.0
 10
149.6851176094132
 20
-133.2959595470252
 30
0.0
 10
149.5925776399597
 20
-133.180583729772
 30
0.0
 10
149.4964295973847
 20
-133.0676125305007
 30
0.0
 10
149.3978792291227
 20
-132.9558424940735
 30
0.0
 10
149.3498097924264
 20
-132.8993580405856
 30
0.0
 10
149.2993334454514
 20
-132.8440747499415
 30
0.0
 10
149.2488525138858
 20
-132.7887891670014
 30
0.0
 10
149.1983761669114
 20
-132.7347070392008
 30
0.0
 10
149.1466986570935
 20
-132.6806249114002
 30
0.0
 10
149.0950211472757
 20
-132.6277462387389
 30
0.0
 10
148.8883065234124
 20
-132.4138200532228
 30
0.0
 10
148.6731791750526
 20
-132.2119146653249
 30
0.0
 10
148.4484425239452
 20
-132.0208243276094
 30
0.0
 10
148.2237012882467
 20
-131.8297362821893
 30
0.0
 10
147.9893461652093
 20
-131.6494609946573
 30
0.0
 10
147.7465737330849
 20
-131.4812065047419
 30
0.0
 10
147.6239909387697
 20
-131.3970792597844
 30
0.0
 10
147.5002023970206
 20
-131.3165577956527
 30
0.0
 10
147.3740115295839
 20
-131.2384386572083
 30
0.0
 10
147.3115143849921
 20
-131.1999808155558
 30
0.0
 10
147.2478206621479
 20
-131.1615206816077
 30
0.0
 10
147.1829211918685
 20
-131.1254674579373
 30
0.0
 10
147.1180217215898
 20
-131.0870096162848
 30
0.0
 10
147.053122251311
 20
-131.0509541003195
 30
0.0
 10
146.9870216181881
 20
-131.016099747197
 30
0.0
 10
146.7250259959761
 20
-130.8730834307687
 30
0.0
 10
146.4570199749556
 20
-130.7456914004889
 30
0.0
 10
146.1842047179695
 20
-130.6363236897489
 30
0.0
 10
145.9113940455746
 20
-130.5245559456166
 30
0.0
 10
145.6325683897801
 20
-130.4296113581806
 30
0.0
 10
145.3501392454547
 20
-130.3502910568931
 30
0.0
 10
145.0665089382857
 20
-130.2721719184487
 30
0.0
 10
144.7768728168996
 20
-130.2096770661521
 30
0.0
 10
144.4836286223919
 20
-130.1652111179864
 30
0.0
 10
144.3358030699983
 20
-130.1411741073423
 30
0.0
 10
144.1867763547614
 20
-130.123145203212
 30
0.0
 10
144.0389508023685
 20
-130.1099255350464
 30
0.0
 10
143.8899240871322
 20
-130.0955047040377
 30
0.0
 10
143.7409019564864
 20
-130.0858908166986
 30
0.0
 10
143.5918752412501
 20
-130.0810815807326
 30
0.0
 10
143.4440496888572
 20
-130.077475799907
 30
0.0
 10
143.2938218107768
 20
-130.0762746370636
 30
0.0
 10
143.1447950955398
 20
-130.0750734742198
 30
0.0
 10
142.996969543147
 20
-130.0750734742198
 30
0.0
 10
142.8479474125012
 20
-130.0738723113764
 30
0.0
 10
142.6989206972648
 20
-130.0726688562373
 30
0.0
 10
142.1028138363189
 20
-130.0678619125679
 30
0.0
 10
141.507912722807
 20
-130.0630549688979
 30
0.0
 10
140.9118104464516
 20
-130.0570468623848
 30
0.0
 10
139.720802471993
 20
-130.0474306827501
 30
0.0
 10
138.5297944975345
 20
-130.036615632567
 30
0.0
 10
137.3375853602332
 20
-130.0257982900888
 30
0.0
 10
136.1465819703658
 20
-130.0161844027494
 30
0.0
 10
134.9555739959079
 20
-130.005367060271
 30
0.0
 10
133.7645660214494
 20
-129.9981554986188
 30
0.0
 10
132.5723614687386
 20
-129.9897427741232
 30
0.0
 10
131.3813534942801
 20
-129.9849358304538
 30
0.0
 10
130.1903478121175
 20
-129.9849358304538
 30
0.0
  0
SPLINE
  5
AA
330
A0
100
AcDbEntity
  8
Capa 2
 62
   178
420
      519
370
    30
100
AcDbSpline
210
0.0
220
0.0
230
1.0
 70
     8
 71
     3
 72
    29
 73
    25
 74
     0
 42
0.0000000001
 43
0.0000000001
 40
0.0
 40
0.0
 40
0.0
 40
0.0
 40
1.0
 40
1.0
 40
1.0
 40
2.0
 40
2.0
 40
2.0
 40
3.0
 40
3.0
 40
3.0
 40
4.0
 40
4.0
 40
4.0
 40
5.0
 40
5.0
 40
5.0
 40
6.0
 40
6.0
 40
6.0
 40
7.0
 40
7.0
 40
7.0
 40
8.0
 40
8.0
 40
8.0
 40
8.0
 10
100.356413536063
 20
-122.9442969001109
 30
0.0
 10
100.3215603290891
 20
-122.9442969001109
 30
0.0
 10
100.2843036502803
 20
-122.941894574424
 30
0.0
 10
100.248249280462
 20
-122.9358841756152
 30
0.0
 10
100.2109926016529
 20
-122.9298760691017
 30
0.0
 10
100.1737359228435
 20
-122.9214633446064
 30
0.0
 10
100.1364798171083
 20
-122.9094448392846
 30
0.0
 10
100.0992231382992
 20
-122.8974263339621
 30
0.0
 10
100.0631681954074
 20
-122.8830055029536
 30
0.0
 10
100.0283155615073
 20
-122.8661800539623
 30
0.0
 10
99.99466466352382
 20
-122.8481511498314
 30
0.0
 10
99.96341723737586
 20
-122.8277222123095
 30
0.0
 10
99.93337154714481
 20
-122.8048863645092
 30
0.0
 10
99.9033258569141
 20
-122.7820528090042
 30
0.0
 10
99.87808768342688
 20
-122.7568146355169
 30
0.0
 10
99.85525298177453
 20
-122.7303730068907
 30
0.0
 10
99.83362001603945
 20
-122.7027325077163
 30
0.0
 10
99.81318935929543
 20
-122.6750897162466
 30
0.0
 10
99.79876738213871
 20
-122.6462457619331
 30
0.0
 10
99.78434540498231
 20
-122.61740180762
 30
0.0
 10
99.77352920865182
 20
-122.5885578533066
 30
0.0
 10
99.76631822007314
 20
-122.5597138989931
 30
0.0
 10
99.75790549557752
 20
-122.5308699446796
 30
0.0
 10
99.755502023743
 20
-122.5020282826615
 30
0.0
 10
99.75429971475158
 20
-122.4743854911918
 30
0.0
  0
SPLINE
  5
AB
330
A0
100
AcDbEntity
  8
Capa 2
 62
   178
420
      519
370
    30
100
AcDbSpline
210
0.0
220
0.0
230
1.0
 70
     8
 71
     3
 72
    29
 73
    25
 74
     0
 42
0.0000000001
 43
0.0000000001
 40
0.0
 40
0.0
 40
0.0
 40
0.0
 40
1.0
 40
1.0
 40
1.0
 40
2.0
 40
2.0
 40
2.0
 40
3.0
 40
3.0
 40
3.0
 40
4.0
 40
4.0
 40
4.0
 40
5.0
 40
5.0
 40
5.0
 40
6.0
 40
6.0
 40
6.0
 40
7.0
 40
7.0
 40
7.0
 40
8.0
 40
8.0
 40
8.0
 40
8.0
 10
160.6243551934116
 20
-122.4746238899242
 30
0.0
 10
160.6243551934116
 20
-122.5022666813949
 30
0.0
 10
160.6207471202901
 20
-122.5311106357077
 30
0.0
 10
160.6135355586376
 20
-122.5599545900205
 30
0.0
 10
160.6063239969858
 20
-122.5875973814908
 30
0.0
 10
160.5955089468036
 20
-122.6176424986474
 30
0.0
 10
160.5798846606551
 20
-122.6464864529609
 30
0.0
 10
160.5654615373507
 20
-122.6753304072744
 30
0.0
 10
160.546233762672
 20
-122.7029709064488
 30
0.0
 10
160.5233979148717
 20
-122.7306136979184
 30
0.0
 10
160.5017678145066
 20
-122.7570530342497
 30
0.0
 10
160.4753284781753
 20
-122.7822912077369
 30
0.0
 10
160.4464822315659
 20
-122.8051270555369
 30
0.0
 10
160.416439406705
 20
-122.8279606110417
 30
0.0
 10
160.3839896715653
 20
-122.8483918408595
 30
0.0
 10
160.3503387735828
 20
-122.8664184526942
 30
0.0
 10
160.3166878755996
 20
-122.8832439016861
 30
0.0
 10
160.2794289044943
 20
-122.8976670249901
 30
0.0
 10
160.2421745179814
 20
-122.909685530312
 30
0.0
 10
160.2061167097202
 20
-122.9217040356342
 30
0.0
 10
160.1688623232061
 20
-122.9301167601301
 30
0.0
 10
160.1316033521014
 20
-122.936124866643
 30
0.0
 10
160.0955501284314
 20
-122.9421352654517
 30
0.0
 10
160.0582957419179
 20
-122.9433364282952
 30
0.0
 10
160.0222379336566
 20
-122.9445375911386
 30
0.0
  0
SPLINE
  5
AC
330
A0
100
AcDbEntity
  8
Capa 2
 62
   178
420
      519
370
    30
100
AcDbSpline
210
0.0
220
0.0
230
1.0
 70
     8
 71
     3
 72
    68
 73
    64
 74
     0
 42
0.0000000001
 43
0.0000000001
 40
0.0
 40
0.0
 40
0.0
 40
0.0
 40
1.0
 40
1.0
 40
1.0
 40
2.0
 40
2.0
 40
2.0
 40
3.0
 40
3.0
 40
3.0
 40
4.0
 40
4.0
 40
4.0
 40
5.0
 40
5.0
 40
5.0
 40
6.0
 40
6.0
 40
6.0
 40
7.0
 40
7.0
 40
7.0
 40
8.0
 40
8.0
 40
8.0
 40
9.0
 40
9.0
 40
9.0
 40
10.0
 40
10.0
 40
10.0
 40
11.0
 40
11.0
 40
11.0
 40
12.0
 40
12.0
 40
12.0
 40
13.0
 40
13.0
 40
13.0
 40
14.0
 40
14.0
 40
14.0
 40
15.0
 40
15.0
 40
15.0
 40
16.0
 40
16.0
 40
16.0
 40
17.0
 40
17.0
 40
17.0
 40
18.0
 40
18.0
 40
18.0
 40
19.0
 40
19.0
 40
19.0
 40
20.0
 40
20.0
 40
20.0
 40
21.0
 40
21.0
 40
21.0
 40
21.0
 10
99.73915738373341
 20
-122.0797049283836
 30
0.0
 10
99.73915738373341
 20
-122.0797049283836
 30
0.0
 10
99.73915738373341
 20
-122.0664852602186
 30
0.0
 10
99.73915738373341
 20
-122.0664852602186
 30
0.0
 10
99.74035911965035
 20
-122.062879479392
 30
0.0
 10
99.74035911965035
 20
-122.0568713728789
 30
0.0
 10
99.74156085556762
 20
-122.0532655920526
 30
0.0
 10
99.74156085556762
 20
-122.0484586483832
 30
0.0
 10
99.74156085556762
 20
-122.0448528675573
 30
0.0
 10
99.74276259148552
 20
-122.0400459238876
 30
0.0
 10
99.74276259148552
 20
-122.0364401430613
 30
0.0
 10
99.74396432740277
 20
-122.0316331993916
 30
0.0
 10
99.74516606332004
 20
-122.026826255722
 30
0.0
 10
99.74636779923763
 20
-122.023220474896
 30
0.0
 10
99.74636779923763
 20
-122.0196146940698
 30
0.0
 10
99.74877184414598
 20
-122.0148077504001
 30
0.0
 10
99.74997358006355
 20
-122.0112019695742
 30
0.0
 10
99.75117531598115
 20
-122.0075961887479
 30
0.0
 10
99.75237705189872
 20
-122.0027892450785
 30
0.0
 10
99.75357878781599
 20
-121.9991834642516
 30
0.0
 10
99.75598283272432
 20
-121.9955776834263
 30
0.0
 10
99.75718456864225
 20
-121.9919719026001
 30
0.0
 10
99.75838630455951
 20
-121.9871649589301
 30
0.0
 10
99.76078977639467
 20
-121.9835591781041
 30
0.0
 10
99.76199151231162
 20
-121.9799556895735
 30
0.0
 10
99.76439555721995
 20
-121.9763499087475
 30
0.0
 10
99.76679902905514
 20
-121.9727441279213
 30
0.0
 10
99.76800076497271
 20
-121.9679371842519
 30
0.0
 10
99.77040423680756
 20
-121.9655325662691
 30
0.0
 10
99.77160654579897
 20
-121.9619267854429
 30
0.0
 10
99.77521175355107
 20
-121.9571198417735
 30
0.0
 10
99.77641348946834
 20
-121.9547175160863
 30
0.0
 10
99.77881753437669
 20
-121.9511117352603
 30
0.0
 10
99.78122100621218
 20
-121.9475059544341
 30
0.0
 10
99.7836244780467
 20
-121.9451013364516
 30
0.0
 10
99.78723025887296
 20
-121.9414955556254
 30
0.0
 10
99.78963373070781
 20
-121.9378920670947
 30
0.0
 10
99.79203720254266
 20
-121.9354874491122
 30
0.0
 10
99.79444067437718
 20
-121.931881668286
 30
0.0
 10
99.79684471928585
 20
-121.92827588746
 30
0.0
 10
99.79924819112071
 20
-121.9258735617728
 30
0.0
 10
99.80165166295556
 20
-121.9222677809469
 30
0.0
 10
99.8052574437818
 20
-121.9198631629644
 30
0.0
 10
99.81126669644257
 20
-121.9150562192941
 30
0.0
 10
99.81607364011228
 20
-121.9090481127812
 30
0.0
 10
99.82328462869062
 20
-121.904238876816
 30
0.0
 10
99.82929388135142
 20
-121.8994319331466
 30
0.0
 10
99.8365048699301
 20
-121.8946249894772
 30
0.0
 10
99.84251412259089
 20
-121.8898180458072
 30
0.0
 10
99.84972453809511
 20
-121.8850111021378
 30
0.0
 10
99.85693552667378
 20
-121.8814053213116
 30
0.0
 10
99.8653482511691
 20
-121.8765983776415
 30
0.0
 10
99.87135750383052
 20
-121.8741937596591
 30
0.0
 10
99.87977022832582
 20
-121.8705879788331
 30
0.0
 10
99.88818295282209
 20
-121.8669844903028
 30
0.0
 10
99.89659567731772
 20
-121.86457987232
 30
0.0
 10
99.90380666589576
 20
-121.8621752543375
 30
0.0
 10
99.91221939039171
 20
-121.8609740914937
 30
0.0
 10
99.92183442387874
 20
-121.8573683106678
 30
0.0
 10
99.93024714837437
 20
-121.8573683106678
 30
0.0
 10
99.93745813695273
 20
-121.8561671478244
 30
0.0
 10
99.94707259736626
 20
-121.8549659849812
 30
0.0
 10
99.95668705777948
 20
-121.8549659849812
 30
0.0
 10
99.96509978227511
 20
-121.8537625298425
 30
0.0
  0
SPLINE
  5
AD
330
A0
100
AcDbEntity
  8
Capa 2
 62
   178
420
      519
370
    30
100
AcDbSpline
210
0.0
220
0.0
230
1.0
 70
     8
 71
     3
 72
    68
 73
    64
 74
     0
 42
0.0000000001
 43
0.0000000001
 40
0.0
 40
0.0
 40
0.0
 40
0.0
 40
1.0
 40
1.0
 40
1.0
 40
2.0
 40
2.0
 40
2.0
 40
3.0
 40
3.0
 40
3.0
 40
4.0
 40
4.0
 40
4.0
 40
5.0
 40
5.0
 40
5.0
 40
6.0
 40
6.0
 40
6.0
 40
7.0
 40
7.0
 40
7.0
 40
8.0
 40
8.0
 40
8.0
 40
9.0
 40
9.0
 40
9.0
 40
10.0
 40
10.0
 40
10.0
 40
11.0
 40
11.0
 40
11.0
 40
12.0
 40
12.0
 40
12.0
 40
13.0
 40
13.0
 40
13.0
 40
14.0
 40
14.0
 40
14.0
 40
15.0
 40
15.0
 40
15.0
 40
16.0
 40
16.0
 40
16.0
 40
17.0
 40
17.0
 40
17.0
 40
18.0
 40
18.0
 40
18.0
 40
19.0
 40
19.0
 40
19.0
 40
20.0
 40
20.0
 40
20.0
 40
21.0
 40
21.0
 40
21.0
 40
21.0
 10
160.4146330778489
 20
-121.8542416196018
 30
0.0
 10
160.4146330778489
 20
-121.8542416196018
 30
0.0
 10
160.4278504537187
 20
-121.8542416196018
 30
0.0
 10
160.4278504537187
 20
-121.8542416196018
 30
0.0
 10
160.4326596896843
 20
-121.8554450747408
 30
0.0
 10
160.437464341058
 20
-121.8554450747408
 30
0.0
 10
160.4410724141796
 20
-121.8566462375842
 30
0.0
 10
160.445877065554
 20
-121.8566462375842
 30
0.0
 10
160.4494851386755
 20
-121.8566462375842
 30
0.0
 10
160.4542897900493
 20
-121.857847400428
 30
0.0
 10
160.4578978631708
 20
-121.857847400428
 30
0.0
 10
160.4627025145452
 20
-121.859050855567
 30
0.0
 10
160.4675117505096
 20
-121.8602520184105
 30
0.0
 10
160.4711152390406
 20
-121.8614531812543
 30
0.0
 10
160.4747233121621
 20
-121.8614531812543
 30
0.0
 10
160.4795279635365
 20
-121.8638577992364
 30
0.0
 10
160.4831360366587
 20
-121.8650589620802
 30
0.0
 10
160.4867395251884
 20
-121.866260124924
 30
0.0
 10
160.491548761154
 20
-121.8674635800627
 30
0.0
 10
160.4951522496843
 20
-121.8686647429061
 30
0.0
 10
160.4987603228065
 20
-121.8710693608889
 30
0.0
 10
160.5023638113368
 20
-121.8722705237321
 30
0.0
 10
160.5071730473024
 20
-121.8734716865758
 30
0.0
 10
160.5107765358328
 20
-121.8758763045583
 30
0.0
 10
160.5143800243631
 20
-121.8770774674021
 30
0.0
 10
160.5179880974853
 20
-121.8794820853846
 30
0.0
 10
160.5215915860149
 20
-121.8818844110715
 30
0.0
 10
160.5264008219806
 20
-121.8830855739152
 30
0.0
 10
160.5288031476675
 20
-121.8854901918977
 30
0.0
 10
160.532411220789
 20
-121.8866913547415
 30
0.0
 10
160.5372158721634
 20
-121.8902971355671
 30
0.0
 10
160.5396181978509
 20
-121.8914982984108
 30
0.0
 10
160.5432262709725
 20
-121.8939029163933
 30
0.0
 10
160.5468297595028
 20
-121.8963075343761
 30
0.0
 10
160.5492366697809
 20
-121.8987098600633
 30
0.0
 10
160.5528401583112
 20
-121.9023156408893
 30
0.0
 10
160.5564436468422
 20
-121.9047202588718
 30
0.0
 10
160.5588505571203
 20
-121.907122584559
 30
0.0
 10
160.5624540456506
 20
-121.9095272025418
 30
0.0
 10
160.5660621187722
 20
-121.9119295282284
 30
0.0
 10
160.568464444459
 20
-121.9143341462112
 30
0.0
 10
160.57206793299
 20
-121.9167364718984
 30
0.0
 10
160.5744748432681
 20
-121.9203422527243
 30
0.0
 10
160.5792794946419
 20
-121.926352651533
 30
0.0
 10
160.5852898934509
 20
-121.9323607580462
 30
0.0
 10
160.5900991294159
 20
-121.9383711568546
 30
0.0
 10
160.5949037807903
 20
-121.944379263368
 30
0.0
 10
160.5997130167546
 20
-121.9515908250202
 30
0.0
 10
160.6045176681297
 20
-121.9575989315334
 30
0.0
 10
160.6093269040947
 20
-121.9648104931859
 30
0.0
 10
160.6129303926257
 20
-121.9720220548381
 30
0.0
 10
160.61773962859
 20
-121.9804347793337
 30
0.0
 10
160.6201419542775
 20
-121.9864428858468
 30
0.0
 10
160.6237500273991
 20
-121.9948556103428
 30
0.0
 10
160.6273535159294
 20
-122.0032683348384
 30
0.0
 10
160.6297558416169
 20
-122.011681059334
 30
0.0
 10
160.632162751895
 20
-122.0188926209869
 30
0.0
 10
160.6333639147385
 20
-122.0273053454822
 30
0.0
 10
160.6369674032688
 20
-122.0369192328216
 30
0.0
 10
160.6369674032688
 20
-122.0453319573172
 30
0.0
 10
160.6381685661122
 20
-122.0525435189694
 30
0.0
 10
160.6393697289557
 20
-122.0621574063088
 30
0.0
 10
160.6393697289557
 20
-122.0717735859434
 30
0.0
 10
160.6405754763903
 20
-122.0801863104391
 30
0.0
  0
SPLINE
  5
AE
330
A0
100
AcDbEntity
  8
Capa 2
 62
   178
420
      519
370
    30
100
AcDbSpline
210
0.0
220
0.0
230
1.0
 70
     8
 71
     3
 72
    11
 73
     7
 74
     0
 42
0.0000000001
 43
0.0000000001
 40
0.0
 40
0.0
 40
0.0
 40
0.0
 40
1.0
 40
1.0
 40
1.0
 40
2.0
 40
2.0
 40
2.0
 40
2.0
 10
160.0229622990358
 20
-122.9442969001109
 30
0.0
 10
160.0253646247233
 20
-122.9791512532327
 30
0.0
 10
160.0265657875668
 20
-123.0248206565377
 30
0.0
 10
160.0277669504096
 20
-123.0752970035125
 30
0.0
 10
160.028968113253
 20
-123.1257733504872
 30
0.0
 10
160.0301692760971
 20
-123.1822600962703
 30
0.0
 10
160.0301692760971
 20
-123.2375433869144
 30
0.0
  0
SPLINE
  5
AF
330
A0
100
AcDbEntity
  8
Capa 2
 62
   178
420
      519
370
    30
100
AcDbSpline
210
0.0
220
0.0
230
1.0
 70
     8
 71
     3
 72
    11
 73
     7
 74
     0
 42
0.0000000001
 43
0.0000000001
 40
0.0
 40
0.0
 40
0.0
 40
0.0
 40
1.0
 40
1.0
 40
1.0
 40
2.0
 40
2.0
 40
2.0
 40
2.0
 10
100.3499240474944
 20
-123.2379009850131
 30
0.0
 10
100.3499240474944
 20
-123.1814165315253
 30
0.0
 10
100.351125783412
 20
-123.1249297857418
 30
0.0
 10
100.3523275193295
 20
-123.0756568939061
 30
0.0
 10
100.3523275193295
 20
-123.0251805469317
 30
0.0
 10
100.3547309911641
 20
-122.979511143627
 30
0.0
 10
100.3571344629989
 20
-122.9446567905048
 30
0.0
  0
SPLINE
  5
B0
330
A0
100
AcDbEntity
  8
Capa 2
 62
   178
420
      519
370
    30
100
AcDbSpline
210
0.0
220
0.0
230
1.0
 70
     8
 71
     3
 72
   110
 73
   106
 74
     0
 42
0.0000000001
 43
0.0000000001
 40
0.0
 40
0.0
 40
0.0
 40
0.0
 40
1.0
 40
1.0
 40
1.0
 40
2.0
 40
2.0
 40
2.0
 40
3.0
 40
3.0
 40
3.0
 40
4.0
 40
4.0
 40
4.0
 40
5.0
 40
5.0
 40
5.0
 40
6.0
 40
6.0
 40
6.0
 40
7.0
 40
7.0
 40
7.0
 40
8.0
 40
8.0
 40
8.0
 40
9.0
 40
9.0
 40
9.0
 40
10.0
 40
10.0
 40
10.0
 40
11.0
 40
11.0
 40
11.0
 40
12.0
 40
12.0
 40
12.0
 40
13.0
 40
13.0
 40
13.0
 40
14.0
 40
14.0
 40
14.0
 40
15.0
 40
15.0
 40
15.0
 40
16.0
 40
16.0
 40
16.0
 40
17.0
 40
17.0
 40
17.0
 40
18.0
 40
18.0
 40
18.0
 40
19.0
 40
19.0
 40
19.0
 40
20.0
 40
20.0
 40
20.0
 40
21.0
 40
21.0
 40
21.0
 40
22.0
 40
22.0
 40
22.0
 40
23.0
 40
23.0
 40
23.0
 40
24.0
 40
24.0
 40
24.0
 40
25.0
 40
25.0
 40
25.0
 40
26.0
 40
26.0
 40
26.0
 40
27.0
 40
27.0
 40
27.0
 40
28.0
 40
28.0
 40
28.0
 40
29.0
 40
29.0
 40
29.0
 40
30.0
 40
30.0
 40
30.0
 40
31.0
 40
31.0
 40
31.0
 40
32.0
 40
32.0
 40
32.0
 40
33.0
 40
33.0
 40
33.0
 40
34.0
 40
34.0
 40
34.0
 40
35.0
 40
35.0
 40
35.0
 40
35.0
 10
130.1897472306961
 20
-151.0168387616739
 30
0.0
 10
128.999940419081
 20
-151.0168387616739
 30
0.0
 10
127.8089347369184
 20
-151.0120318180042
 30
0.0
 10
126.6191302175992
 20
-151.0048208294255
 30
0.0
 10
125.4269210802972
 20
-150.9976098408469
 30
0.0
 10
124.2359153981346
 20
-150.9879953804343
 30
0.0
 10
123.0449074236767
 20
-150.9795826559384
 30
0.0
 10
121.8539017415135
 20
-150.9699681955251
 30
0.0
 10
120.6628960593502
 20
-150.9627572069471
 30
0.0
 10
119.4706869220489
 20
-150.9555462183691
 30
0.0
 10
118.8757858085369
 20
-150.9519404375428
 30
0.0
 10
118.2796812398863
 20
-150.9495369657076
 30
0.0
 10
117.6835766712356
 20
-150.9447294489641
 30
0.0
 10
117.6090633136175
 20
-150.9447294489641
 30
0.0
 10
117.5345499559993
 20
-150.9447294489641
 30
0.0
 10
117.4600365983798
 20
-150.9447294489641
 30
0.0
 10
117.4600365983798
 20
-150.9447294489641
 30
0.0
 10
117.3494700170923
 20
-150.9447294489641
 30
0.0
 10
117.3494700170923
 20
-150.9447294489641
 30
0.0
 10
117.3290387872741
 20
-150.9447294489641
 30
0.0
 10
117.3110121754394
 20
-150.9447294489641
 30
0.0
 10
117.2929832713082
 20
-150.9435277130469
 30
0.0
 10
117.2929832713082
 20
-150.9435277130469
 30
0.0
 10
117.2364988178206
 20
-150.9435277130469
 30
0.0
 10
117.2364988178206
 20
-150.9435277130469
 30
0.0
 10
117.0862709397409
 20
-150.9435277130469
 30
0.0
 10
116.9408500053302
 20
-150.9435277130469
 30
0.0
 10
116.7990348517457
 20
-150.9387207693771
 30
0.0
 10
116.7629793357804
 20
-150.9375184603854
 30
0.0
 10
116.7281272749538
 20
-150.9363167244682
 30
0.0
 10
116.6920717589885
 20
-150.9339132526336
 30
0.0
 10
116.6740451471531
 20
-150.9339132526336
 30
0.0
 10
116.6572196981619
 20
-150.9339132526336
 30
0.0
 10
116.6391930863265
 20
-150.9327115167164
 30
0.0
 10
116.6223676373346
 20
-150.9315097807984
 30
0.0
 10
116.6043387332047
 20
-150.9303080448812
 30
0.0
 10
116.5863121213693
 20
-150.9291057358901
 30
0.0
 10
116.5154045445774
 20
-150.9242987922204
 30
0.0
 10
116.4444969677848
 20
-150.9194912754769
 30
0.0
 10
116.3735893909929
 20
-150.9134820228155
 30
0.0
 10
116.2329754002519
 20
-150.8990606187326
 30
0.0
 10
116.089959083824
 20
-150.8822345966675
 30
0.0
 10
115.9505485482223
 20
-150.8606022040065
 30
0.0
 10
115.6705217295844
 20
-150.8173362725364
 30
0.0
 10
115.3953041469108
 20
-150.758447201066
 30
0.0
 10
115.1248958002034
 20
-150.68273210753
 30
0.0
 10
114.8556863240436
 20
-150.6070175870683
 30
0.0
 10
114.5900849210053
 20
-150.5156787804589
 30
0.0
 10
114.3304893321848
 20
-150.4087168338487
 30
0.0
 10
114.0708960356596
 20
-150.3029560500825
 30
0.0
 10
113.8149085199607
 20
-150.1815721263156
 30
0.0
 10
113.5649291107756
 20
-150.0445639164008
 30
0.0
 10
113.5012330956356
 20
-150.0097112824998
 30
0.0
 10
113.4399394061824
 20
-149.9748586486
 30
0.0
 10
113.3774445538858
 20
-149.9388037057085
 30
0.0
 10
113.3161508644333
 20
-149.9027493358902
 30
0.0
 10
113.2560606301188
 20
-149.8666943929987
 30
0.0
 10
113.1959681035098
 20
-149.8294377141893
 30
0.0
 10
113.0745841797434
 20
-149.753723193727
 30
0.0
 10
112.9556048739587
 20
-149.6768063642744
 30
0.0
 10
112.8402290567048
 20
-149.5962843270692
 30
0.0
 10
112.6070750965116
 20
-149.4340379436666
 30
0.0
 10
112.3835373159517
 20
-149.2621770998521
 30
0.0
 10
112.1696111304366
 20
-149.0770971609451
 30
0.0
 10
111.9544860743727
 20
-148.8932183848822
 30
0.0
 10
111.7477714505095
 20
-148.6985222663405
 30
0.0
 10
111.5482706805934
 20
-148.493011097616
 30
0.0
 10
111.4989954964624
 20
-148.4413324416501
 30
0.0
 10
111.4497203123315
 20
-148.3896537856844
 30
0.0
 10
111.4016474371916
 20
-148.3367739668751
 30
0.0
 10
111.3535745620517
 20
-148.2838941480658
 30
0.0
 10
111.304300524069
 20
-148.2310131831083
 30
0.0
 10
111.2586311207637
 20
-148.176931055308
 30
0.0
 10
111.1636865333274
 20
-148.0699691086977
 30
0.0
 10
111.0711465638745
 20
-147.960603690253
 30
0.0
 10
110.9834135380914
 20
-147.8488336538254
 30
0.0
 10
110.8043428518451
 20
-147.6264958899617
 30
0.0
 10
110.6372895247735
 20
-147.3981500195854
 30
0.0
 10
110.4798500850405
 20
-147.1637948965472
 30
0.0
 10
110.164971205576
 20
-146.6938823414805
 30
0.0
 10
109.8909570780417
 20
-146.19993277577
 30
0.0
 10
109.6529961741788
 20
-145.6831485084075
 30
0.0
 10
109.5352157389422
 20
-145.4235552118824
 30
0.0
 10
109.4258503204974
 20
-145.1591538255395
 30
0.0
 10
109.3260987893914
 20
-144.8899454955277
 30
0.0
 10
109.3008606159049
 20
-144.8226436995617
 30
0.0
 10
109.2768258975564
 20
-144.7541395946043
 30
0.0
 10
109.2515854317733
 20
-144.6868366524904
 30
0.0
 10
109.2287518762689
 20
-144.618333693681
 30
0.0
 10
109.2059183207638
 20
-144.551030751567
 30
0.0
 10
109.1830824729642
 20
-144.4825277927576
 30
0.0
 10
109.1386142325029
 20
-144.3455195828425
 30
0.0
 10
109.0965506100238
 20
-144.208511372928
 30
0.0
 10
109.0568916055275
 20
-144.0715043091609
 30
0.0
 10
108.9775713042397
 20
-143.7974878893314
 30
0.0
 10
108.9090660531346
 20
-143.5210691438149
 30
0.0
 10
108.8501769816643
 20
-143.2422457803157
 30
0.0
 10
108.7912879101939
 20
-142.9634224168168
 30
0.0
 10
108.742012726063
 20
-142.6821967276307
 30
0.0
 10
108.7035548844101
 20
-142.4009698922963
 30
0.0
 10
108.6638958799138
 20
-142.1185418941191
 30
0.0
 10
108.6350519256004
 20
-141.8349115869505
 30
0.0
 10
108.6146206957835
 20
-141.5500789707901
 30
0.0
 10
108.5941894659653
 20
-141.264045191787
 30
0.0
 10
108.584575578626
 20
-140.9768091037918
 30
0.0
 10
108.584575578626
 20
-140.6883718529535
 30
0.0
  0
SPLINE
  5
B1
330
A0
100
AcDbEntity
  8
Capa 2
 62
   178
420
      519
370
    30
100
AcDbSpline
210
0.0
220
0.0
230
1.0
 70
     8
 71
     3
 72
   110
 73
   106
 74
     0
 42
0.0000000001
 43
0.0000000001
 40
0.0
 40
0.0
 40
0.0
 40
0.0
 40
1.0
 40
1.0
 40
1.0
 40
2.0
 40
2.0
 40
2.0
 40
3.0
 40
3.0
 40
3.0
 40
4.0
 40
4.0
 40
4.0
 40
5.0
 40
5.0
 40
5.0
 40
6.0
 40
6.0
 40
6.0
 40
7.0
 40
7.0
 40
7.0
 40
8.0
 40
8.0
 40
8.0
 40
9.0
 40
9.0
 40
9.0
 40
10.0
 40
10.0
 40
10.0
 40
11.0
 40
11.0
 40
11.0
 40
12.0
 40
12.0
 40
12.0
 40
13.0
 40
13.0
 40
13.0
 40
14.0
 40
14.0
 40
14.0
 40
15.0
 40
15.0
 40
15.0
 40
16.0
 40
16.0
 40
16.0
 40
17.0
 40
17.0
 40
17.0
 40
18.0
 40
18.0
 40
18.0
 40
19.0
 40
19.0
 40
19.0
 40
20.0
 40
20.0
 40
20.0
 40
21.0
 40
21.0
 40
21.0
 40
22.0
 40
22.0
 40
22.0
 40
23.0
 40
23.0
 40
23.0
 40
24.0
 40
24.0
 40
24.0
 40
25.0
 40
25.0
 40
25.0
 40
26.0
 40
26.0
 40
26.0
 40
27.0
 40
27.0
 40
27.0
 40
28.0
 40
28.0
 40
28.0
 40
29.0
 40
29.0
 40
29.0
 40
30.0
 40
30.0
 40
30.0
 40
31.0
 40
31.0
 40
31.0
 40
32.0
 40
32.0
 40
32.0
 40
33.0
 40
33.0
 40
33.0
 40
34.0
 40
34.0
 40
34.0
 40
35.0
 40
35.0
 40
35.0
 40
35.0
 10
151.7952810654545
 20
-140.6883718529535
 30
0.0
 10
151.7952810654545
 20
-140.9768102499401
 30
0.0
 10
151.7844614306805
 20
-141.264045191787
 30
0.0
 10
151.7652336560023
 20
-141.5500789707901
 30
0.0
 10
151.7448001338896
 20
-141.8349115869505
 30
0.0
 10
151.7159584718714
 20
-142.1185418941191
 30
0.0
 10
151.6762971750791
 20
-142.4009698922963
 30
0.0
 10
151.6378416257229
 20
-142.6833990366217
 30
0.0
 10
151.5873652787478
 20
-142.9634235629644
 30
0.0
 10
151.5296773701209
 20
-143.2422457803157
 30
0.0
 10
151.4707882986512
 20
-143.5198668348239
 30
0.0
 10
151.4022807552503
 20
-143.7974878893314
 30
0.0
 10
151.3229627462577
 20
-144.0715043091609
 30
0.0
 10
151.2833014494655
 20
-144.2097136819191
 30
0.0
 10
151.2412378269877
 20
-144.3455195828425
 30
0.0
 10
151.1967718788211
 20
-144.4825277927576
 30
0.0
 10
151.1739360310207
 20
-144.5498295887232
 30
0.0
 10
151.1511001832204
 20
-144.6195348565241
 30
0.0
 10
151.1270631725773
 20
-144.6868377986386
 30
0.0
 10
151.1030307465241
 20
-144.7553419035954
 30
0.0
 10
151.0789937358803
 20
-144.8226436995617
 30
0.0
 10
151.0537555623938
 20
-144.8899454955277
 30
0.0
 10
150.9540040312877
 20
-145.1603561345313
 30
0.0
 10
150.844638612843
 20
-145.4247563747258
 30
0.0
 10
150.7268558853111
 20
-145.6831485084075
 30
0.0
 10
150.4888972737428
 20
-146.19993277577
 30
0.0
 10
150.2148808539139
 20
-146.6938823414805
 30
0.0
 10
149.9000019744487
 20
-147.1637948965472
 30
0.0
 10
149.7425671193076
 20
-147.3981500195854
 30
0.0
 10
149.575513792236
 20
-147.6276981989531
 30
0.0
 10
149.3964396675468
 20
-147.8488336538254
 30
0.0
 10
149.3075031866243
 20
-147.9594013812619
 30
0.0
 10
149.2161689646048
 20
-148.0687667997067
 30
0.0
 10
149.1212220848738
 20
-148.176931055308
 30
0.0
 10
149.074353811021
 20
-148.2310131831083
 30
0.0
 10
149.0262797897328
 20
-148.2838941480658
 30
0.0
 10
148.9782057684459
 20
-148.3379751297185
 30
0.0
 10
148.9301317471584
 20
-148.3896537856844
 30
0.0
 10
148.879655400184
 20
-148.4425347506416
 30
0.0
 10
148.8303802160531
 20
-148.493011097616
 30
0.0
 10
148.6320829012757
 20
-148.6985222663405
 30
0.0
 10
148.4253682774125
 20
-148.8944195477249
 30
0.0
 10
148.2102409290539
 20
-149.0782983237892
 30
0.0
 10
147.9951135806941
 20
-149.2621770998521
 30
0.0
 10
147.7727792552736
 20
-149.4340379436666
 30
0.0
 10
147.5396252950797
 20
-149.5962843270692
 30
0.0
 10
147.4230483149824
 20
-149.6768063642744
 30
0.0
 10
147.3052701720417
 20
-149.7549249296443
 30
0.0
 10
147.1838839559802
 20
-149.8294377141893
 30
0.0
 10
147.1237937216664
 20
-149.8666943929987
 30
0.0
 10
147.0624977399179
 20
-149.9039510718074
 30
0.0
 10
147.0024075056035
 20
-149.9400054416258
 30
0.0
 10
146.9399149456028
 20
-149.9748586486
 30
0.0
 10
146.8774178010109
 20
-150.0097112824998
 30
0.0
 10
146.8149252410102
 20
-150.0445639164008
 30
0.0
 10
146.5649458318244
 20
-150.1815721263156
 30
0.0
 10
146.3089560238303
 20
-150.3029560500825
 30
0.0
 10
146.0493627273044
 20
-150.4099179966921
 30
0.0
 10
145.7885682679365
 20
-150.5156787804589
 30
0.0
 10
145.5241657354463
 20
-150.6070175870683
 30
0.0
 10
145.2537573887383
 20
-150.6815297985395
 30
0.0
 10
144.9845502048744
 20
-150.7572454651487
 30
0.0
 10
144.7093326222008
 20
-150.8173368456102
 30
0.0
 10
144.4293058035628
 20
-150.8606016309327
 30
0.0
 10
144.2898929756659
 20
-150.882235169742
 30
0.0
 10
144.1468766592374
 20
-150.9002617815767
 30
0.0
 10
144.0050615056535
 20
-150.9122802868982
 30
0.0
 10
143.9353573840003
 20
-150.9194907024031
 30
0.0
 10
143.8644475149125
 20
-150.9254999550639
 30
0.0
 10
143.7935422304159
 20
-150.9291057358901
 30
0.0
 10
143.7755156185805
 20
-150.9303080448812
 30
0.0
 10
143.7574844221547
 20
-150.9315092077246
 30
0.0
 10
143.73945781032
 20
-150.9315092077246
 30
0.0
 10
143.722632361328
 20
-150.9327115167164
 30
0.0
 10
143.7046057494933
 20
-150.9339126795592
 30
0.0
 10
143.6877803005015
 20
-150.9351149885509
 30
0.0
 10
143.6517270768314
 20
-150.936317297542
 30
0.0
 10
143.6168750160048
 20
-150.9375184603854
 30
0.0
 10
143.5808172077442
 20
-150.9387207693771
 30
0.0
 10
143.4390020541591
 20
-150.9423254040551
 30
0.0
 10
143.2935834120443
 20
-150.9435277130469
 30
0.0
 10
143.1433555339646
 20
-150.9435277130469
 30
0.0
 10
143.1433555339646
 20
-150.9435277130469
 30
0.0
 10
143.0868687881811
 20
-150.9435277130469
 30
0.0
 10
143.0868687881811
 20
-150.9435277130469
 30
0.0
 10
143.0868687881811
 20
-150.9435277130469
 30
0.0
 10
143.0303820423976
 20
-150.9435277130469
 30
0.0
 10
143.0303820423976
 20
-150.9435277130469
 30
0.0
 10
142.9943288187276
 20
-150.9447300220379
 30
0.0
 10
142.9558686847795
 20
-150.9447300220379
 30
0.0
 10
142.918614298266
 20
-150.9447300220379
 30
0.0
 10
142.8441009406472
 20
-150.9447300220379
 30
0.0
 10
142.769587583029
 20
-150.9459311848814
 30
0.0
 10
142.6962753882543
 20
-150.9459311848814
 30
0.0
 10
142.1001731118989
 20
-150.9483346567165
 30
0.0
 10
141.5040708355435
 20
-150.9519404375428
 30
0.0
 10
140.9079639745976
 20
-150.9555462183691
 30
0.0
 10
139.716956000139
 20
-150.9615554710292
 30
0.0
 10
138.5259526102717
 20
-150.9711693583686
 30
0.0
 10
137.3337434729697
 20
-150.9795820828645
 30
0.0
 10
136.1427354985118
 20
-150.9879948073605
 30
0.0
 10
134.9517275240533
 20
-150.9964075318564
 30
0.0
 10
133.760724134186
 20
-151.0048202563517
 30
0.0
 10
132.5697161597281
 20
-151.0108295090125
 30
0.0
 10
131.3799139327042
 20
-151.0168387616739
 30
0.0
 10
130.190109413385
 20
-151.0168387616739
 30
0.0
  0
SPLINE
  5
B2
330
A0
100
AcDbEntity
  8
Capa 2
 62
   178
420
      519
370
    30
100
AcDbSpline
210
0.0
220
0.0
230
1.0
 70
     8
 71
     3
 72
   110
 73
   106
 74
     0
 42
0.0000000001
 43
0.0000000001
 40
0.0
 40
0.0
 40
0.0
 40
0.0
 40
1.0
 40
1.0
 40
1.0
 40
2.0
 40
2.0
 40
2.0
 40
3.0
 40
3.0
 40
3.0
 40
4.0
 40
4.0
 40
4.0
 40
5.0
 40
5.0
 40
5.0
 40
6.0
 40
6.0
 40
6.0
 40
7.0
 40
7.0
 40
7.0
 40
8.0
 40
8.0
 40
8.0
 40
9.0
 40
9.0
 40
9.0
 40
10.0
 40
10.0
 40
10.0
 40
11.0
 40
11.0
 40
11.0
 40
12.0
 40
12.0
 40
12.0
 40
13.0
 40
13.0
 40
13.0
 40
14.0
 40
14.0
 40
14.0
 40
15.0
 40
15.0
 40
15.0
 40
16.0
 40
16.0
 40
16.0
 40
17.0
 40
17.0
 40
17.0
 40
18.0
 40
18.0
 40
18.0
 40
19.0
 40
19.0
 40
19.0
 40
20.0
 40
20.0
 40
20.0
 40
21.0
 40
21.0
 40
21.0
 40
22.0
 40
22.0
 40
22.0
 40
23.0
 40
23.0
 40
23.0
 40
24.0
 40
24.0
 40
24.0
 40
25.0
 40
25.0
 40
25.0
 40
26.0
 40
26.0
 40
26.0
 40
27.0
 40
27.0
 40
27.0
 40
28.0
 40
28.0
 40
28.0
 40
29.0
 40
29.0
 40
29.0
 40
30.0
 40
30.0
 40
30.0
 40
31.0
 40
31.0
 40
31.0
 40
32.0
 40
32.0
 40
32.0
 40
33.0
 40
33.0
 40
33.0
 40
34.0
 40
34.0
 40
34.0
 40
35.0
 40
35.0
 40
35.0
 40
35.0
 10
108.5840941965698
 20
-140.6883718529535
 30
0.0
 10
108.5840941965698
 20
-140.3999346021149
 30
0.0
 10
108.5949103929009
 20
-140.112699660268
 30
0.0
 10
108.6141393137274
 20
-139.8266647351166
 30
0.0
 10
108.6345705435455
 20
-139.5418344112522
 30
0.0
 10
108.6634144978577
 20
-139.2582041040836
 30
0.0
 10
108.7030746485023
 20
-138.9757749597571
 30
0.0
 10
108.7415324901551
 20
-138.6933458154317
 30
0.0
 10
108.7920088371295
 20
-138.413321289089
 30
0.0
 10
108.8496967457564
 20
-138.1344979255901
 30
0.0
 10
108.9085858172268
 20
-137.8568780172299
 30
0.0
 10
108.9770899221835
 20
-137.5792558165744
 30
0.0
 10
109.0564102234714
 20
-137.3052416890405
 30
0.0
 10
109.0960703741159
 20
-137.1670323162822
 30
0.0
 10
109.138133996595
 20
-137.0312252692109
 30
0.0
 10
109.1826010909087
 20
-136.8942170592962
 30
0.0
 10
109.2054357925607
 20
-136.8269152633302
 30
0.0
 10
109.2282704942134
 20
-136.7572088493817
 30
0.0
 10
109.2523075048565
 20
-136.6899070534157
 30
0.0
 10
109.2763433693533
 20
-136.6214040946057
 30
0.0
 10
109.300380379997
 20
-136.55410229864
 30
0.0
 10
109.3256185534836
 20
-136.4868005026737
 30
0.0
 10
109.4253700845896
 20
-136.2163898636704
 30
0.0
 10
109.5347355030343
 20
-135.9519873311803
 30
0.0
 10
109.6525147921227
 20
-135.6935951974985
 30
0.0
 10
109.8904756959869
 20
-135.1768132224314
 30
0.0
 10
110.1644909696682
 20
-134.6828625105732
 30
0.0
 10
110.4793687029857
 20
-134.2129511016539
 30
0.0
 10
110.6368069965697
 20
-133.978593686321
 30
0.0
 10
110.8038603236414
 20
-133.749045506953
 30
0.0
 10
110.9829321560352
 20
-133.5279100520804
 30
0.0
 10
111.0718674908101
 20
-133.4173434707919
 30
0.0
 10
111.1632062974195
 20
-133.3079780523471
 30
0.0
 10
111.2581497387076
 20
-133.1998137967458
 30
0.0
 10
111.3050214510046
 20
-133.1457316689451
 30
0.0
 10
111.3530943261445
 20
-133.0928507039879
 30
0.0
 10
111.4011672012838
 20
-133.0399720313263
 30
0.0
 10
111.4492400764236
 20
-132.9870910663691
 30
0.0
 10
111.499716423398
 20
-132.9342101014122
 30
0.0
 10
111.548991607529
 20
-132.8837337544375
 30
0.0
 10
111.7472923607486
 20
-132.678222585713
 30
0.0
 10
111.9540046923166
 20
-132.4823253043282
 30
0.0
 10
112.1691320406758
 20
-132.2984465282649
 30
0.0
 10
112.3842570967397
 20
-132.114567752202
 30
0.0
 10
112.6065937144555
 20
-131.9427074814603
 30
0.0
 10
112.83974767465
 20
-131.7804610980586
 30
0.0
 10
112.9563246547472
 20
-131.6999373416314
 30
0.0
 10
113.0741050899826
 20
-131.6218204954823
 30
0.0
 10
113.1954890137495
 20
-131.5473071378641
 30
0.0
 10
113.255579248064
 20
-131.5100504590554
 30
0.0
 10
113.3168729375165
 20
-131.472793780246
 30
0.0
 10
113.3769631718303
 20
-131.4367382642803
 30
0.0
 10
113.4394580241269
 20
-131.4018862034537
 30
0.0
 10
113.5019528764229
 20
-131.3670341426275
 30
0.0
 10
113.5644477287195
 20
-131.3321797895049
 30
0.0
 10
113.8144271379053
 20
-131.1951715795905
 30
0.0
 10
114.0704146536048
 20
-131.0737876558238
 30
0.0
 10
114.3300102424246
 20
-130.9668268553619
 30
0.0
 10
114.5908047017932
 20
-130.8610649254472
 30
0.0
 10
114.8552049419874
 20
-130.7709295739765
 30
0.0
 10
115.1256155809907
 20
-130.6952150535146
 30
0.0
 10
115.3948250571512
 20
-130.6194982407577
 30
0.0
 10
115.6700426398242
 20
-130.5594080064432
 30
0.0
 10
115.9500671661662
 20
-130.5161432211213
 30
0.0
 10
116.0894777017679
 20
-130.4945085361645
 30
0.0
 10
116.2324940181964
 20
-130.4764819243294
 30
0.0
 10
116.3743091717809
 20
-130.4644634190072
 30
0.0
 10
116.4440155857294
 20
-130.4572541496507
 30
0.0
 10
116.5149231625219
 20
-130.4512437508425
 30
0.0
 10
116.5858307393132
 20
-130.4476379700157
 30
0.0
 10
116.6038573511485
 20
-130.4464368071722
 30
0.0
 10
116.6218862552791
 20
-130.4452356443291
 30
0.0
 10
116.6399128671145
 20
-130.4452356443291
 30
0.0
 10
116.6567383161057
 20
-130.4440321891897
 30
0.0
 10
116.6747649279411
 20
-130.4428310263463
 30
0.0
 10
116.6915903769323
 20
-130.4416298635028
 30
0.0
 10
116.7276458928983
 20
-130.4404264083638
 30
0.0
 10
116.7624979537249
 20
-130.43922524552
 30
0.0
 10
116.7985534696908
 20
-130.4380240826766
 30
0.0
 10
116.9403686232747
 20
-130.4344183018507
 30
0.0
 10
117.0857895576854
 20
-130.4332171390069
 30
0.0
 10
117.2360174357658
 20
-130.4332171390069
 30
0.0
 10
117.2360174357658
 20
-130.4332171390069
 30
0.0
 10
117.2925018892533
 20
-130.4332171390069
 30
0.0
 10
117.2925018892533
 20
-130.4332171390069
 30
0.0
 10
117.2925018892533
 20
-130.4332171390069
 30
0.0
 10
117.3489886350361
 20
-130.4332171390069
 30
0.0
 10
117.3489886350361
 20
-130.4332171390069
 30
0.0
 10
117.3850441510021
 20
-130.4320136838682
 30
0.0
 10
117.4235019926543
 20
-130.4320136838682
 30
0.0
 10
117.4607586714637
 20
-130.4320136838682
 30
0.0
 10
117.5352720290825
 20
-130.4320136838682
 30
0.0
 10
117.6097853867007
 20
-130.4308125210244
 30
0.0
 10
117.6830952891795
 20
-130.4308125210244
 30
0.0
 10
118.2791998578308
 20
-130.4284101953375
 30
0.0
 10
118.8753044264808
 20
-130.4248044145113
 30
0.0
 10
119.4714089951321
 20
-130.421198633685
 30
0.0
 10
120.6624146772954
 20
-130.4151882348763
 30
0.0
 10
121.8534226517533
 20
-130.4055743475372
 30
0.0
 10
123.04562949676
 20
-130.3971616230416
 30
0.0
 10
124.2366374712179
 20
-130.3887488985453
 30
0.0
 10
125.4276431533811
 20
-130.3803361740497
 30
0.0
 10
126.6186488355431
 20
-130.3719234495541
 30
0.0
 10
127.8096568100016
 20
-130.3659153430409
 30
0.0
 10
128.9994613293214
 20
-130.3599049442325
 30
0.0
 10
130.18926584864
 20
-130.3599049442325
 30
0.0
  0
SPLINE
  5
B3
330
A0
100
AcDbEntity
  8
Capa 2
 62
   178
420
      519
370
    30
100
AcDbSpline
210
0.0
220
0.0
230
1.0
 70
     8
 71
     3
 72
   110
 73
   106
 74
     0
 42
0.0000000001
 43
0.0000000001
 40
0.0
 40
0.0
 40
0.0
 40
0.0
 40
1.0
 40
1.0
 40
1.0
 40
2.0
 40
2.0
 40
2.0
 40
3.0
 40
3.0
 40
3.0
 40
4.0
 40
4.0
 40
4.0
 40
5.0
 40
5.0
 40
5.0
 40
6.0
 40
6.0
 40
6.0
 40
7.0
 40
7.0
 40
7.0
 40
8.0
 40
8.0
 40
8.0
 40
9.0
 40
9.0
 40
9.0
 40
10.0
 40
10.0
 40
10.0
 40
11.0
 40
11.0
 40
11.0
 40
12.0
 40
12.0
 40
12.0
 40
13.0
 40
13.0
 40
13.0
 40
14.0
 40
14.0
 40
14.0
 40
15.0
 40
15.0
 40
15.0
 40
16.0
 40
16.0
 40
16.0
 40
17.0
 40
17.0
 40
17.0
 40
18.0
 40
18.0
 40
18.0
 40
19.0
 40
19.0
 40
19.0
 40
20.0
 40
20.0
 40
20.0
 40
21.0
 40
21.0
 40
21.0
 40
22.0
 40
22.0
 40
22.0
 40
23.0
 40
23.0
 40
23.0
 40
24.0
 40
24.0
 40
24.0
 40
25.0
 40
25.0
 40
25.0
 40
26.0
 40
26.0
 40
26.0
 40
27.0
 40
27.0
 40
27.0
 40
28.0
 40
28.0
 40
28.0
 40
29.0
 40
29.0
 40
29.0
 40
30.0
 40
30.0
 40
30.0
 40
31.0
 40
31.0
 40
31.0
 40
32.0
 40
32.0
 40
32.0
 40
33.0
 40
33.0
 40
33.0
 40
34.0
 40
34.0
 40
34.0
 40
35.0
 40
35.0
 40
35.0
 40
35.0
 10
130.1897472306961
 20
-130.3599049442325
 30
0.0
 10
131.3795517500152
 20
-130.3599049442325
 30
0.0
 10
132.5705551398826
 20
-130.3647141801975
 30
0.0
 10
133.760361951497
 20
-130.3719234495541
 30
0.0
 10
134.9513699259549
 20
-130.3791350112066
 30
0.0
 10
136.1435744786657
 20
-130.3887488985453
 30
0.0
 10
137.3345824531242
 20
-130.3971616230416
 30
0.0
 10
138.5255904275828
 20
-130.4067778026762
 30
0.0
 10
139.7165984020407
 20
-130.4139870720328
 30
0.0
 10
140.9088029547515
 20
-130.421198633685
 30
0.0
 10
141.5037086528546
 20
-130.4248044145113
 30
0.0
 10
142.09981092921
 20
-130.4272090324941
 30
0.0
 10
142.6959177901559
 20
-130.4320159761635
 30
0.0
 10
142.7704311477747
 20
-130.4320159761635
 30
0.0
 10
142.844939920801
 20
-130.4320159761635
 30
0.0
 10
142.9194532784205
 20
-130.4320159761635
 30
0.0
 10
142.9194532784205
 20
-130.4320159761635
 30
0.0
 10
143.0300244442992
 20
-130.4320159761635
 30
0.0
 10
143.0300244442992
 20
-130.4320159761635
 30
0.0
 10
143.0504533818215
 20
-130.4320159761635
 30
0.0
 10
143.0684799936568
 20
-130.4320159761635
 30
0.0
 10
143.0865066054922
 20
-130.4332171390069
 30
0.0
 10
143.0865066054922
 20
-130.4332171390069
 30
0.0
 10
143.142993351275
 20
-130.4332171390069
 30
0.0
 10
143.142993351275
 20
-130.4332171390069
 30
0.0
 10
143.2932212293554
 20
-130.4332171390069
 30
0.0
 10
143.4386444560607
 20
-130.4332171390069
 30
0.0
 10
143.5804596096459
 20
-130.4380240826766
 30
0.0
 10
143.6165128333153
 20
-130.4392275378156
 30
0.0
 10
143.6513648941425
 20
-130.4404287006591
 30
0.0
 10
143.6874181178125
 20
-130.4428310263463
 30
0.0
 10
143.7054493142384
 20
-130.4428310263463
 30
0.0
 10
143.7222747632297
 20
-130.4428310263463
 30
0.0
 10
143.740301375065
 20
-130.4440344814853
 30
0.0
 10
143.7571268240563
 20
-130.4452356443291
 30
0.0
 10
143.7751534358916
 20
-130.4464368071722
 30
0.0
 10
143.7931800477263
 20
-130.4476402623112
 30
0.0
 10
143.8640899168141
 20
-130.4524472059813
 30
0.0
 10
143.9349952013108
 20
-130.4572541496507
 30
0.0
 10
144.0059050703986
 20
-130.4632622561641
 30
0.0
 10
144.1465144765484
 20
-130.4776853794682
 30
0.0
 10
144.2895353775675
 20
-130.4945108284597
 30
0.0
 10
144.4289436208739
 20
-130.5161432211213
 30
0.0
 10
144.7089704395119
 20
-130.5594080064432
 30
0.0
 10
144.9841880221848
 20
-130.6182970779136
 30
0.0
 10
145.2545963688928
 20
-130.6940138906711
 30
0.0
 10
145.5238035527568
 20
-130.769728411133
 30
0.0
 10
145.7894072480904
 20
-130.8610672177424
 30
0.0
 10
146.0490005446155
 20
-130.9680280182047
 30
0.0
 10
146.3085938411407
 20
-131.0737899481195
 30
0.0
 10
146.5645836491349
 20
-131.1951738718858
 30
0.0
 10
146.8145630583206
 20
-131.3321797895049
 30
0.0
 10
146.878261365756
 20
-131.3670341426275
 30
0.0
 10
146.9395527629139
 20
-131.4018862034537
 30
0.0
 10
147.0020499075051
 20
-131.4379417194194
 30
0.0
 10
147.063341304663
 20
-131.4739949430894
 30
0.0
 10
147.1234315389768
 20
-131.5100504590554
 30
0.0
 10
147.1835217732906
 20
-131.5473071378641
 30
0.0
 10
147.3049079893528
 20
-131.6230216583261
 30
0.0
 10
147.423887295137
 20
-131.699939633927
 30
0.0
 10
147.5392631123901
 20
-131.7804610980586
 30
0.0
 10
147.7724170725847
 20
-131.9427074814603
 30
0.0
 10
147.9959571454398
 20
-132.114567752202
 30
0.0
 10
148.2098787463637
 20
-132.2996476911087
 30
0.0
 10
148.4250060947235
 20
-132.4835264671716
 30
0.0
 10
148.6317207185868
 20
-132.678222585713
 30
0.0
 10
148.8300226179547
 20
-132.8837337544375
 30
0.0
 10
148.8804989649291
 20
-132.9354135565512
 30
0.0
 10
148.9297741490601
 20
-132.9870910663691
 30
0.0
 10
148.9778435857564
 20
-133.0399720313263
 30
0.0
 10
149.0259176070439
 20
-133.0928507039879
 30
0.0
 10
149.0751927911748
 20
-133.1457316689451
 30
0.0
 10
149.1208599021843
 20
-133.1998137967458
 30
0.0
 10
149.2158067819159
 20
-133.3067768895036
 30
0.0
 10
149.3083467513694
 20
-133.4161423079487
 30
0.0
 10
149.3960774848573
 20
-133.5279123443759
 30
0.0
 10
149.5751516095458
 20
-133.7502489620921
 30
0.0
 10
149.7422049366181
 20
-133.9785959786162
 30
0.0
 10
149.8996443763503
 20
-134.2129511016539
 30
0.0
 10
150.2145232558155
 20
-134.6828625105732
 30
0.0
 10
150.4885350910539
 20
-135.1768132224314
 30
0.0
 10
150.7264982872127
 20
-135.6935974897941
 30
0.0
 10
150.844276430154
 20
-135.9531907863194
 30
0.0
 10
150.9536418485988
 20
-136.2175910265142
 30
0.0
 10
151.0533933797035
 20
-136.4868005026737
 30
0.0
 10
151.0786315531914
 20
-136.55410229864
 30
0.0
 10
151.1026685638352
 20
-136.6226052574494
 30
0.0
 10
151.1279067373217
 20
-136.6899070534157
 30
0.0
 10
151.150742585122
 20
-136.7584123045208
 30
0.0
 10
151.1735738483318
 20
-136.8257141004864
 30
0.0
 10
151.1964096961321
 20
-136.8942170592962
 30
0.0
 10
151.2408802288893
 20
-137.0312252692109
 30
0.0
 10
151.2829438513671
 20
-137.1682334791257
 30
0.0
 10
151.3226005635681
 20
-137.3052416890405
 30
0.0
 10
151.4019231571519
 20
-137.5792558165744
 30
0.0
 10
151.4704261159616
 20
-137.8556768543864
 30
0.0
 10
151.529315187432
 20
-138.1344979255901
 30
0.0
 10
151.5882042589023
 20
-138.413321289089
 30
0.0
 10
151.6374794430326
 20
-138.6933458154317
 30
0.0
 10
151.6759395769808
 20
-138.9757749597571
 30
0.0
 10
151.7155962891818
 20
-139.2582041040836
 30
0.0
 10
151.7444425357912
 20
-139.5418344112522
 30
0.0
 10
151.7648714733128
 20
-139.8266647351166
 30
0.0
 10
151.7853049954255
 20
-140.1126985141203
 30
0.0
 10
151.7949188827656
 20
-140.3999346021149
 30
0.0
 10
151.7949188827656
 20
-140.6883718529535
 30
0.0
  0
SPLINE
  5
B4
330
A0
100
AcDbEntity
  8
Capa 2
 62
   178
420
      519
370
    30
100
AcDbSpline
210
0.0
220
0.0
230
1.0
 70
     8
 71
     3
 72
    98
 73
    94
 74
     0
 42
0.0000000001
 43
0.0000000001
 40
0.0
 40
0.0
 40
0.0
 40
0.0
 40
1.0
 40
1.0
 40
1.0
 40
2.0
 40
2.0
 40
2.0
 40
3.0
 40
3.0
 40
3.0
 40
4.0
 40
4.0
 40
4.0
 40
5.0
 40
5.0
 40
5.0
 40
6.0
 40
6.0
 40
6.0
 40
7.0
 40
7.0
 40
7.0
 40
8.0
 40
8.0
 40
8.0
 40
9.0
 40
9.0
 40
9.0
 40
10.0
 40
10.0
 40
10.0
 40
11.0
 40
11.0
 40
11.0
 40
12.0
 40
12.0
 40
12.0
 40
13.0
 40
13.0
 40
13.0
 40
14.0
 40
14.0
 40
14.0
 40
15.0
 40
15.0
 40
15.0
 40
16.0
 40
16.0
 40
16.0
 40
17.0
 40
17.0
 40
17.0
 40
18.0
 40
18.0
 40
18.0
 40
19.0
 40
19.0
 40
19.0
 40
20.0
 40
20.0
 40
20.0
 40
21.0
 40
21.0
 40
21.0
 40
22.0
 40
22.0
 40
22.0
 40
23.0
 40
23.0
 40
23.0
 40
24.0
 40
24.0
 40
24.0
 40
25.0
 40
25.0
 40
25.0
 40
26.0
 40
26.0
 40
26.0
 40
27.0
 40
27.0
 40
27.0
 40
28.0
 40
28.0
 40
28.0
 40
29.0
 40
29.0
 40
29.0
 40
30.0
 40
30.0
 40
30.0
 40
31.0
 40
31.0
 40
31.0
 40
31.0
 10
160.630842389685
 20
-155.8291782083983
 30
0.0
 10
160.630842389685
 20
-155.8291782083983
 30
0.0
 10
160.630842389685
 20
-155.8508111741337
 30
0.0
 10
160.630842389685
 20
-155.8508111741337
 30
0.0
 10
160.629636642251
 20
-155.8568201402579
 30
0.0
 10
160.629636642251
 20
-155.864031128836
 30
0.0
 10
160.629636642251
 20
-155.871242117414
 30
0.0
 10
160.6284354794069
 20
-155.8772513700748
 30
0.0
 10
160.6284354794069
 20
-155.883260336199
 30
0.0
 10
160.6284354794069
 20
-155.890471324777
 30
0.0
 10
160.6272343165635
 20
-155.8964805774385
 30
0.0
 10
160.62603315372
 20
-155.902489543562
 30
0.0
 10
160.62603315372
 20
-155.9084987962234
 30
0.0
 10
160.6248319908766
 20
-155.9145077623476
 30
0.0
 10
160.6236308280325
 20
-155.9205170150084
 30
0.0
 10
160.6236308280325
 20
-155.9265259811326
 30
0.0
 10
160.6224250805985
 20
-155.9313332113388
 30
0.0
 10
160.6212239177551
 20
-155.9373424639997
 30
0.0
 10
160.620022754911
 20
-155.9433514301238
 30
0.0
 10
160.6188215920675
 20
-155.9481589468673
 30
0.0
 10
160.6176204292247
 20
-155.9541679129915
 30
0.0
 10
160.6164192663806
 20
-155.9601771656523
 30
0.0
 10
160.6152181035372
 20
-155.9649843958592
 30
0.0
 10
160.6140123561032
 20
-155.9697916260655
 30
0.0
 10
160.6128111932591
 20
-155.9745988562718
 30
0.0
 10
160.6116100304157
 20
-155.9794060864787
 30
0.0
 10
160.6104088675722
 20
-155.9842136032223
 30
0.0
 10
160.6092077047288
 20
-155.9890208334292
 30
0.0
 10
160.6080065418847
 20
-155.9938280636355
 30
0.0
 10
160.6068053790413
 20
-155.9986352938417
 30
0.0
 10
160.6043984687631
 20
-156.0022407881314
 30
0.0
 10
160.6031973059197
 20
-156.0070480183377
 30
0.0
 10
160.6031973059197
 20
-156.0118555350812
 30
0.0
 10
160.6007949802322
 20
-156.0166627652875
 30
0.0
 10
160.5995938173894
 20
-156.0202682595772
 30
0.0
 10
160.5983926545459
 20
-156.0238737538662
 30
0.0
 10
160.5971869071107
 20
-156.0274792481552
 30
0.0
 10
160.5959857442678
 20
-156.0322864783621
 30
0.0
 10
160.593583418581
 20
-156.0358919726511
 30
0.0
 10
160.593583418581
 20
-156.0394974669402
 30
0.0
 10
160.5923822557369
 20
-156.0419009387747
 30
0.0
 10
160.58997993005
 20
-156.0467081689816
 30
0.0
 10
160.5887741826153
 20
-156.0491119273534
 30
0.0
 10
160.5875730197719
 20
-156.0527174216424
 30
0.0
 10
160.5863718569285
 20
-156.0563229159321
 30
0.0
 10
160.5851706940844
 20
-156.0587266743032
 30
0.0
 10
160.5683452450931
 20
-156.099588560865
 30
0.0
 10
160.5467105601363
 20
-156.1380469755917
 30
0.0
 10
160.5226781340843
 20
-156.174101631946
 30
0.0
 10
160.5022446119709
 20
-156.2029452997228
 30
0.0
 10
160.4794087641706
 20
-156.2293854956639
 30
0.0
 10
160.4541705906834
 20
-156.2546236691517
 30
0.0
 10
160.4397520519696
 20
-156.2690456463084
 30
0.0
 10
160.4241277658218
 20
-156.2834673369279
 30
0.0
 10
160.408503479674
 20
-156.2966875781674
 30
0.0
 10
160.3928791935262
 20
-156.3075037744979
 30
0.0
 10
160.3784560702212
 20
-156.3183202573656
 30
0.0
 10
160.3628317840733
 20
-156.3291367402333
 30
0.0
 10
160.3303866335248
 20
-156.3507694194308
 30
0.0
 10
160.2955299881077
 20
-156.3699986267938
 30
0.0
 10
160.2594767644376
 20
-156.3844206039512
 30
0.0
 10
160.2414501526023
 20
-156.3928333284471
 30
0.0
 10
160.223423540767
 20
-156.3988425811073
 30
0.0
 10
160.204191181497
 20
-156.4048515472321
 30
0.0
 10
160.1849634068195
 20
-156.4108607998923
 30
0.0
 10
160.1657356321407
 20
-156.4156680300992
 30
0.0
 10
160.1465032728701
 20
-156.4192735243888
 30
0.0
 10
160.1380905483748
 20
-156.4216769962234
 30
0.0
 10
160.1272754981925
 20
-156.4228790186779
 30
0.0
 10
160.1176616108525
 20
-156.4240807545951
 30
0.0
 10
160.1080477235138
 20
-156.425282490513
 30
0.0
 10
160.0972326733309
 20
-156.4276862488842
 30
0.0
 10
160.0876142014004
 20
-156.4276862488842
 30
0.0
 10
160.0828095500259
 20
-156.4276862488842
 30
0.0
 10
160.078000314061
 20
-156.4276862488842
 30
0.0
 10
160.0731956626872
 20
-156.4288879848014
 30
0.0
 10
160.0683864267222
 20
-156.4288879848014
 30
0.0
 10
160.0635817753471
 20
-156.4300897207187
 30
0.0
 10
160.0587725393822
 20
-156.4300897207187
 30
0.0
 10
160.0587725393822
 20
-156.4300897207187
 30
0.0
 10
160.0515609777303
 20
-156.4300897207187
 30
0.0
 10
160.0515609777303
 20
-156.4300897207187
 30
0.0
 10
160.0515609777303
 20
-156.4300897207187
 30
0.0
 10
160.0443494160778
 20
-156.4300897207187
 30
0.0
 10
160.0443494160778
 20
-156.4300897207187
 30
0.0
 10
160.0443494160778
 20
-156.4300897207187
 30
0.0
 10
160.0371378544253
 20
-156.4300897207187
 30
0.0
 10
160.0371378544253
 20
-156.4300897207187
 30
0.0
 10
160.0371378544253
 20
-156.4312917431738
 30
0.0
 10
160.034735528739
 20
-156.4312917431738
 30
0.0
 10
160.0335343658956
 20
-156.4312917431738
 30
0.0
 10
160.0335343658956
 20
-156.4312917431738
 30
0.0
 10
160.02872512993
 20
-156.4312917431738
 30
0.0
 10
160.02872512993
 20
-156.4312917431738
 30
0.0
  0
SPLINE
  5
B5
330
A0
100
AcDbEntity
  8
Capa 2
 62
   178
420
      519
370
    30
100
AcDbSpline
210
0.0
220
0.0
230
1.0
 70
     8
 71
     3
 72
    74
 73
    70
 74
     0
 42
0.0000000001
 43
0.0000000001
 40
0.0
 40
0.0
 40
0.0
 40
0.0
 40
1.0
 40
1.0
 40
1.0
 40
2.0
 40
2.0
 40
2.0
 40
3.0
 40
3.0
 40
3.0
 40
4.0
 40
4.0
 40
4.0
 40
5.0
 40
5.0
 40
5.0
 40
6.0
 40
6.0
 40
6.0
 40
7.0
 40
7.0
 40
7.0
 40
8.0
 40
8.0
 40
8.0
 40
9.0
 40
9.0
 40
9.0
 40
10.0
 40
10.0
 40
10.0
 40
11.0
 40
11.0
 40
11.0
 40
12.0
 40
12.0
 40
12.0
 40
13.0
 40
13.0
 40
13.0
 40
14.0
 40
14.0
 40
14.0
 40
15.0
 40
15.0
 40
15.0
 40
16.0
 40
16.0
 40
16.0
 40
17.0
 40
17.0
 40
17.0
 40
18.0
 40
18.0
 40
18.0
 40
19.0
 40
19.0
 40
19.0
 40
20.0
 40
20.0
 40
20.0
 40
21.0
 40
21.0
 40
21.0
 40
22.0
 40
22.0
 40
22.0
 40
23.0
 40
23.0
 40
23.0
 40
23.0
 10
100.3499240474944
 20
-156.430570529701
 30
0.0
 10
100.3499240474944
 20
-156.430570529701
 30
0.0
 10
100.3451165307512
 20
-156.430570529701
 30
0.0
 10
100.3451165307512
 20
-156.430570529701
 30
0.0
 10
100.3451165307512
 20
-156.430570529701
 30
0.0
 10
100.3415107499249
 20
-156.430570529701
 30
0.0
 10
100.3415107499249
 20
-156.430570529701
 30
0.0
 10
100.3415107499249
 20
-156.430570529701
 30
0.0
 10
100.3355020703377
 20
-156.430570529701
 30
0.0
 10
100.3355020703377
 20
-156.430570529701
 30
0.0
 10
100.3355020703377
 20
-156.430570529701
 30
0.0
 10
100.3270893458424
 20
-156.430570529701
 30
0.0
 10
100.3270893458424
 20
-156.430570529701
 30
0.0
 10
100.3258870368506
 20
-156.4293687937837
 30
0.0
 10
100.3222818290985
 20
-156.4293687937837
 30
0.0
 10
100.3210800931809
 20
-156.4293687937837
 30
0.0
 10
100.3150708405205
 20
-156.4293687937837
 30
0.0
 10
100.3102633237766
 20
-156.4293687937837
 30
0.0
 10
100.3054563801069
 20
-156.4281670578658
 30
0.0
 10
100.300648863364
 20
-156.4281670578658
 30
0.0
 10
100.2958419196937
 20
-156.4281670578658
 30
0.0
 10
100.2910344029502
 20
-156.4281670578658
 30
0.0
 10
100.281419942537
 20
-156.4269653219486
 30
0.0
 10
100.2718054821241
 20
-156.4257632994941
 30
0.0
 10
100.2621904486374
 20
-156.4233598276596
 30
0.0
 10
100.2525759882235
 20
-156.4233598276596
 30
0.0
 10
100.2417597918931
 20
-156.4209560692878
 30
0.0
 10
100.2321453314802
 20
-156.418552310916
 30
0.0
 10
100.2129158375799
 20
-156.4149471031636
 30
0.0
 10
100.1936869167535
 20
-156.4101395864201
 30
0.0
 10
100.1756591587705
 20
-156.4041306202965
 30
0.0
 10
100.1564302379444
 20
-156.3981213676351
 30
0.0
 10
100.137201317118
 20
-156.3921124015116
 30
0.0
 10
100.1203752950526
 20
-156.3849014129329
 30
0.0
 10
100.0831191893174
 20
-156.3692776998589
 30
0.0
 10
100.0482659823428
 20
-156.3512502284131
 30
0.0
 10
100.0158168202772
 20
-156.3284158132977
 30
0.0
 10
100.0013948431205
 20
-156.3188010663479
 30
0.0
 10
99.98577113004653
 20
-156.3079845834802
 30
0.0
 10
99.97255146188122
 20
-156.2971683871491
 30
0.0
 10
99.95572601288962
 20
-156.2827464099924
 30
0.0
 10
99.94010229981563
 20
-156.2695264552901
 30
0.0
 10
99.92447858674132
 20
-156.2539027422161
 30
0.0
 10
99.90044214917171
 20
-156.2298663046462
 30
0.0
 10
99.87760744751904
 20
-156.2034261087045
 30
0.0
 10
99.85717621770154
 20
-156.1745824409283
 30
0.0
 10
99.83193804421432
 20
-156.1385277845733
 30
0.0
 10
99.81150681439682
 20
-156.1000693698467
 30
0.0
 10
99.79468136540525
 20
-156.0592074832855
 30
0.0
 10
99.79227789357008
 20
-156.0519964947075
 30
0.0
 10
99.78867268581797
 20
-156.0447855061288
 30
0.0
 10
99.78626864090962
 20
-156.0375745175501
 30
0.0
 10
99.78266343315718
 20
-156.0291617930548
 30
0.0
 10
99.78025938824885
 20
-156.0207490685588
 30
0.0
 10
99.77665418049609
 20
-156.0123363440629
 30
0.0
 10
99.77425070866125
 20
-156.0027215971131
 30
0.0
 10
99.7718466637529
 20
-155.9931071366999
 30
0.0
 10
99.76824145600046
 20
-155.9822906538322
 30
0.0
 10
99.76583798416626
 20
-155.972676193419
 30
0.0
 10
99.76343393925663
 20
-155.9618597105519
 30
0.0
 10
99.76103046742178
 20
-155.9510432276842
 30
0.0
 10
99.75862699558756
 20
-155.937823272982
 30
0.0
 10
99.75622295067827
 20
-155.925805054197
 30
0.0
 10
99.755021214761
 20
-155.913786835412
 30
0.0
 10
99.75261774292615
 20
-155.9005665941725
 30
0.0
 10
99.75141600700888
 20
-155.8873466394703
 30
0.0
 10
99.75021427109162
 20
-155.8729246623136
 30
0.0
 10
99.74901253517403
 20
-155.8585029716941
 30
0.0
 10
99.74901253517403
 20
-155.8440809945367
 30
0.0
 10
99.74781022618264
 20
-155.8284572814634
 30
0.0
  0
SPLINE
  5
B6
330
A0
100
AcDbEntity
  8
Capa 2
 62
   178
420
      519
370
    30
100
AcDbSpline
210
0.0
220
0.0
230
1.0
 70
     8
 71
     3
 72
     8
 73
     4
 74
     0
 42
0.0000000001
 43
0.0000000001
 40
0.0
 40
0.0
 40
0.0
 40
0.0
 40
1.0
 40
1.0
 40
1.0
 40
1.0
 10
132.6420655903912
 20
-141.8337092779591
 30
0.0
 10
132.8103200803063
 20
-141.4755667593196
 30
0.0
 10
132.8956484881079
 20
-141.0849745055408
 30
0.0
 10
132.8956484881079
 20
-140.6883729991012
 30
0.0
  0
SPLINE
  5
B7
330
A0
100
AcDbEntity
  8
Capa 2
 62
   178
420
      519
370
    30
100
AcDbSpline
210
0.0
220
0.0
230
1.0
 70
     8
 71
     3
 72
     8
 73
     4
 74
     0
 42
0.0000000001
 43
0.0000000001
 40
0.0
 40
0.0
 40
0.0
 40
0.0
 40
1.0
 40
1.0
 40
1.0
 40
1.0
 10
130.1897472306961
 20
-143.3951178212584
 30
0.0
 10
130.6752829257626
 20
-143.3951178212584
 30
0.0
 10
131.1524036040379
 20
-143.2641200101527
 30
0.0
 10
131.5694363402954
 20
-143.0177463817928
 30
0.0
  0
SPLINE
  5
B8
330
A0
100
AcDbEntity
  8
Capa 2
 62
   178
420
      519
370
    30
100
AcDbSpline
210
0.0
220
0.0
230
1.0
 70
     8
 71
     3
 72
     8
 73
     4
 74
     0
 42
0.0000000001
 43
0.0000000001
 40
0.0
 40
0.0
 40
0.0
 40
0.0
 40
1.0
 40
1.0
 40
1.0
 40
1.0
 10
131.5696793236197
 20
-143.0169039631957
 30
0.0
 10
132.0371884068516
 20
-142.7392829086876
 30
0.0
 10
132.4121529360387
 20
-142.3270582622481
 30
0.0
 10
132.6429045705457
 20
-141.8331086965373
 30
0.0
  0
SPLINE
  5
B9
330
A0
100
AcDbEntity
  8
Capa 2
 62
   178
420
      519
370
    30
100
AcDbSpline
210
0.0
220
0.0
230
1.0
 70
     8
 71
     3
 72
     8
 73
     4
 74
     0
 42
0.0000000001
 43
0.0000000001
 40
0.0
 40
0.0
 40
0.0
 40
0.0
 40
1.0
 40
1.0
 40
1.0
 40
1.0
 10
132.8963728534864
 20
-140.6883718529535
 30
0.0
 10
132.8963728534864
 20
-140.2028361578864
 30
0.0
 10
132.7653727500848
 20
-139.7257131873154
 30
0.0
 10
132.51899682943
 20
-139.308680451058
 30
0.0
  0
SPLINE
  5
BA
330
A0
100
AcDbEntity
  8
Capa 2
 62
   178
420
      519
370
    30
100
AcDbSpline
210
0.0
220
0.0
230
1.0
 70
     8
 71
     3
 72
     8
 73
     4
 74
     0
 42
0.0000000001
 43
0.0000000001
 40
0.0
 40
0.0
 40
0.0
 40
0.0
 40
1.0
 40
1.0
 40
1.0
 40
1.0
 10
132.5181578492762
 20
-139.3084374677346
 30
0.0
 10
132.2405333563245
 20
-138.8409283845015
 30
0.0
 10
131.8283098560333
 20
-138.4659615630184
 30
0.0
 10
131.3343614364701
 20
-138.2352099285114
 30
0.0
  0
SPLINE
  5
BB
330
A0
100
AcDbEntity
  8
Capa 2
 62
   178
420
      519
370
    30
100
AcDbSpline
210
0.0
220
0.0
230
1.0
 70
     8
 71
     3
 72
     8
 73
     4
 74
     0
 42
0.0000000001
 43
0.0000000001
 40
0.0
 40
0.0
 40
0.0
 40
0.0
 40
1.0
 40
1.0
 40
1.0
 40
1.0
 10
131.3349666024827
 20
-138.2359320015947
 30
0.0
 10
130.9768229376956
 20
-138.068878674523
 30
0.0
 10
130.5862295377695
 20
-137.9823491038786
 30
0.0
 10
130.1896280313295
 20
-137.9823491038786
 30
0.0
  0
SPLINE
  5
BC
330
A0
100
AcDbEntity
  8
Capa 2
 62
   178
420
      519
370
    30
100
AcDbSpline
210
0.0
220
0.0
230
1.0
 70
     8
 71
     3
 72
    11
 73
     7
 74
     0
 42
0.0000000001
 43
0.0000000001
 40
0.0
 40
0.0
 40
0.0
 40
0.0
 40
1.0
 40
1.0
 40
1.0
 40
2.0
 40
2.0
 40
2.0
 40
2.0
 10
130.1897472306961
 20
-137.9817462301612
 30
0.0
 10
129.4710552831391
 20
-137.9817462301612
 30
0.0
 10
128.7836142001743
 20
-138.2665799924689
 30
0.0
 10
128.2752426573068
 20
-138.7749515353364
 30
0.0
 10
127.7680722772834
 20
-139.2821196230655
 30
0.0
 10
127.4832408072704
 20
-139.9707641611697
 30
0.0
 10
127.4832408072704
 20
-140.6882526535873
 30
0.0
  0
SPLINE
  5
BD
330
A0
100
AcDbEntity
  8
Capa 2
 62
   178
420
      519
370
    30
100
AcDbSpline
210
0.0
220
0.0
230
1.0
 70
     8
 71
     3
 72
    11
 73
     7
 74
     0
 42
0.0000000001
 43
0.0000000001
 40
0.0
 40
0.0
 40
0.0
 40
0.0
 40
1.0
 40
1.0
 40
1.0
 40
2.0
 40
2.0
 40
2.0
 40
2.0
 10
127.4830024085385
 20
-140.6883718529535
 30
0.0
 10
127.4830024085385
 20
-141.4070626543626
 30
0.0
 10
127.7678338785509
 20
-142.0945048834753
 30
0.0
 10
128.2762054214171
 20
-142.6028764263425
 30
0.0
 10
128.7833735091459
 20
-143.1100456602186
 30
0.0
 10
129.4720180472501
 20
-143.3948782763786
 30
0.0
 10
130.1895065396677
 20
-143.3948782763786
 30
0.0
  0
SPLINE
  5
BE
330
A0
100
AcDbEntity
  8
Capa 2
 62
   178
420
      519
370
    30
100
AcDbSpline
210
0.0
220
0.0
230
1.0
 70
     8
 71
     3
 72
    14
 73
    10
 74
     0
 42
0.0000000001
 43
0.0000000001
 40
0.0
 40
0.0
 40
0.0
 40
0.0
 40
1.0
 40
1.0
 40
1.0
 40
2.0
 40
2.0
 40
2.0
 40
3.0
 40
3.0
 40
3.0
 40
3.0
 10
130.1897472306961
 20
-142.4177953412882
 30
0.0
 10
130.8074841920077
 20
-142.4177953412882
 30
0.0
 10
131.37834600258
 20
-142.0884967769622
 30
0.0
 10
131.6872144832367
 20
-141.5536847516167
 30
0.0
 10
131.9960829638922
 20
-141.0188738724183
 30
0.0
 10
131.9960829638922
 20
-140.3578709796364
 30
0.0
 10
131.6872144832367
 20
-139.8230601004383
 30
0.0
 10
131.37834600258
 20
-139.2882492212401
 30
0.0
 10
130.8074841920077
 20
-138.9589495107655
 30
0.0
 10
130.1897472306961
 20
-138.9589495107655
 30
0.0
  0
SPLINE
  5
BF
330
A0
100
AcDbEntity
  8
Capa 2
 62
   178
420
      519
370
    30
100
AcDbSpline
210
0.0
220
0.0
230
1.0
 70
     8
 71
     3
 72
    17
 73
    13
 74
     0
 42
0.0000000001
 43
0.0000000001
 40
0.0
 40
0.0
 40
0.0
 40
0.0
 40
1.0
 40
1.0
 40
1.0
 40
2.0
 40
2.0
 40
2.0
 40
3.0
 40
3.0
 40
3.0
 40
4.0
 40
4.0
 40
4.0
 40
4.0
 10
130.1897472306961
 20
-138.9589472184703
 30
0.0
 10
129.731852034803
 20
-138.9589472184703
 30
0.0
 10
129.2907822879018
 20
-139.1416248316907
 30
0.0
 10
128.9662895210978
 20
-139.4661175984947
 30
0.0
 10
128.6417990465892
 20
-139.7894069101596
 30
0.0
 10
128.4603225962132
 20
-140.2292743480697
 30
0.0
 10
128.4603225962132
 20
-140.6883707068059
 30
0.0
 10
128.4603225962132
 20
-141.1474670655418
 30
0.0
 10
128.6417990465892
 20
-141.5873345034519
 30
0.0
 10
128.9662895210978
 20
-141.9106249612644
 30
0.0
 10
129.2907822879018
 20
-142.2351177280684
 30
0.0
 10
129.731852034803
 20
-142.4177941951406
 30
0.0
 10
130.1897472306961
 20
-142.4177941951406
 30
0.0
  0
LWPOLYLINE
  5
C0
330
A0
100
AcDbEntity
  8
Capa 2
100
AcDbPolyline
 90
        4
 70
     1
 43
0.0
 10
98.62446680345412
 20
-112.2873715533666
 10
169.685854331593
 20
-112.2873715533666
 10
169.685854331593
 20
-39.67322660515588
 10
98.62446680345412
 20
-39.67322660515588
  0
ENDBLK
  5
A3
330
A0
100
AcDbEntity
  8
0
100
AcDbBlockEnd
  0
BLOCK
  5
C3
330
C1
100
AcDbEntity
  8
0
100
AcDbBlockBegin
  2
Block_7
 70
     0
 10
0.0
 20
0.0
 30
0.0
  3
Block_7
  1

  0
MTEXT
  5
C5
330
C1
100
AcDbEntity
  8
Capa 2
100
AcDbMText
 10
166.2875243724906
 20
-143.0320963184087
 30
0.0
 40
0.2
 41
0.0
 46
0.0
 71
     7
 72
     1
  1
\C178;\c459264;\FArial Bold|b1|i0|c1;\H4.116779;\W1.000000;460
 11
0.0000000000000001
 21
1.0
 31
0.0
 73
     1
 44
1.0
  0
LWPOLYLINE
  5
C6
330
C1
100
AcDbEntity
  8
Capa 2
100
AcDbPolyline
 90
        4
 70
     1
 43
0.0
 10
98.62446680345412
 20
-112.2873715533666
 10
169.685854331593
 20
-112.2873715533666
 10
169.685854331593
 20
-39.67322660515588
 10
98.62446680345412
 20
-39.67322660515588
  0
ENDBLK
  5
C4
330
C1
100
AcDbEntity
  8
0
100
AcDbBlockEnd
  0
BLOCK
  5
CA
330
C8
100
AcDbEntity
  8
0
100
AcDbBlockBegin
  2
Block_8
 70
     0
 10
0.0
 20
0.0
 30
0.0
  3
Block_8
  1

  0
SPLINE
  5
CC
330
C8
100
AcDbEntity
  8
Capa 2
 62
   178
420
      519
370
    30
100
AcDbSpline
210
0.0
220
0.0
230
1.0
 70
     8
 71
     3
 72
     8
 73
     4
 74
     0
 42
0.0000000001
 43
0.0000000001
 40
0.0
 40
0.0
 40
0.0
 40
0.0
 40
1.0
 40
1.0
 40
1.0
 40
1.0
 10
159.7124112734807
 20
-170.7827412710562
 30
0.0
 10
159.8698461286218
 20
-170.740677648577
 30
0.0
 10
160.0200740067016
 20
-170.6697700717851
 30
0.0
 10
160.1558833460682
 20
-170.5712208496709
 30
0.0
  0
SPLINE
  5
CD
330
C8
100
AcDbEntity
  8
Capa 2
 62
   178
420
      519
370
    30
100
AcDbSpline
210
0.0
220
0.0
230
1.0
 70
     8
 71
     3
 72
     8
 73
     4
 74
     0
 42
0.0000000001
 43
0.0000000001
 40
0.0
 40
0.0
 40
0.0
 40
0.0
 40
1.0
 40
1.0
 40
1.0
 40
1.0
 10
101.6660403528382
 20
-170.5715807400645
 30
0.0
 10
101.8018462537612
 20
-170.668928799336
 30
0.0
 10
101.9520741318413
 20
-170.741038685119
 30
0.0
 10
102.1095124254263
 20
-170.7831023075981
 30
0.0
  0
SPLINE
  5
CE
330
C8
100
AcDbEntity
  8
Capa 2
 62
   178
420
      519
370
    30
100
AcDbSpline
210
0.0
220
0.0
230
1.0
 70
     8
 71
     3
 72
     8
 73
     4
 74
     0
 42
0.0000000001
 43
0.0000000001
 40
0.0
 40
0.0
 40
0.0
 40
0.0
 40
1.0
 40
1.0
 40
1.0
 40
1.0
 10
159.7124112734807
 20
-207.8771301431895
 30
0.0
 10
159.8698461286218
 20
-207.8350665207103
 30
0.0
 10
160.0200740067016
 20
-207.7641612362137
 30
0.0
 10
160.1558833460682
 20
-207.6656108679518
 30
0.0
  0
SPLINE
  5
CF
330
C8
100
AcDbEntity
  8
Capa 2
 62
   178
420
      519
370
    30
100
AcDbSpline
210
0.0
220
0.0
230
1.0
 70
     8
 71
     3
 72
     8
 73
     4
 74
     0
 42
0.0000000001
 43
0.0000000001
 40
0.0
 40
0.0
 40
0.0
 40
0.0
 40
1.0
 40
1.0
 40
1.0
 40
1.0
 10
101.6660403528382
 20
-207.6660876654167
 30
0.0
 10
101.8018462537612
 20
-207.7634368708352
 30
0.0
 10
101.9520741318413
 20
-207.8355479027665
 30
0.0
 10
102.1095124254263
 20
-207.8776115252456
 30
0.0
  0
SPLINE
  5
D0
330
C8
100
AcDbEntity
  8
Capa 2
 62
   178
420
      519
370
    30
100
AcDbSpline
210
0.0
220
0.0
230
1.0
 70
     8
 71
     3
 72
     8
 73
     4
 74
     0
 42
0.0000000001
 43
0.0000000001
 40
0.0
 40
0.0
 40
0.0
 40
0.0
 40
1.0
 40
1.0
 40
1.0
 40
1.0
 10
159.7124112734807
 20
-189.3299953068058
 30
0.0
 10
159.8698461286218
 20
-189.2879316843273
 30
0.0
 10
160.0200740067016
 20
-189.2170241075348
 30
0.0
 10
160.1558833460682
 20
-189.1184760315681
 30
0.0
  0
SPLINE
  5
D1
330
C8
100
AcDbEntity
  8
Capa 2
 62
   178
420
      519
370
    30
100
AcDbSpline
210
0.0
220
0.0
230
1.0
 70
     8
 71
     3
 72
     8
 73
     4
 74
     0
 42
0.0000000001
 43
0.0000000001
 40
0.0
 40
0.0
 40
0.0
 40
0.0
 40
1.0
 40
1.0
 40
1.0
 40
1.0
 10
101.6660403528382
 20
-189.1188359219624
 30
0.0
 10
101.8018462537612
 20
-189.2161851273809
 30
0.0
 10
101.9520741318413
 20
-189.2882938670169
 30
0.0
 10
102.1095124254263
 20
-189.3303574894947
 30
0.0
  0
LWPOLYLINE
  5
D2
330
C8
100
AcDbEntity
  8
Capa 2
100
AcDbPolyline
 90
        4
 70
     1
 43
0.0
 10
98.62446680345412
 20
-112.2873715533666
 10
169.685854331593
 20
-112.2873715533666
 10
169.685854331593
 20
-39.67322660515588
 10
98.62446680345412
 20
-39.67322660515588
  0
ENDBLK
  5
CB
330
C8
100
AcDbEntity
  8
0
100
AcDbBlockEnd
  0
BLOCK
  5
D5
330
D3
100
AcDbEntity
  8
0
100
AcDbBlockBegin
  2
Block_9
 70
     0
 10
0.0
 20
0.0
 30
0.0
  3
Block_9
  1

  0
MTEXT
  5
D7
330
D3
100
AcDbEntity
  8
Capa 2
100
AcDbMText
 10
166.2778781051319
 20
-202.8220729744681
 30
0.0
 40
0.2
 41
0.0
 46
0.0
 71
     7
 72
     1
  1
\C178;\c459264;\FArial Bold|b1|i0|c1;\H4.116779;\W1.000000;740
 11
0.0000000000000001
 21
1.0
 31
0.0
 73
     1
 44
1.0
  0
MTEXT
  5
D8
330
D3
100
AcDbEntity
  8
Capa 2
100
AcDbMText
 10
166.2778781051319
 20
-234.2854410221578
 30
0.0
 40
0.2
 41
0.0
 46
0.0
 71
     7
 72
     1
  1
\C178;\c459264;\FArial Bold|b1|i0|c1;\H4.116779;\W1.000000;110
 11
0.0000000000000001
 21
1.0
 31
0.0
 73
     1
 44
1.0
  0
MTEXT
  5
D9
330
D3
100
AcDbEntity
  8
Capa 2
100
AcDbMText
 10
114.2937987995515
 20
-243.4214897394919
 30
0.0
 40
0.2
 41
0.0
 46
0.0
 71
     7
 72
     1
  1
\C178;\c459264;\FArial Bold|b1|i0|c1;\H4.116779;\W1.000000;600/800/1000
 73
     1
 44
1.0
  0
LWPOLYLINE
  5
DA
330
D3
100
AcDbEntity
  8
Capa 2
100
AcDbPolyline
 90
        4
 70
     1
 43
0.0
 10
98.62446680345412
 20
-112.2873715533666
 10
169.685854331593
 20
-112.2873715533666
 10
169.685854331593
 20
-39.67322660515588
 10
98.62446680345412
 20
-39.67322660515588
  0
ENDBLK
  5
D6
330
D3
100
AcDbEntity
  8
0
100
AcDbBlockEnd
  0
BLOCK
  5
E8
330
E6
100
AcDbEntity
  8
0
100
AcDbBlockBegin
  2
Block_10
 70
     0
 10
0.0
 20
0.0
 30
0.0
  3
Block_10
  1

  0
INSERT
  5
EB
330
E6
100
AcDbEntity
  8
Capa 2
100
AcDbBlockReference
  2
Block_11
 10
0.0
 20
0.0
 30
0.0
  0
ENDBLK
  5
E9
330
E6
100
AcDbEntity
  8
0
100
AcDbBlockEnd
  0
BLOCK
  5
EC
330
EA
100
AcDbEntity
  8
0
100
AcDbBlockBegin
  2
Block_11
 70
     0
 10
0.0
 20
0.0
 30
0.0
  3
Block_11
  1

  0
LINE
  5
EE
330
EA
100
AcDbEntity
  8
Capa 2
 62
   178
420
      519
370
    30
100
AcDbLine
 10
160.0293302959432
 20
-155.6588798505057
 30
0.0
 11
100.3504025641808
 21
-155.6588798505057
 31
0.0
  0
LINE
  5
EF
330
EA
100
AcDbEntity
  8
Capa 2
 62
   178
420
      519
370
    30
100
AcDbLine
 10
100.3499240474944
 20
-155.6588798505057
 30
0.0
 11
100.3499240474944
 21
-123.0678447508322
 31
0.0
  0
LINE
  5
F0
330
EA
100
AcDbEntity
  8
Capa 2
 62
   178
420
      519
370
    30
100
AcDbLine
 10
160.0293302959432
 20
-123.0676017675085
 30
0.0
 11
160.0293302959432
 21
-155.6586385864036
 31
0.0
  0
INSERT
  5
F2
330
EA
100
AcDbEntity
  8
Capa 2
100
AcDbBlockReference
  2
Block_12
 10
0.0
 20
0.0
 30
0.0
  0
LINE
  5
FE
330
EA
100
AcDbEntity
  8
Capa 2
 62
   178
420
      519
370
    30
100
AcDbLine
 10
160.0229622990358
 20
-122.7739976826069
 30
0.0
 11
100.3560553648911
 21
-122.7739976826069
 31
0.0
  0
INSERT
  5
100
330
EA
100
AcDbEntity
  8
Capa 2
100
AcDbBlockReference
  2
Block_13
 10
0.0
 20
0.0
 30
0.0
  0
LINE
  5
106
330
EA
100
AcDbEntity
  8
Capa 2
 62
   178
420
      519
370
    30
100
AcDbLine
 10
160.630842389685
 20
-155.6588798505057
 30
0.0
 11
160.6404562770244
 21
-155.6684945974556
 31
0.0
  0
LINE
  5
107
330
EA
100
AcDbEntity
  8
Capa 2
 62
   178
420
      519
370
    30
100
AcDbLine
 10
160.6402178782919
 20
-155.6681338474508
 30
0.0
 11
160.6402178782919
 21
-121.9089266211197
 31
0.0
  0
LINE
  5
108
330
EA
100
AcDbEntity
  8
Capa 2
 62
   178
420
      519
370
    30
100
AcDbLine
 10
99.73915738373341
 20
-121.90940571088
 30
0.0
 11
99.73915738373341
 21
-155.6686146564325
 31
0.0
  0
LINE
  5
109
330
EA
100
AcDbEntity
  8
Capa 2
 62
   178
420
      519
370
    30
100
AcDbLine
 10
99.73915738373341
 20
-155.6681338474508
 30
0.0
 11
99.74877184414598
 21
-155.6585193870376
 31
0.0
  0
LINE
  5
10A
330
EA
100
AcDbEntity
  8
Capa 2
 62
   178
420
      519
370
    30
100
AcDbLine
 10
160.4146330778489
 20
-121.6839446943934
 30
0.0
 11
99.96413701816379
 21
-121.6839446943934
 31
0.0
  0
INSERT
  5
10C
330
EA
100
AcDbEntity
  8
Capa 2
100
AcDbBlockReference
  2
Block_14
 10
0.0
 20
0.0
 30
0.0
  0
LWPOLYLINE
  5
116
330
EA
100
AcDbEntity
  8
Capa 2
 62
   178
420
      519
370
    30
100
AcDbPolyline
 90
        3
 70
     0
 43
0.0
 10
160.0293302959432
 20
-156.2602721718078
 10
160.0293302959432
 20
-156.0799988900339
 10
160.0293302959432
 20
-155.6581589235702
  0
LWPOLYLINE
  5
117
330
EA
100
AcDbEntity
  8
Capa 2
 62
   178
420
      519
370
    30
100
AcDbPolyline
 90
        3
 70
     0
 43
0.0
 10
160.0293302959432
 20
-155.6588798505057
 10
160.4511676835745
 20
-155.6588798505057
 10
160.6314429711064
 20
-155.6588798505057
  0
INSERT
  5
119
330
EA
100
AcDbEntity
  8
Capa 2
100
AcDbBlockReference
  2
Block_15
 10
0.0
 20
0.0
 30
0.0
  0
LWPOLYLINE
  5
11E
330
EA
100
AcDbEntity
  8
Capa 2
 62
   178
420
      519
370
    30
100
AcDbPolyline
 90
        3
 70
     0
 43
0.0
 10
100.3499240474944
 20
-155.6588798505057
 10
100.3499240474944
 20
-156.0807198169695
 10
100.3499240474944
 20
-156.2609933852806
  0
LINE
  5
11F
330
EA
100
AcDbEntity
  8
Capa 2
 62
   178
420
      519
370
    30
100
AcDbLine
 10
160.0293302959432
 20
-156.2602721718078
 30
0.0
 11
100.3504025641808
 21
-156.2602721718078
 31
0.0
  0
LWPOLYLINE
  5
120
330
EA
100
AcDbEntity
  8
Capa 2
 62
   178
420
      519
370
    30
100
AcDbPolyline
 90
        3
 70
     0
 43
0.0
 10
100.3499240474944
 20
-155.6588798505057
 10
99.92808379449344
 20
-155.6588798505057
 10
99.74781022618264
 20
-155.6588798505057
  0
INSERT
  5
122
330
EA
100
AcDbEntity
  8
Capa 2
100
AcDbBlockReference
  2
Block_16
 10
0.0
 20
0.0
 30
0.0
  0
LINE
  5
12F
330
EA
100
AcDbEntity
  8
Capa 2
 62
   178
420
      519
370
    30
100
AcDbLine
 10
160.0387057845495
 20
-156.2696465142671
 30
0.0
 11
160.0290873126196
 21
-156.2600320538539
 31
0.0
  0
LINE
  5
130
330
EA
100
AcDbEntity
  8
Capa 2
 62
   178
420
      519
370
    30
100
AcDbLine
 10
100.3499240474944
 20
-156.2602721718078
 30
0.0
 11
100.3403090140073
 21
-156.2698869187582
 31
0.0
  0
LINE
  5
131
330
EA
100
AcDbEntity
  8
Capa 2
 62
   178
420
      519
370
     9
100
AcDbLine
 10
100.3406700505493
 20
-156.2696465142671
 30
0.0
 11
160.0388249839161
 21
-156.2696465142671
 31
0.0
  0
INSERT
  5
133
330
EA
100
AcDbEntity
  8
Capa 2
100
AcDbBlockReference
  2
Block_17
 10
0.0
 20
0.0
 30
0.0
  0
INSERT
  5
13A
330
EA
100
AcDbEntity
  8
Capa 2
100
AcDbBlockReference
  2
Block_18
 10
0.0
 20
0.0
 30
0.0
  0
LWPOLYLINE
  5
157
330
EA
100
AcDbEntity
  8
Capa 2
100
AcDbPolyline
 90
        4
 70
     1
 43
0.0
 10
81.61145990158964
 20
-160.1620147087461
 10
180.5025091212769
 20
-160.1620147087461
 10
180.5025091212769
 20
-108.6445243089722
 10
81.61145990158964
 20
-108.6445243089722
  0
ENDBLK
  5
ED
330
EA
100
AcDbEntity
  8
0
100
AcDbBlockEnd
  0
BLOCK
  5
F3
330
F1
100
AcDbEntity
  8
0
100
AcDbBlockBegin
  2
Block_12
 70
     0
 10
0.0
 20
0.0
 30
0.0
  3
Block_12
  1

  0
SPLINE
  5
F5
330
F1
100
AcDbEntity
  8
Capa 2
 62
   178
420
      519
370
    30
100
AcDbSpline
210
0.0
220
0.0
230
1.0
 70
     8
 71
     3
 72
    14
 73
    10
 74
     0
 42
0.0000000001
 43
0.0000000001
 40
0.0
 40
0.0
 40
0.0
 40
0.0
 40
1.0
 40
1.0
 40
1.0
 40
2.0
 40
2.0
 40
2.0
 40
3.0
 40
3.0
 40
3.0
 40
3.0
 10
130.1897472306961
 20
-126.7590021229507
 30
0.0
 10
130.6596586396142
 20
-126.7590021229507
 30
0.0
 10
131.0935145325682
 20
-126.5078215509214
 30
0.0
 10
131.3290754030402
 20
-126.100404994299
 30
0.0
 10
131.5634305260782
 20
-125.6941873082244
 30
0.0
 10
131.5634305260782
 20
-125.1918261641656
 30
0.0
 10
131.3290754030402
 20
-124.7844073152479
 30
0.0
 10
131.0935145325682
 20
-124.3781919214686
 30
0.0
 10
130.6596586396142
 20
-124.1282125122831
 30
0.0
 10
130.1897472306961
 20
-124.1282125122831
 30
0.0
  0
SPLINE
  5
F6
330
F1
100
AcDbEntity
  8
Capa 2
 62
   178
420
      519
370
    30
100
AcDbSpline
210
0.0
220
0.0
230
1.0
 70
     8
 71
     3
 72
    17
 73
    13
 74
     0
 42
0.0000000001
 43
0.0000000001
 40
0.0
 40
0.0
 40
0.0
 40
0.0
 40
1.0
 40
1.0
 40
1.0
 40
2.0
 40
2.0
 40
2.0
 40
3.0
 40
3.0
 40
3.0
 40
4.0
 40
4.0
 40
4.0
 40
4.0
 10
130.1897472306961
 20
-124.1273712398336
 30
0.0
 10
129.8412174532477
 20
-124.1273712398336
 30
0.0
 10
129.5071107991044
 20
-124.2655829048871
 30
0.0
 10
129.2595360079014
 20
-124.5131576960904
 30
0.0
 10
129.0119589244026
 20
-124.7595313244496
 30
0.0
 10
128.8737495516444
 20
-125.0948391414367
 30
0.0
 10
128.8737495516444
 20
-125.4433689188844
 30
0.0
 10
128.8737495516444
 20
-125.7918964040368
 30
0.0
 10
129.0119589244026
 20
-126.1272065133192
 30
0.0
 10
129.2595360079014
 20
-126.3735801416791
 30
0.0
 10
129.5071107991044
 20
-126.6199537700382
 30
0.0
 10
129.8412174532477
 20
-126.7581631427965
 30
0.0
 10
130.1897472306961
 20
-126.7581631427965
 30
0.0
  0
SPLINE
  5
F7
330
F1
100
AcDbEntity
  8
Capa 2
 62
   178
420
      519
370
    30
100
AcDbSpline
210
0.0
220
0.0
230
1.0
 70
     8
 71
     3
 72
    89
 73
    85
 74
     0
 42
0.0000000001
 43
0.0000000001
 40
0.0
 40
0.0
 40
0.0
 40
0.0
 40
1.0
 40
1.0
 40
1.0
 40
2.0
 40
2.0
 40
2.0
 40
3.0
 40
3.0
 40
3.0
 40
4.0
 40
4.0
 40
4.0
 40
5.0
 40
5.0
 40
5.0
 40
6.0
 40
6.0
 40
6.0
 40
7.0
 40
7.0
 40
7.0
 40
8.0
 40
8.0
 40
8.0
 40
9.0
 40
9.0
 40
9.0
 40
10.0
 40
10.0
 40
10.0
 40
11.0
 40
11.0
 40
11.0
 40
12.0
 40
12.0
 40
12.0
 40
13.0
 40
13.0
 40
13.0
 40
14.0
 40
14.0
 40
14.0
 40
15.0
 40
15.0
 40
15.0
 40
16.0
 40
16.0
 40
16.0
 40
17.0
 40
17.0
 40
17.0
 40
18.0
 40
18.0
 40
18.0
 40
19.0
 40
19.0
 40
19.0
 40
20.0
 40
20.0
 40
20.0
 40
21.0
 40
21.0
 40
21.0
 40
22.0
 40
22.0
 40
22.0
 40
23.0
 40
23.0
 40
23.0
 40
24.0
 40
24.0
 40
24.0
 40
25.0
 40
25.0
 40
25.0
 40
26.0
 40
26.0
 40
26.0
 40
27.0
 40
27.0
 40
27.0
 40
28.0
 40
28.0
 40
28.0
 40
28.0
 10
130.1897472306961
 20
-129.8141575231897
 30
0.0
 10
128.9987392562369
 20
-129.8141575231897
 30
0.0
 10
127.8065301189356
 20
-129.818966759155
 30
0.0
 10
126.6155244367723
 20
-129.8273794836506
 30
0.0
 10
125.4245187546104
 20
-129.8357922081465
 30
0.0
 10
124.2323096173077
 20
-129.8466072583291
 30
0.0
 10
123.0413039351458
 20
-129.8562234379641
 30
0.0
 10
121.8502959606879
 20
-129.8670384881469
 30
0.0
 10
120.6592902785246
 20
-129.8766523754863
 30
0.0
 10
119.4670811412233
 20
-129.8874697179644
 30
0.0
 10
118.8721800277113
 20
-129.8922766616338
 30
0.0
 10
118.27607545906
 20
-129.8970836053038
 30
0.0
 10
117.6799708904087
 20
-129.9018928412688
 30
0.0
 10
117.5321476303118
 20
-129.9030940041122
 30
0.0
 10
117.3831209150755
 20
-129.904295166956
 30
0.0
 10
117.2340941998385
 20
-129.9054963297994
 30
0.0
 10
117.0850674846021
 20
-129.9066997849384
 30
0.0
 10
116.9360430616604
 20
-129.9066997849384
 30
0.0
 10
116.7870163464241
 20
-129.9115067286085
 30
0.0
 10
116.6391930863265
 20
-129.9163136722778
 30
0.0
 10
116.4889652082468
 20
-129.9259275596172
 30
0.0
 10
116.3411396558532
 20
-129.9391472277826
 30
0.0
 10
116.1921129406163
 20
-129.9523691882435
 30
0.0
 10
116.0430885176759
 20
-129.9715969629219
 30
0.0
 10
115.8964664204211
 20
-129.9944328107223
 30
0.0
 10
115.602018770774
 20
-130.0388987588882
 30
0.0
 10
115.3123803570926
 20
-130.1025970663236
 30
0.0
 10
115.0299512127678
 20
-130.1807139124727
 30
0.0
 10
114.7475220684423
 20
-130.2588330509168
 30
0.0
 10
114.468698704943
 20
-130.3537776383528
 30
0.0
 10
114.1958857402522
 20
-130.46554767478
 30
0.0
 10
113.9218693204233
 20
-130.5761142560686
 30
0.0
 10
113.6550644622456
 20
-130.7023051235052
 30
0.0
 10
113.3918653848949
 20
-130.8453237322284
 30
0.0
 10
113.3257670440679
 20
-130.8801757930553
 30
0.0
 10
113.2608675737885
 20
-130.9174324718644
 30
0.0
 10
113.1971715586485
 20
-130.9546891506735
 30
0.0
 10
113.1322720883704
 20
-130.9919458294825
 30
0.0
 10
113.0685760732303
 20
-131.0292025082916
 30
0.0
 10
113.0048800580903
 20
-131.0688615127876
 30
0.0
 10
112.8786868983583
 20
-131.1469806512324
 30
0.0
 10
112.7549006489045
 20
-131.227502115364
 30
0.0
 10
112.6335167251375
 20
-131.3116293603215
 30
0.0
 10
112.3895454224649
 20
-131.4786826873932
 30
0.0
 10
112.156391462271
 20
-131.6589579749258
 30
0.0
 10
111.9316502265724
 20
-131.8500460203453
 30
0.0
 10
111.7069112831698
 20
-132.0411363580607
 30
0.0
 10
111.4917850809576
 20
-132.2442452010983
 30
0.0
 10
111.2838692942509
 20
-132.4569679314747
 30
0.0
 10
111.2333929472765
 20
-132.5098466041363
 30
0.0
 10
111.181714291311
 20
-132.563928731937
 30
0.0
 10
111.131237944336
 20
-132.6192143148767
 30
0.0
 10
111.0807615973616
 20
-132.6744976055211
 30
0.0
 10
111.0302841042389
 20
-132.7297808961649
 30
0.0
 10
110.9810100662556
 20
-132.7850641868093
 30
0.0
 10
110.8824596979943
 20
-132.8968342232369
 30
0.0
 10
110.7875174028539
 20
-133.0098054225082
 30
0.0
 10
110.693773978261
 20
-133.1251812397617
 30
0.0
 10
110.508694039354
 20
-133.3547294191293
 30
0.0
 10
110.3344291506311
 20
-133.5926903229932
 30
0.0
 10
110.1721827672285
 20
-133.8354581705265
 30
0.0
 10
109.8440842195983
 20
-134.3209938655937
 30
0.0
 10
109.559252749586
 20
-134.8329711892874
 30
0.0
 10
109.3140802840705
 20
-135.3665809056415
 30
0.0
 10
109.1914951974601
 20
-135.6345869266623
 30
0.0
 10
109.077322835345
 20
-135.9074021836487
 30
0.0
 10
108.9751666862568
 20
-136.186223254852
 30
0.0
 10
108.9487273499262
 20
-136.2559296688005
 30
0.0
 10
108.923489176439
 20
-136.3256360827493
 30
0.0
 10
108.8994521657952
 20
-136.3965436595409
 30
0.0
 10
108.874213992308
 20
-136.4662477811947
 30
0.0
 10
108.851380436803
 20
-136.5371553579866
 30
0.0
 10
108.8273434261599
 20
-136.6068617719354
 30
0.0
 10
108.7804728600111
 20
-136.7486769255195
 30
0.0
 10
108.7372057823926
 20
-136.8892909162606
 30
0.0
 10
108.6963433227583
 20
-137.0311060698447
 30
0.0
 10
108.5328957765122
 20
-137.5983666841825
 30
0.0
 10
108.4127130155893
 20
-138.1728365678767
 30
0.0
 10
108.3309903886146
 20
-138.7545203055186
 30
0.0
 10
108.2901279289789
 20
-139.0441587192016
 30
0.0
 10
108.260082811822
 20
-139.3362017508662
 30
0.0
 10
108.2408527448473
 20
-139.6306494005132
 30
0.0
 10
108.2192203521864
 20
-139.925094757865
 30
0.0
 10
108.2096064648476
 20
-140.2207435703551
 30
0.0
 10
108.2096064648476
 20
-140.5175935456894
 30
0.0
  0
SPLINE
  5
F8
330
F1
100
AcDbEntity
  8
Capa 2
 62
   178
420
      519
370
    30
100
AcDbSpline
210
0.0
220
0.0
230
1.0
 70
     8
 71
     3
 72
    89
 73
    85
 74
     0
 42
0.0000000001
 43
0.0000000001
 40
0.0
 40
0.0
 40
0.0
 40
0.0
 40
1.0
 40
1.0
 40
1.0
 40
2.0
 40
2.0
 40
2.0
 40
3.0
 40
3.0
 40
3.0
 40
4.0
 40
4.0
 40
4.0
 40
5.0
 40
5.0
 40
5.0
 40
6.0
 40
6.0
 40
6.0
 40
7.0
 40
7.0
 40
7.0
 40
8.0
 40
8.0
 40
8.0
 40
9.0
 40
9.0
 40
9.0
 40
10.0
 40
10.0
 40
10.0
 40
11.0
 40
11.0
 40
11.0
 40
12.0
 40
12.0
 40
12.0
 40
13.0
 40
13.0
 40
13.0
 40
14.0
 40
14.0
 40
14.0
 40
15.0
 40
15.0
 40
15.0
 40
16.0
 40
16.0
 40
16.0
 40
17.0
 40
17.0
 40
17.0
 40
18.0
 40
18.0
 40
18.0
 40
19.0
 40
19.0
 40
19.0
 40
20.0
 40
20.0
 40
20.0
 40
21.0
 40
21.0
 40
21.0
 40
22.0
 40
22.0
 40
22.0
 40
23.0
 40
23.0
 40
23.0
 40
24.0
 40
24.0
 40
24.0
 40
25.0
 40
25.0
 40
25.0
 40
26.0
 40
26.0
 40
26.0
 40
27.0
 40
27.0
 40
27.0
 40
28.0
 40
28.0
 40
28.0
 40
28.0
 10
108.208885537912
 20
-140.5180726354496
 30
0.0
 10
108.208885537912
 20
-140.8161249197752
 30
0.0
 10
108.2197017342425
 20
-141.1105714232743
 30
0.0
 10
108.2401318179124
 20
-141.4062202357651
 30
0.0
 10
108.2605630477299
 20
-141.6994655764208
 30
0.0
 10
108.2918104738779
 20
-141.9915086080853
 30
0.0
 10
108.3314706245218
 20
-142.2823493307585
 30
0.0
 10
108.4119932348007
 20
-142.8628296132617
 30
0.0
 10
108.5321748495766
 20
-143.4385029520948
 30
0.0
 10
108.6968247048137
 20
-144.0045612574409
 30
0.0
 10
108.7364848554577
 20
-144.1463764110254
 30
0.0
 10
108.7809530959189
 20
-144.2881915646099
 30
0.0
 10
108.8266224992236
 20
-144.4300067181943
 30
0.0
 10
108.8506583637198
 20
-144.4997131321428
 30
0.0
 10
108.8746953743635
 20
-144.5694183999436
 30
0.0
 10
108.898731238859
 20
-144.6391236677445
 30
0.0
 10
108.9227682495034
 20
-144.710031244537
 30
0.0
 10
108.9480064229906
 20
-144.7797376584855
 30
0.0
 10
108.9744457593212
 20
-144.8494429262863
 30
0.0
 10
109.0778030712529
 20
-145.1282662897855
 30
0.0
 10
109.1907742705239
 20
-145.4010804006237
 30
0.0
 10
109.3133605032819
 20
-145.6690864216445
 30
0.0
 10
109.5597341316414
 20
-146.2026961379988
 30
0.0
 10
109.8445656016538
 20
-146.7146723155446
 30
0.0
 10
110.1714618402929
 20
-147.2002091567591
 30
0.0
 10
110.334910532686
 20
-147.4429770042927
 30
0.0
 10
110.5091742752619
 20
-147.6809379081566
 30
0.0
 10
110.6942553603172
 20
-147.9104860875246
 30
0.0
 10
110.78679532977
 20
-148.0258619047781
 30
0.0
 10
110.8829410800498
 20
-148.1388331040494
 30
0.0
 10
110.9814903021634
 20
-148.2506019943287
 30
0.0
 10
111.0295631773039
 20
-148.3070875939645
 30
0.0
 10
111.080040670426
 20
-148.3623720307563
 30
0.0
 10
111.1305170173997
 20
-148.4176553214004
 30
0.0
 10
111.1809933643748
 20
-148.4717374492017
 30
0.0
 10
111.2326720203409
 20
-148.525819577002
 30
0.0
 10
111.284350676307
 20
-148.5786993958113
 30
0.0
 10
111.4910641540226
 20
-148.7926244351793
 30
0.0
 10
111.7061892100859
 20
-148.9945309692252
 30
0.0
 10
111.9309304457838
 20
-149.185620160793
 30
0.0
 10
112.1556716814824
 20
-149.3779122344257
 30
0.0
 10
112.3900268045204
 20
-149.5569834937451
 30
0.0
 10
112.6327946520543
 20
-149.7252385567347
 30
0.0
 10
112.7553820309593
 20
-149.8093663747661
 30
0.0
 10
112.8791682804138
 20
-149.8898884119712
 30
0.0
 10
113.0053591478498
 20
-149.9680069773418
 30
0.0
 10
113.0678562924417
 20
-150.0064653920678
 30
0.0
 10
113.1315523075818
 20
-150.0449238067951
 30
0.0
 10
113.1964494855652
 20
-150.0809781766128
 30
0.0
 10
113.2613489558446
 20
-150.1194365913395
 30
0.0
 10
113.3262461338282
 20
-150.155491534231
 30
0.0
 10
113.3923467669504
 20
-150.1903447412052
 30
0.0
 10
113.6543446814583
 20
-150.3333610576331
 30
0.0
 10
113.9223507024788
 20
-150.4607542340608
 30
0.0
 10
114.1951659594649
 20
-150.5701207986539
 30
0.0
 10
114.4679789241557
 20
-150.6818896889325
 30
0.0
 10
114.7468022876543
 20
-150.7768342763688
 30
0.0
 10
115.0292314319791
 20
-150.8561545776573
 30
0.0
 10
115.3128594468528
 20
-150.9342725699535
 30
0.0
 10
115.6025001528302
 20
-150.9967674222501
 30
0.0
 10
115.8957443473378
 20
-151.0412345165637
 30
0.0
 10
116.0435698997313
 20
-151.0652715272074
 30
0.0
 10
116.1925943226724
 20
-151.0832992851898
 30
0.0
 10
116.3404198750653
 20
-151.0965189533554
 30
0.0
 10
116.4894442980063
 20
-151.1109409305122
 30
0.0
 10
116.6384710132426
 20
-151.1205548178516
 30
0.0
 10
116.7874977284803
 20
-151.1253629076689
 30
0.0
 10
116.9353209885772
 20
-151.1289686884952
 30
0.0
 10
117.0855488666576
 20
-151.1301698513386
 30
0.0
 10
117.234575581894
 20
-151.1313721603297
 30
0.0
 10
117.3823988419909
 20
-151.1313721603297
 30
0.0
 10
117.5314255572285
 20
-151.1325733231737
 30
0.0
 10
117.6804522724649
 20
-151.1337756321648
 30
0.0
 10
118.2765568411155
 20
-151.1385825758345
 30
0.0
 10
118.8714579546275
 20
-151.1433895195036
 30
0.0
 10
119.4675625232781
 20
-151.149398772165
 30
0.0
 10
120.6585704977367
 20
-151.1590138056521
 30
0.0
 10
121.8495761798993
 20
-151.1698300019825
 30
0.0
 10
123.0417853172012
 20
-151.180646198313
 30
0.0
 10
124.2327909993639
 20
-151.1914623946435
 30
0.0
 10
125.4237989738218
 20
-151.2010774281305
 30
0.0
 10
126.614804655985
 20
-151.208288989783
 30
0.0
 10
127.8070115009917
 20
-151.2167017142789
 30
0.0
 10
128.9980194754496
 20
-151.2215086579487
 30
0.0
 10
130.1890251576122
 20
-151.2215086579487
 30
0.0
  0
SPLINE
  5
F9
330
F1
100
AcDbEntity
  8
Capa 2
 62
   178
420
      519
370
    30
100
AcDbSpline
210
0.0
220
0.0
230
1.0
 70
     8
 71
     3
 72
    89
 73
    85
 74
     0
 42
0.0000000001
 43
0.0000000001
 40
0.0
 40
0.0
 40
0.0
 40
0.0
 40
1.0
 40
1.0
 40
1.0
 40
2.0
 40
2.0
 40
2.0
 40
3.0
 40
3.0
 40
3.0
 40
4.0
 40
4.0
 40
4.0
 40
5.0
 40
5.0
 40
5.0
 40
6.0
 40
6.0
 40
6.0
 40
7.0
 40
7.0
 40
7.0
 40
8.0
 40
8.0
 40
8.0
 40
9.0
 40
9.0
 40
9.0
 40
10.0
 40
10.0
 40
10.0
 40
11.0
 40
11.0
 40
11.0
 40
12.0
 40
12.0
 40
12.0
 40
13.0
 40
13.0
 40
13.0
 40
14.0
 40
14.0
 40
14.0
 40
15.0
 40
15.0
 40
15.0
 40
16.0
 40
16.0
 40
16.0
 40
17.0
 40
17.0
 40
17.0
 40
18.0
 40
18.0
 40
18.0
 40
19.0
 40
19.0
 40
19.0
 40
20.0
 40
20.0
 40
20.0
 40
21.0
 40
21.0
 40
21.0
 40
22.0
 40
22.0
 40
22.0
 40
23.0
 40
23.0
 40
23.0
 40
24.0
 40
24.0
 40
24.0
 40
25.0
 40
25.0
 40
25.0
 40
26.0
 40
26.0
 40
26.0
 40
27.0
 40
27.0
 40
27.0
 40
28.0
 40
28.0
 40
28.0
 40
28.0
 10
130.1897472306961
 20
-151.2219894669303
 30
0.0
 10
131.380752912858
 20
-151.2219894669303
 30
0.0
 10
132.5729620501607
 20
-151.2171825232606
 30
0.0
 10
133.7639654400274
 20
-151.2087697987647
 30
0.0
 10
134.9549734144859
 20
-151.2003570742687
 30
0.0
 10
136.1471825517872
 20
-151.1895403048644
 30
0.0
 10
137.3381905262458
 20
-151.1799258444512
 30
0.0
 10
138.5291939161131
 20
-151.1691096481207
 30
0.0
 10
139.720201890571
 20
-151.1594951877082
 30
0.0
 10
140.912411027873
 20
-151.1486784183032
 30
0.0
 10
141.5073121413849
 20
-151.1438714746335
 30
0.0
 10
142.1034190023315
 20
-151.13906395789
 30
0.0
 10
142.6995212786862
 20
-151.1342564411465
 30
0.0
 10
142.8473468310798
 20
-151.1330547052293
 30
0.0
 10
142.9963735463167
 20
-151.131852969312
 30
0.0
 10
143.1453956769625
 20
-151.1306512333947
 30
0.0
 10
143.2944223921988
 20
-151.1294494974775
 30
0.0
 10
143.4434491074352
 20
-151.1294494974775
 30
0.0
 10
143.5924758226721
 20
-151.1246419807333
 30
0.0
 10
143.740301375065
 20
-151.1198350370636
 30
0.0
 10
143.8905292531448
 20
-151.1102200035766
 30
0.0
 10
144.0383502209471
 20
-151.0970003354109
 30
0.0
 10
144.1873769361834
 20
-151.0837800941721
 30
0.0
 10
144.3364036514204
 20
-151.0645511733457
 30
0.0
 10
144.4830280409698
 20
-151.041716471693
 30
0.0
 10
144.777473398321
 20
-150.9972488043056
 30
0.0
 10
145.0671141042989
 20
-150.9335522160917
 30
0.0
 10
145.3495432486238
 20
-150.8554336507211
 30
0.0
 10
145.6319678083581
 20
-150.7773150853505
 30
0.0
 10
145.9107934641532
 20
-150.6823710709887
 30
0.0
 10
146.1836041365475
 20
-150.5706016076349
 30
0.0
 10
146.457620556377
 20
-150.4600338801991
 30
0.0
 10
146.7244254145541
 20
-150.3338424396886
 30
0.0
 10
146.9876267842007
 20
-150.1908255501869
 30
0.0
 10
147.0537274173236
 20
-150.1559729162865
 30
0.0
 10
147.1186268876024
 20
-150.1187162374777
 30
0.0
 10
147.1823206104465
 20
-150.0814595586683
 30
0.0
 10
147.2472200807259
 20
-150.0442028798589
 30
0.0
 10
147.3109183881613
 20
-150.006946774124
 30
0.0
 10
147.374612111006
 20
-149.96728662348
 30
0.0
 10
147.500802978442
 20
-149.8891680581094
 30
0.0
 10
147.6245915201918
 20
-149.8086460209043
 30
0.0
 10
147.7459777362534
 20
-149.7245182028723
 30
0.0
 10
147.9899467466307
 20
-149.5574648758006
 30
0.0
 10
148.2231007068252
 20
-149.3771913074895
 30
0.0
 10
148.4478419425238
 20
-149.1861015428485
 30
0.0
 10
148.6725831782224
 20
-148.9950123512807
 30
0.0
 10
148.8877059419904
 20
-148.7919035082434
 30
0.0
 10
149.0956217286971
 20
-148.5791807778667
 30
0.0
 10
149.1460980756715
 20
-148.5263009590575
 30
0.0
 10
149.1977801700812
 20
-148.4722188312565
 30
0.0
 10
149.2482565170549
 20
-148.4169343944648
 30
0.0
 10
149.2987328640293
 20
-148.3616511038207
 30
0.0
 10
149.3492092110044
 20
-148.3063666670286
 30
0.0
 10
149.3984843951353
 20
-148.2510833763845
 30
0.0
 10
149.4970347633973
 20
-148.139313339957
 30
0.0
 10
149.5919770585383
 20
-148.0263421406859
 30
0.0
 10
149.6857181908352
 20
-147.9109674695801
 30
0.0
 10
149.8707981297416
 20
-147.6814192902118
 30
0.0
 10
150.0450630184651
 20
-147.4434583863482
 30
0.0
 10
150.207311694163
 20
-147.2006905388146
 30
0.0
 10
150.5354079494973
 20
-146.7151536975998
 30
0.0
 10
150.8202394195097
 20
-146.2031763739067
 30
0.0
 10
151.0654141773217
 20
-145.6695678036999
 30
0.0
 10
151.1879969716362
 20
-145.4015606365318
 30
0.0
 10
151.3021716260459
 20
-145.1287465256934
 30
0.0
 10
151.4043254828388
 20
-144.8499243083418
 30
0.0
 10
151.4307648191694
 20
-144.780217894393
 30
0.0
 10
151.4560029926573
 20
-144.7105126265925
 30
0.0
 10
151.480040003301
 20
-144.6396050498006
 30
0.0
 10
151.5052781767876
 20
-144.5698997819991
 30
0.0
 10
151.5281140245879
 20
-144.4989922052072
 30
0.0
 10
151.5521510352316
 20
-144.4292857912584
 30
0.0
 10
151.5978181462411
 20
-144.2874706376739
 30
0.0
 10
151.6422886789983
 20
-144.1468577930809
 30
0.0
 10
151.6831511386333
 20
-144.0050426394967
 30
0.0
 10
151.8465963925834
 20
-143.4377820251592
 30
0.0
 10
151.9667814458022
 20
-142.8633109953171
 30
0.0
 10
152.0485017804817
 20
-142.2828295666663
 30
0.0
 10
152.0881630772732
 20
-141.9919888439932
 30
0.0
 10
152.1194116495689
 20
-141.6999458123286
 30
0.0
 10
152.1386394242477
 20
-141.4054993088292
 30
0.0
 10
152.1602741092045
 20
-141.1110528053304
 30
0.0
 10
152.1698879965439
 20
-140.8154039928393
 30
0.0
 10
152.1698879965439
 20
-140.5185540175054
 30
0.0
  0
SPLINE
  5
FA
330
F1
100
AcDbEntity
  8
Capa 2
 62
   178
420
      519
370
    30
100
AcDbSpline
210
0.0
220
0.0
230
1.0
 70
     8
 71
     3
 72
    89
 73
    85
 74
     0
 42
0.0000000001
 43
0.0000000001
 40
0.0
 40
0.0
 40
0.0
 40
0.0
 40
1.0
 40
1.0
 40
1.0
 40
2.0
 40
2.0
 40
2.0
 40
3.0
 40
3.0
 40
3.0
 40
4.0
 40
4.0
 40
4.0
 40
5.0
 40
5.0
 40
5.0
 40
6.0
 40
6.0
 40
6.0
 40
7.0
 40
7.0
 40
7.0
 40
8.0
 40
8.0
 40
8.0
 40
9.0
 40
9.0
 40
9.0
 40
10.0
 40
10.0
 40
10.0
 40
11.0
 40
11.0
 40
11.0
 40
12.0
 40
12.0
 40
12.0
 40
13.0
 40
13.0
 40
13.0
 40
14.0
 40
14.0
 40
14.0
 40
15.0
 40
15.0
 40
15.0
 40
16.0
 40
16.0
 40
16.0
 40
17.0
 40
17.0
 40
17.0
 40
18.0
 40
18.0
 40
18.0
 40
19.0
 40
19.0
 40
19.0
 40
20.0
 40
20.0
 40
20.0
 40
21.0
 40
21.0
 40
21.0
 40
22.0
 40
22.0
 40
22.0
 40
23.0
 40
23.0
 40
23.0
 40
24.0
 40
24.0
 40
24.0
 40
25.0
 40
25.0
 40
25.0
 40
26.0
 40
26.0
 40
26.0
 40
27.0
 40
27.0
 40
27.0
 40
28.0
 40
28.0
 40
28.0
 40
28.0
 10
152.1704885779653
 20
-140.5180726354496
 30
0.0
 10
152.1704885779653
 20
-140.2200214972719
 30
0.0
 10
152.1596689431913
 20
-139.9255749937725
 30
0.0
 10
152.1392400056697
 20
-139.6299273274296
 30
0.0
 10
152.1188064835569
 20
-139.336680840626
 30
0.0
 10
152.0875624958518
 20
-139.0446378089618
 30
0.0
 10
152.0479011990603
 20
-138.7537982324356
 30
0.0
 10
151.9673774426331
 20
-138.1733179499322
 30
0.0
 10
151.8471969740048
 20
-137.5976446110987
 30
0.0
 10
151.6825459726207
 20
-137.0315851596049
 30
0.0
 10
151.6428846758291
 20
-136.8897700060205
 30
0.0
 10
151.5984187276631
 20
-136.7479548524363
 30
0.0
 10
151.5527470320625
 20
-136.6061396988518
 30
0.0
 10
151.5287146060093
 20
-136.5364332849034
 30
0.0
 10
151.5046775953662
 20
-136.4667291632499
 30
0.0
 10
151.4806405847224
 20
-136.3970227493014
 30
0.0
 10
151.4566035740787
 20
-136.3261151725092
 30
0.0
 10
151.4313654005908
 20
-136.2564087585607
 30
0.0
 10
151.4049260642608
 20
-136.1867023446119
 30
0.0
 10
151.3015664600333
 20
-135.9078812734083
 30
0.0
 10
151.1885975530582
 20
-135.6350660164222
 30
0.0
 10
151.0660101741519
 20
-135.3670599954017
 30
0.0
 10
150.8196388380876
 20
-134.833450279047
 30
0.0
 10
150.5348073680759
 20
-134.3214729553539
 30
0.0
 10
150.2079076909939
 20
-133.835937260287
 30
0.0
 10
150.0444624370437
 20
-133.5931694127534
 30
0.0
 10
149.8701975483196
 20
-133.3552085088899
 30
0.0
 10
149.6851176094132
 20
-133.1256603295216
 30
0.0
 10
149.5925776399597
 20
-133.0102845122678
 30
0.0
 10
149.4964295973847
 20
-132.8973133129967
 30
0.0
 10
149.3978792291227
 20
-132.7855432765692
 30
0.0
 10
149.3498097924264
 20
-132.7290588230817
 30
0.0
 10
149.2993334454514
 20
-132.6737755324379
 30
0.0
 10
149.2488525138858
 20
-132.6184899494978
 30
0.0
 10
149.1983761669114
 20
-132.5644078216972
 30
0.0
 10
149.1466986570935
 20
-132.5103256938965
 30
0.0
 10
149.0950211472757
 20
-132.4574470212349
 30
0.0
 10
148.8883065234124
 20
-132.2435208357192
 30
0.0
 10
148.6731791750526
 20
-132.0416154478209
 30
0.0
 10
148.4484425239452
 20
-131.8505251101055
 30
0.0
 10
148.2237012882467
 20
-131.6594370646857
 30
0.0
 10
147.9893461652093
 20
-131.4791617771534
 30
0.0
 10
147.7465737330849
 20
-131.310907287238
 30
0.0
 10
147.6239909387697
 20
-131.2267800422804
 30
0.0
 10
147.5002023970206
 20
-131.1462585781488
 30
0.0
 10
147.3740115295839
 20
-131.0681394397044
 30
0.0
 10
147.3115143849921
 20
-131.0296815980515
 30
0.0
 10
147.2478206621479
 20
-130.9912214641034
 30
0.0
 10
147.1829211918685
 20
-130.9551682404334
 30
0.0
 10
147.1180217215898
 20
-130.9167103987808
 30
0.0
 10
147.053122251311
 20
-130.8806548828152
 30
0.0
 10
146.9870216181881
 20
-130.845800529693
 30
0.0
 10
146.7250259959761
 20
-130.7027842132651
 30
0.0
 10
146.4570199749556
 20
-130.5753921829853
 30
0.0
 10
146.1842047179695
 20
-130.4660244722446
 30
0.0
 10
145.9113940455746
 20
-130.354256728113
 30
0.0
 10
145.6325683897801
 20
-130.259312140677
 30
0.0
 10
145.3501392454547
 20
-130.1799918393891
 30
0.0
 10
145.0665089382857
 20
-130.1018727009444
 30
0.0
 10
144.7768728168996
 20
-130.0393778486482
 30
0.0
 10
144.4836286223919
 20
-129.9949119004822
 30
0.0
 10
144.3358030699983
 20
-129.9708748898387
 30
0.0
 10
144.1867763547614
 20
-129.9528459857081
 30
0.0
 10
144.0389508023685
 20
-129.9396263175428
 30
0.0
 10
143.8899240871322
 20
-129.925205486534
 30
0.0
 10
143.7409019564864
 20
-129.9155915991946
 30
0.0
 10
143.5918752412501
 20
-129.9107823632293
 30
0.0
 10
143.4440496888572
 20
-129.9071765824031
 30
0.0
 10
143.2938218107768
 20
-129.9059754195593
 30
0.0
 10
143.1447950955398
 20
-129.9047742567162
 30
0.0
 10
142.996969543147
 20
-129.9047742567162
 30
0.0
 10
142.8479474125012
 20
-129.9035730938727
 30
0.0
 10
142.6989206972648
 20
-129.9023696387337
 30
0.0
 10
142.1028138363189
 20
-129.8975626950637
 30
0.0
 10
141.507912722807
 20
-129.8927557513946
 30
0.0
 10
140.9118104464516
 20
-129.8867476448812
 30
0.0
 10
139.720802471993
 20
-129.8771314652465
 30
0.0
 10
138.5297944975345
 20
-129.8663164150633
 30
0.0
 10
137.3375853602332
 20
-129.8554990725852
 30
0.0
 10
136.1465819703658
 20
-129.8458851852458
 30
0.0
 10
134.9555739959079
 20
-129.8350678427674
 30
0.0
 10
133.7645660214494
 20
-129.8278562811152
 30
0.0
 10
132.5723614687386
 20
-129.8194435566196
 30
0.0
 10
131.3813534942801
 20
-129.8146366129499
 30
0.0
 10
130.1903478121175
 20
-129.8146366129499
 30
0.0
  0
SPLINE
  5
FB
330
F1
100
AcDbEntity
  8
Capa 2
 62
   178
420
      519
370
    30
100
AcDbSpline
210
0.0
220
0.0
230
1.0
 70
     8
 71
     3
 72
    29
 73
    25
 74
     0
 42
0.0000000001
 43
0.0000000001
 40
0.0
 40
0.0
 40
0.0
 40
0.0
 40
1.0
 40
1.0
 40
1.0
 40
2.0
 40
2.0
 40
2.0
 40
3.0
 40
3.0
 40
3.0
 40
4.0
 40
4.0
 40
4.0
 40
5.0
 40
5.0
 40
5.0
 40
6.0
 40
6.0
 40
6.0
 40
7.0
 40
7.0
 40
7.0
 40
8.0
 40
8.0
 40
8.0
 40
8.0
 10
100.356413536063
 20
-122.7739976826069
 30
0.0
 10
100.3215603290891
 20
-122.7739976826069
 30
0.0
 10
100.2843036502803
 20
-122.7715953569203
 30
0.0
 10
100.248249280462
 20
-122.7655849581113
 30
0.0
 10
100.2109926016529
 20
-122.7595768515981
 30
0.0
 10
100.1737359228435
 20
-122.7511641271028
 30
0.0
 10
100.1364798171083
 20
-122.7391456217803
 30
0.0
 10
100.0992231382992
 20
-122.7271271164584
 30
0.0
 10
100.0631681954074
 20
-122.7127062854497
 30
0.0
 10
100.0283155615073
 20
-122.6958808364581
 30
0.0
 10
99.99466466352382
 20
-122.6778519323278
 30
0.0
 10
99.96341723737586
 20
-122.6574229948056
 30
0.0
 10
99.93337154714481
 20
-122.6345871470056
 30
0.0
 10
99.9033258569141
 20
-122.6117535915005
 30
0.0
 10
99.87808768342688
 20
-122.5865154180133
 30
0.0
 10
99.85525298177453
 20
-122.5600737893868
 30
0.0
 10
99.83362001603945
 20
-122.5324332902127
 30
0.0
 10
99.81318935929543
 20
-122.5047904987426
 30
0.0
 10
99.79876738213871
 20
-122.4759465444292
 30
0.0
 10
99.78434540498231
 20
-122.4471025901161
 30
0.0
 10
99.77352920865182
 20
-122.4182586358026
 30
0.0
 10
99.76631822007314
 20
-122.3894146814892
 30
0.0
 10
99.75790549557752
 20
-122.360570727176
 30
0.0
 10
99.755502023743
 20
-122.3317290651579
 30
0.0
 10
99.75429971475158
 20
-122.3040862736882
 30
0.0
  0
SPLINE
  5
FC
330
F1
100
AcDbEntity
  8
Capa 2
 62
   178
420
      519
370
    30
100
AcDbSpline
210
0.0
220
0.0
230
1.0
 70
     8
 71
     3
 72
    29
 73
    25
 74
     0
 42
0.0000000001
 43
0.0000000001
 40
0.0
 40
0.0
 40
0.0
 40
0.0
 40
1.0
 40
1.0
 40
1.0
 40
2.0
 40
2.0
 40
2.0
 40
3.0
 40
3.0
 40
3.0
 40
4.0
 40
4.0
 40
4.0
 40
5.0
 40
5.0
 40
5.0
 40
6.0
 40
6.0
 40
6.0
 40
7.0
 40
7.0
 40
7.0
 40
8.0
 40
8.0
 40
8.0
 40
8.0
 10
160.6243551934116
 20
-122.3043246724203
 30
0.0
 10
160.6243551934116
 20
-122.3319674638903
 30
0.0
 10
160.6207471202901
 20
-122.3608114182034
 30
0.0
 10
160.6135355586376
 20
-122.3896553725169
 30
0.0
 10
160.6063239969858
 20
-122.4172981639872
 30
0.0
 10
160.5955089468036
 20
-122.4473432811438
 30
0.0
 10
160.5798846606551
 20
-122.4761872354573
 30
0.0
 10
160.5654615373507
 20
-122.5050311897707
 30
0.0
 10
160.546233762672
 20
-122.5326716889451
 30
0.0
 10
160.5233979148717
 20
-122.5603144804148
 30
0.0
 10
160.5017678145066
 20
-122.5867538167461
 30
0.0
 10
160.4753284781753
 20
-122.6119919902327
 30
0.0
 10
160.4464822315659
 20
-122.634827838033
 30
0.0
 10
160.416439406705
 20
-122.6576613935377
 30
0.0
 10
160.3839896715653
 20
-122.6780926233552
 30
0.0
 10
160.3503387735828
 20
-122.6961192351906
 30
0.0
 10
160.3166878755996
 20
-122.7129446841818
 30
0.0
 10
160.2794289044943
 20
-122.7273678074865
 30
0.0
 10
160.2421745179814
 20
-122.7393863128084
 30
0.0
 10
160.2061167097202
 20
-122.7514048181299
 30
0.0
 10
160.1688623232061
 20
-122.7598175426259
 30
0.0
 10
160.1316033521014
 20
-122.7658256491393
 30
0.0
 10
160.0955501284314
 20
-122.7718360479478
 30
0.0
 10
160.0582957419179
 20
-122.7730372107912
 30
0.0
 10
160.0222379336566
 20
-122.774238373635
 30
0.0
  0
LWPOLYLINE
  5
FD
330
F1
100
AcDbEntity
  8
Capa 2
100
AcDbPolyline
 90
        4
 70
     1
 43
0.0
 10
98.62446680345412
 20
-158.9601676150024
 10
169.685854331593
 20
-158.9601676150024
 10
169.685854331593
 20
-117.0574046808261
 10
98.62446680345412
 20
-117.0574046808261
  0
ENDBLK
  5
F4
330
F1
100
AcDbEntity
  8
0
100
AcDbBlockEnd
  0
BLOCK
  5
101
330
FF
100
AcDbEntity
  8
0
100
AcDbBlockBegin
  2
Block_13
 70
     0
 10
0.0
 20
0.0
 30
0.0
  3
Block_13
  1

  0
SPLINE
  5
103
330
FF
100
AcDbEntity
  8
Capa 2
 62
   178
420
      519
370
    30
100
AcDbSpline
210
0.0
220
0.0
230
1.0
 70
     8
 71
     3
 72
    68
 73
    64
 74
     0
 42
0.0000000001
 43
0.0000000001
 40
0.0
 40
0.0
 40
0.0
 40
0.0
 40
1.0
 40
1.0
 40
1.0
 40
2.0
 40
2.0
 40
2.0
 40
3.0
 40
3.0
 40
3.0
 40
4.0
 40
4.0
 40
4.0
 40
5.0
 40
5.0
 40
5.0
 40
6.0
 40
6.0
 40
6.0
 40
7.0
 40
7.0
 40
7.0
 40
8.0
 40
8.0
 40
8.0
 40
9.0
 40
9.0
 40
9.0
 40
10.0
 40
10.0
 40
10.0
 40
11.0
 40
11.0
 40
11.0
 40
12.0
 40
12.0
 40
12.0
 40
13.0
 40
13.0
 40
13.0
 40
14.0
 40
14.0
 40
14.0
 40
15.0
 40
15.0
 40
15.0
 40
16.0
 40
16.0
 40
16.0
 40
17.0
 40
17.0
 40
17.0
 40
18.0
 40
18.0
 40
18.0
 40
19.0
 40
19.0
 40
19.0
 40
20.0
 40
20.0
 40
20.0
 40
21.0
 40
21.0
 40
21.0
 40
21.0
 10
99.73915738373341
 20
-121.90940571088
 30
0.0
 10
99.73915738373341
 20
-121.90940571088
 30
0.0
 10
99.73915738373341
 20
-121.8961860427149
 30
0.0
 10
99.73915738373341
 20
-121.8961860427149
 30
0.0
 10
99.74035911965035
 20
-121.8925802618884
 30
0.0
 10
99.74035911965035
 20
-121.8865721553752
 30
0.0
 10
99.74156085556762
 20
-121.882966374549
 30
0.0
 10
99.74156085556762
 20
-121.8781594308793
 30
0.0
 10
99.74156085556762
 20
-121.8745536500537
 30
0.0
 10
99.74276259148552
 20
-121.8697467063837
 30
0.0
 10
99.74276259148552
 20
-121.8661409255574
 30
0.0
 10
99.74396432740277
 20
-121.8613339818877
 30
0.0
 10
99.74516606332004
 20
-121.856527038218
 30
0.0
 10
99.74636779923763
 20
-121.8529212573924
 30
0.0
 10
99.74636779923763
 20
-121.8493154765662
 30
0.0
 10
99.74877184414598
 20
-121.8445085328961
 30
0.0
 10
99.74997358006355
 20
-121.8409027520702
 30
0.0
 10
99.75117531598115
 20
-121.8372969712443
 30
0.0
 10
99.75237705189872
 20
-121.8324900275743
 30
0.0
 10
99.75357878781599
 20
-121.8288842467483
 30
0.0
 10
99.75598283272432
 20
-121.8252784659221
 30
0.0
 10
99.75718456864225
 20
-121.8216726850962
 30
0.0
 10
99.75838630455951
 20
-121.8168657414264
 30
0.0
 10
99.76078977639467
 20
-121.8132599606002
 30
0.0
 10
99.76199151231162
 20
-121.8096564720699
 30
0.0
 10
99.76439555721995
 20
-121.8060506912433
 30
0.0
 10
99.76679902905514
 20
-121.8024449104177
 30
0.0
 10
99.76800076497271
 20
-121.7976379667477
 30
0.0
 10
99.77040423680756
 20
-121.7952333487655
 30
0.0
 10
99.77160654579897
 20
-121.7916275679392
 30
0.0
 10
99.77521175355107
 20
-121.7868206242695
 30
0.0
 10
99.77641348946834
 20
-121.7844182985823
 30
0.0
 10
99.77881753437669
 20
-121.7808125177564
 30
0.0
 10
99.78122100621218
 20
-121.7772067369305
 30
0.0
 10
99.7836244780467
 20
-121.7748021189477
 30
0.0
 10
99.78723025887296
 20
-121.7711963381214
 30
0.0
 10
99.78963373070781
 20
-121.7675928495911
 30
0.0
 10
99.79203720254266
 20
-121.7651882316086
 30
0.0
 10
99.79444067437718
 20
-121.7615824507823
 30
0.0
 10
99.79684471928585
 20
-121.7579766699561
 30
0.0
 10
99.79924819112071
 20
-121.7555743442692
 30
0.0
 10
99.80165166295556
 20
-121.7519685634429
 30
0.0
 10
99.8052574437818
 20
-121.7495639454601
 30
0.0
 10
99.81126669644257
 20
-121.7447570017905
 30
0.0
 10
99.81607364011228
 20
-121.7387488952776
 30
0.0
 10
99.82328462869062
 20
-121.7339396593123
 30
0.0
 10
99.82929388135142
 20
-121.7291327156426
 30
0.0
 10
99.8365048699301
 20
-121.7243257719729
 30
0.0
 10
99.84251412259089
 20
-121.7195188283036
 30
0.0
 10
99.84972453809511
 20
-121.7147118846339
 30
0.0
 10
99.85693552667378
 20
-121.7111061038079
 30
0.0
 10
99.8653482511691
 20
-121.7062991601379
 30
0.0
 10
99.87135750383052
 20
-121.7038945421554
 30
0.0
 10
99.87977022832582
 20
-121.7002887613295
 30
0.0
 10
99.88818295282209
 20
-121.6966852727985
 30
0.0
 10
99.89659567731772
 20
-121.694280654816
 30
0.0
 10
99.90380666589576
 20
-121.6918760368339
 30
0.0
 10
99.91221939039171
 20
-121.6906748739901
 30
0.0
 10
99.92183442387874
 20
-121.6870690931639
 30
0.0
 10
99.93024714837437
 20
-121.6870690931639
 30
0.0
 10
99.93745813695273
 20
-121.6858679303204
 30
0.0
 10
99.94707259736626
 20
-121.6846667674766
 30
0.0
 10
99.95668705777948
 20
-121.6846667674766
 30
0.0
 10
99.96509978227511
 20
-121.6834633123376
 30
0.0
  0
SPLINE
  5
104
330
FF
100
AcDbEntity
  8
Capa 2
 62
   178
420
      519
370
    30
100
AcDbSpline
210
0.0
220
0.0
230
1.0
 70
     8
 71
     3
 72
    68
 73
    64
 74
     0
 42
0.0000000001
 43
0.0000000001
 40
0.0
 40
0.0
 40
0.0
 40
0.0
 40
1.0
 40
1.0
 40
1.0
 40
2.0
 40
2.0
 40
2.0
 40
3.0
 40
3.0
 40
3.0
 40
4.0
 40
4.0
 40
4.0
 40
5.0
 40
5.0
 40
5.0
 40
6.0
 40
6.0
 40
6.0
 40
7.0
 40
7.0
 40
7.0
 40
8.0
 40
8.0
 40
8.0
 40
9.0
 40
9.0
 40
9.0
 40
10.0
 40
10.0
 40
10.0
 40
11.0
 40
11.0
 40
11.0
 40
12.0
 40
12.0
 40
12.0
 40
13.0
 40
13.0
 40
13.0
 40
14.0
 40
14.0
 40
14.0
 40
15.0
 40
15.0
 40
15.0
 40
16.0
 40
16.0
 40
16.0
 40
17.0
 40
17.0
 40
17.0
 40
18.0
 40
18.0
 40
18.0
 40
19.0
 40
19.0
 40
19.0
 40
20.0
 40
20.0
 40
20.0
 40
21.0
 40
21.0
 40
21.0
 40
21.0
 10
160.4146330778489
 20
-121.6839446943934
 30
0.0
 10
160.4146330778489
 20
-121.6839446943934
 30
0.0
 10
160.4278504537187
 20
-121.6839446943934
 30
0.0
 10
160.4278504537187
 20
-121.6839446943934
 30
0.0
 10
160.4326596896843
 20
-121.6851481495325
 30
0.0
 10
160.437464341058
 20
-121.6851481495325
 30
0.0
 10
160.4410724141796
 20
-121.6863493123759
 30
0.0
 10
160.445877065554
 20
-121.6863493123759
 30
0.0
 10
160.4494851386755
 20
-121.6863493123759
 30
0.0
 10
160.4542897900493
 20
-121.6875504752197
 30
0.0
 10
160.4578978631708
 20
-121.6875504752197
 30
0.0
 10
160.4627025145452
 20
-121.6887539303587
 30
0.0
 10
160.4675117505096
 20
-121.6899550932022
 30
0.0
 10
160.4711152390406
 20
-121.6911562560459
 30
0.0
 10
160.4747233121621
 20
-121.6911562560459
 30
0.0
 10
160.4795279635365
 20
-121.6935608740281
 30
0.0
 10
160.4831360366587
 20
-121.6947620368719
 30
0.0
 10
160.4867395251884
 20
-121.6959631997153
 30
0.0
 10
160.491548761154
 20
-121.6971666548543
 30
0.0
 10
160.4951522496843
 20
-121.6983678176978
 30
0.0
 10
160.4987603228065
 20
-121.7007724356806
 30
0.0
 10
160.5023638113368
 20
-121.701973598524
 30
0.0
 10
160.5071730473024
 20
-121.7031747613675
 30
0.0
 10
160.5107765358328
 20
-121.70557937935
 30
0.0
 10
160.5143800243631
 20
-121.7067805421937
 30
0.0
 10
160.5179880974853
 20
-121.7091851601762
 30
0.0
 10
160.5215915860149
 20
-121.7115874858631
 30
0.0
 10
160.5264008219806
 20
-121.7127886487069
 30
0.0
 10
160.5288031476675
 20
-121.7151932666894
 30
0.0
 10
160.532411220789
 20
-121.7163944295331
 30
0.0
 10
160.5372158721634
 20
-121.7200002103587
 30
0.0
 10
160.5396181978509
 20
-121.7212013732025
 30
0.0
 10
160.5432262709725
 20
-121.723605991185
 30
0.0
 10
160.5468297595028
 20
-121.7260106091678
 30
0.0
 10
160.5492366697809
 20
-121.728412934855
 30
0.0
 10
160.5528401583112
 20
-121.732018715681
 30
0.0
 10
160.5564436468422
 20
-121.7344233336634
 30
0.0
 10
160.5588505571203
 20
-121.7368256593506
 30
0.0
 10
160.5624540456506
 20
-121.7392302773334
 30
0.0
 10
160.5660621187722
 20
-121.7416326030203
 30
0.0
 10
160.568464444459
 20
-121.7440372210031
 30
0.0
 10
160.57206793299
 20
-121.74643954669
 30
0.0
 10
160.5744748432681
 20
-121.750045327516
 30
0.0
 10
160.5792794946419
 20
-121.7560557263247
 30
0.0
 10
160.5852898934509
 20
-121.7620638328378
 30
0.0
 10
160.5900991294159
 20
-121.7680742316463
 30
0.0
 10
160.5949037807903
 20
-121.7740823381597
 30
0.0
 10
160.5997130167546
 20
-121.7812938998119
 30
0.0
 10
160.6045176681297
 20
-121.787302006325
 30
0.0
 10
160.6093269040947
 20
-121.7945135679775
 30
0.0
 10
160.6129303926257
 20
-121.8017251296297
 30
0.0
 10
160.61773962859
 20
-121.8101378541253
 30
0.0
 10
160.6201419542775
 20
-121.8161459606385
 30
0.0
 10
160.6237500273991
 20
-121.8245586851341
 30
0.0
 10
160.6273535159294
 20
-121.8329714096301
 30
0.0
 10
160.6297558416169
 20
-121.8413841341257
 30
0.0
 10
160.632162751895
 20
-121.8485956957782
 30
0.0
 10
160.6333639147385
 20
-121.8570084202738
 30
0.0
 10
160.6369674032688
 20
-121.8666223076132
 30
0.0
 10
160.6369674032688
 20
-121.8750350321089
 30
0.0
 10
160.6381685661122
 20
-121.882246593761
 30
0.0
 10
160.6393697289557
 20
-121.8918604811007
 30
0.0
 10
160.6393697289557
 20
-121.9014766607351
 30
0.0
 10
160.6405754763903
 20
-121.9098893852307
 30
0.0
  0
LWPOLYLINE
  5
105
330
FF
100
AcDbEntity
  8
Capa 2
100
AcDbPolyline
 90
        4
 70
     1
 43
0.0
 10
98.62446680345412
 20
-158.9601676150024
 10
169.685854331593
 20
-158.9601676150024
 10
169.685854331593
 20
-117.0574046808261
 10
98.62446680345412
 20
-117.0574046808261
  0
ENDBLK
  5
102
330
FF
100
AcDbEntity
  8
0
100
AcDbBlockEnd
  0
BLOCK
  5
10D
330
10B
100
AcDbEntity
  8
0
100
AcDbBlockBegin
  2
Block_14
 70
     0
 10
0.0
 20
0.0
 30
0.0
  3
Block_14
  1

  0
SPLINE
  5
10F
330
10B
100
AcDbEntity
  8
Capa 2
 62
   178
420
      519
370
    30
100
AcDbSpline
210
0.0
220
0.0
230
1.0
 70
     8
 71
     3
 72
    11
 73
     7
 74
     0
 42
0.0000000001
 43
0.0000000001
 40
0.0
 40
0.0
 40
0.0
 40
0.0
 40
1.0
 40
1.0
 40
1.0
 40
2.0
 40
2.0
 40
2.0
 40
2.0
 10
160.0229622990358
 20
-122.7739976826069
 30
0.0
 10
160.0253646247233
 20
-122.8088520357291
 30
0.0
 10
160.0265657875668
 20
-122.8545214390341
 30
0.0
 10
160.0277669504096
 20
-122.9049977860088
 30
0.0
 10
160.028968113253
 20
-122.9554741329833
 30
0.0
 10
160.0301692760971
 20
-123.0119608787664
 30
0.0
 10
160.0301692760971
 20
-123.0672441694105
 30
0.0
  0
SPLINE
  5
110
330
10B
100
AcDbEntity
  8
Capa 2
 62
   178
420
      519
370
    30
100
AcDbSpline
210
0.0
220
0.0
230
1.0
 70
     8
 71
     3
 72
    11
 73
     7
 74
     0
 42
0.0000000001
 43
0.0000000001
 40
0.0
 40
0.0
 40
0.0
 40
0.0
 40
1.0
 40
1.0
 40
1.0
 40
2.0
 40
2.0
 40
2.0
 40
2.0
 10
100.3499240474944
 20
-123.0676017675085
 30
0.0
 10
100.3499240474944
 20
-123.0111173140213
 30
0.0
 10
100.351125783412
 20
-122.9546305682382
 30
0.0
 10
100.3523275193295
 20
-122.9053576764025
 30
0.0
 10
100.3523275193295
 20
-122.8548813294281
 30
0.0
 10
100.3547309911641
 20
-122.8092119261231
 30
0.0
 10
100.3571344629989
 20
-122.7743575730012
 30
0.0
  0
SPLINE
  5
111
330
10B
100
AcDbEntity
  8
Capa 2
 62
   178
420
      519
370
    30
100
AcDbSpline
210
0.0
220
0.0
230
1.0
 70
     8
 71
     3
 72
   110
 73
   106
 74
     0
 42
0.0000000001
 43
0.0000000001
 40
0.0
 40
0.0
 40
0.0
 40
0.0
 40
1.0
 40
1.0
 40
1.0
 40
2.0
 40
2.0
 40
2.0
 40
3.0
 40
3.0
 40
3.0
 40
4.0
 40
4.0
 40
4.0
 40
5.0
 40
5.0
 40
5.0
 40
6.0
 40
6.0
 40
6.0
 40
7.0
 40
7.0
 40
7.0
 40
8.0
 40
8.0
 40
8.0
 40
9.0
 40
9.0
 40
9.0
 40
10.0
 40
10.0
 40
10.0
 40
11.0
 40
11.0
 40
11.0
 40
12.0
 40
12.0
 40
12.0
 40
13.0
 40
13.0
 40
13.0
 40
14.0
 40
14.0
 40
14.0
 40
15.0
 40
15.0
 40
15.0
 40
16.0
 40
16.0
 40
16.0
 40
17.0
 40
17.0
 40
17.0
 40
18.0
 40
18.0
 40
18.0
 40
19.0
 40
19.0
 40
19.0
 40
20.0
 40
20.0
 40
20.0
 40
21.0
 40
21.0
 40
21.0
 40
22.0
 40
22.0
 40
22.0
 40
23.0
 40
23.0
 40
23.0
 40
24.0
 40
24.0
 40
24.0
 40
25.0
 40
25.0
 40
25.0
 40
26.0
 40
26.0
 40
26.0
 40
27.0
 40
27.0
 40
27.0
 40
28.0
 40
28.0
 40
28.0
 40
29.0
 40
29.0
 40
29.0
 40
30.0
 40
30.0
 40
30.0
 40
31.0
 40
31.0
 40
31.0
 40
32.0
 40
32.0
 40
32.0
 40
33.0
 40
33.0
 40
33.0
 40
34.0
 40
34.0
 40
34.0
 40
35.0
 40
35.0
 40
35.0
 40
35.0
 10
130.1897472306961
 20
-150.8465401172435
 30
0.0
 10
128.999940419081
 20
-150.8465401172435
 30
0.0
 10
127.8089347369184
 20
-150.8417331735744
 30
0.0
 10
126.6191302175992
 20
-150.8345221849957
 30
0.0
 10
125.4269210802972
 20
-150.8273111964171
 30
0.0
 10
124.2359153981346
 20
-150.8176967360045
 30
0.0
 10
123.0449074236767
 20
-150.8092840115085
 30
0.0
 10
121.8539017415135
 20
-150.7996695510953
 30
0.0
 10
120.6628960593502
 20
-150.7924585625173
 30
0.0
 10
119.4706869220489
 20
-150.7852475739386
 30
0.0
 10
118.8757858085369
 20
-150.7816417931124
 30
0.0
 10
118.2796812398863
 20
-150.7792383212778
 30
0.0
 10
117.6835766712356
 20
-150.7744308045343
 30
0.0
 10
117.6090633136175
 20
-150.7744308045343
 30
0.0
 10
117.5345499559993
 20
-150.7744308045343
 30
0.0
 10
117.4600365983798
 20
-150.7744308045343
 30
0.0
 10
117.4600365983798
 20
-150.7744308045343
 30
0.0
 10
117.3494700170923
 20
-150.7744308045343
 30
0.0
 10
117.3494700170923
 20
-150.7744308045343
 30
0.0
 10
117.3290387872741
 20
-150.7744308045343
 30
0.0
 10
117.3110121754394
 20
-150.7744308045343
 30
0.0
 10
117.2929832713082
 20
-150.7732290686164
 30
0.0
 10
117.2929832713082
 20
-150.7732290686164
 30
0.0
 10
117.2364988178206
 20
-150.7732290686164
 30
0.0
 10
117.2364988178206
 20
-150.7732290686164
 30
0.0
 10
117.0862709397409
 20
-150.7732290686164
 30
0.0
 10
116.9408500053302
 20
-150.7732290686164
 30
0.0
 10
116.7990348517457
 20
-150.7684221249473
 30
0.0
 10
116.7629793357804
 20
-150.7672198159556
 30
0.0
 10
116.7281272749538
 20
-150.7660180800383
 30
0.0
 10
116.6920717589885
 20
-150.7636146082038
 30
0.0
 10
116.6740451471531
 20
-150.7636146082038
 30
0.0
 10
116.6572196981619
 20
-150.7636146082038
 30
0.0
 10
116.6391930863265
 20
-150.7624128722866
 30
0.0
 10
116.6223676373346
 20
-150.7612111363693
 30
0.0
 10
116.6043387332047
 20
-150.7600094004508
 30
0.0
 10
116.5863121213693
 20
-150.7588070914603
 30
0.0
 10
116.5154045445774
 20
-150.7540001477906
 30
0.0
 10
116.4444969677848
 20
-150.7491926310471
 30
0.0
 10
116.3735893909929
 20
-150.7431833783857
 30
0.0
 10
116.2329754002519
 20
-150.7287619743028
 30
0.0
 10
116.089959083824
 20
-150.7119359522377
 30
0.0
 10
115.9505485482223
 20
-150.6903035595767
 30
0.0
 10
115.6705217295844
 20
-150.6470376281059
 30
0.0
 10
115.3953041469108
 20
-150.5881485566362
 30
0.0
 10
115.1248958002034
 20
-150.5124334631001
 30
0.0
 10
114.8556863240436
 20
-150.4367189426386
 30
0.0
 10
114.5900849210053
 20
-150.3453801360291
 30
0.0
 10
114.3304893321848
 20
-150.2384181894182
 30
0.0
 10
114.0708960356596
 20
-150.1326574056521
 30
0.0
 10
113.8149085199607
 20
-150.0112734818858
 30
0.0
 10
113.5649291107756
 20
-149.874265271971
 30
0.0
 10
113.5012330956356
 20
-149.83941263807
 30
0.0
 10
113.4399394061824
 20
-149.8045600041702
 30
0.0
 10
113.3774445538858
 20
-149.7685050612787
 30
0.0
 10
113.3161508644333
 20
-149.7324506914604
 30
0.0
 10
113.2560606301188
 20
-149.6963957485689
 30
0.0
 10
113.1959681035098
 20
-149.6591390697588
 30
0.0
 10
113.0745841797434
 20
-149.5834245492972
 30
0.0
 10
112.9556048739587
 20
-149.5065077198439
 30
0.0
 10
112.8402290567048
 20
-149.4259856826388
 30
0.0
 10
112.6070750965116
 20
-149.2637392992368
 30
0.0
 10
112.3835373159517
 20
-149.0918790284954
 30
0.0
 10
112.1696111304366
 20
-148.9067979434414
 30
0.0
 10
111.9544860743727
 20
-148.7229191673779
 30
0.0
 10
111.7477714505095
 20
-148.5282241949845
 30
0.0
 10
111.5482706805934
 20
-148.3227118801123
 30
0.0
 10
111.4989954964624
 20
-148.2710343702942
 30
0.0
 10
111.4497203123315
 20
-148.2193557143284
 30
0.0
 10
111.4016474371916
 20
-148.1664747493711
 30
0.0
 10
111.3535745620517
 20
-148.1135949305616
 30
0.0
 10
111.304300524069
 20
-148.0607151117526
 30
0.0
 10
111.2586311207637
 20
-148.006632983952
 30
0.0
 10
111.1636865333274
 20
-147.8996710373414
 30
0.0
 10
111.0711465638745
 20
-147.7903044727493
 30
0.0
 10
110.9834135380914
 20
-147.6785355824694
 30
0.0
 10
110.8043428518451
 20
-147.4561978186057
 30
0.0
 10
110.6372895247735
 20
-147.2278519482288
 30
0.0
 10
110.4798500850405
 20
-146.9934956790442
 30
0.0
 10
110.164971205576
 20
-146.5235831239769
 30
0.0
 10
109.8909570780417
 20
-146.0296335582664
 30
0.0
 10
109.6529961741788
 20
-145.5128492909033
 30
0.0
 10
109.5352157389422
 20
-145.2532559943784
 30
0.0
 10
109.4258503204974
 20
-144.9888546080359
 30
0.0
 10
109.3260987893914
 20
-144.7196462780237
 30
0.0
 10
109.3008606159049
 20
-144.6523444820581
 30
0.0
 10
109.2768258975564
 20
-144.5838403771004
 30
0.0
 10
109.2515854317733
 20
-144.5165385811341
 30
0.0
 10
109.2287518762689
 20
-144.448034476177
 30
0.0
 10
109.2059183207638
 20
-144.380732680211
 30
0.0
 10
109.1830824729642
 20
-144.3122285752533
 30
0.0
 10
109.1386142325029
 20
-144.1752203653388
 30
0.0
 10
109.0965506100238
 20
-144.0382133015717
 30
0.0
 10
109.0568916055275
 20
-143.9012050916573
 30
0.0
 10
108.9775713042397
 20
-143.6271898179754
 30
0.0
 10
108.9090660531346
 20
-143.350769926311
 30
0.0
 10
108.8501769816643
 20
-143.0719477089597
 30
0.0
 10
108.7912879101939
 20
-142.7931243454605
 30
0.0
 10
108.742012726063
 20
-142.5118975101264
 30
0.0
 10
108.7035548844101
 20
-142.2306706747927
 30
0.0
 10
108.6638958799138
 20
-141.9482426766155
 30
0.0
 10
108.6350519256004
 20
-141.6646123694465
 30
0.0
 10
108.6146206957835
 20
-141.3797808994345
 30
0.0
 10
108.5941894659653
 20
-141.0937471204307
 30
0.0
 10
108.584575578626
 20
-140.8065110324365
 30
0.0
 10
108.584575578626
 20
-140.5180737815975
 30
0.0
  0
SPLINE
  5
112
330
10B
100
AcDbEntity
  8
Capa 2
 62
   178
420
      519
370
    30
100
AcDbSpline
210
0.0
220
0.0
230
1.0
 70
     8
 71
     3
 72
   110
 73
   106
 74
     0
 42
0.0000000001
 43
0.0000000001
 40
0.0
 40
0.0
 40
0.0
 40
0.0
 40
1.0
 40
1.0
 40
1.0
 40
2.0
 40
2.0
 40
2.0
 40
3.0
 40
3.0
 40
3.0
 40
4.0
 40
4.0
 40
4.0
 40
5.0
 40
5.0
 40
5.0
 40
6.0
 40
6.0
 40
6.0
 40
7.0
 40
7.0
 40
7.0
 40
8.0
 40
8.0
 40
8.0
 40
9.0
 40
9.0
 40
9.0
 40
10.0
 40
10.0
 40
10.0
 40
11.0
 40
11.0
 40
11.0
 40
12.0
 40
12.0
 40
12.0
 40
13.0
 40
13.0
 40
13.0
 40
14.0
 40
14.0
 40
14.0
 40
15.0
 40
15.0
 40
15.0
 40
16.0
 40
16.0
 40
16.0
 40
17.0
 40
17.0
 40
17.0
 40
18.0
 40
18.0
 40
18.0
 40
19.0
 40
19.0
 40
19.0
 40
20.0
 40
20.0
 40
20.0
 40
21.0
 40
21.0
 40
21.0
 40
22.0
 40
22.0
 40
22.0
 40
23.0
 40
23.0
 40
23.0
 40
24.0
 40
24.0
 40
24.0
 40
25.0
 40
25.0
 40
25.0
 40
26.0
 40
26.0
 40
26.0
 40
27.0
 40
27.0
 40
27.0
 40
28.0
 40
28.0
 40
28.0
 40
29.0
 40
29.0
 40
29.0
 40
30.0
 40
30.0
 40
30.0
 40
31.0
 40
31.0
 40
31.0
 40
32.0
 40
32.0
 40
32.0
 40
33.0
 40
33.0
 40
33.0
 40
34.0
 40
34.0
 40
34.0
 40
35.0
 40
35.0
 40
35.0
 40
35.0
 10
151.7952810654545
 20
-140.5180726354496
 30
0.0
 10
151.7952810654545
 20
-140.8065110324365
 30
0.0
 10
151.7844614306805
 20
-141.0937459742827
 30
0.0
 10
151.7652336560023
 20
-141.3797797532865
 30
0.0
 10
151.7448001338896
 20
-141.6646123694465
 30
0.0
 10
151.7159584718714
 20
-141.9482426766155
 30
0.0
 10
151.6762971750791
 20
-142.2306706747927
 30
0.0
 10
151.6378416257229
 20
-142.5130998191178
 30
0.0
 10
151.5873652787478
 20
-142.7931243454605
 30
0.0
 10
151.5296773701209
 20
-143.0719465628118
 30
0.0
 10
151.4707882986512
 20
-143.3495676173196
 30
0.0
 10
151.4022807552503
 20
-143.6271886718274
 30
0.0
 10
151.3229627462577
 20
-143.9012050916573
 30
0.0
 10
151.2833014494655
 20
-144.0394144644155
 30
0.0
 10
151.2412378269877
 20
-144.1752203653388
 30
0.0
 10
151.1967718788211
 20
-144.3122285752533
 30
0.0
 10
151.1739360310207
 20
-144.3795303712196
 30
0.0
 10
151.1511001832204
 20
-144.4492356390204
 30
0.0
 10
151.1270631725773
 20
-144.5165385811341
 30
0.0
 10
151.1030307465241
 20
-144.5850426860918
 30
0.0
 10
151.0789937358803
 20
-144.6523444820581
 30
0.0
 10
151.0537555623938
 20
-144.7196462780237
 30
0.0
 10
150.9540040312877
 20
-144.990056917027
 30
0.0
 10
150.844638612843
 20
-145.2544571572222
 30
0.0
 10
150.7268558853111
 20
-145.5128492909033
 30
0.0
 10
150.4888972737428
 20
-146.0296335582664
 30
0.0
 10
150.2148808539139
 20
-146.5235831239769
 30
0.0
 10
149.9000019744487
 20
-146.9934956790442
 30
0.0
 10
149.7425671193076
 20
-147.2278508020812
 30
0.0
 10
149.575513792236
 20
-147.4573989814491
 30
0.0
 10
149.3964396675468
 20
-147.6785344363215
 30
0.0
 10
149.3075031866243
 20
-147.7891021637576
 30
0.0
 10
149.2161689646048
 20
-147.8984675822027
 30
0.0
 10
149.1212220848738
 20
-148.006631837804
 30
0.0
 10
149.074353811021
 20
-148.0607139656047
 30
0.0
 10
149.0262797897328
 20
-148.1135949305616
 30
0.0
 10
148.9782057684459
 20
-148.1676759122146
 30
0.0
 10
148.9301317471584
 20
-148.2193545681807
 30
0.0
 10
148.879655400184
 20
-148.2722355331379
 30
0.0
 10
148.8303802160531
 20
-148.3227118801123
 30
0.0
 10
148.6320829012757
 20
-148.5282230488365
 30
0.0
 10
148.4253682774125
 20
-148.7241203302216
 30
0.0
 10
148.2102409290539
 20
-148.9079991062849
 30
0.0
 10
147.9951135806941
 20
-149.0918778823478
 30
0.0
 10
147.7727792552736
 20
-149.2637392992368
 30
0.0
 10
147.5396252950797
 20
-149.4259851095656
 30
0.0
 10
147.4230483149824
 20
-149.5065071467707
 30
0.0
 10
147.3052701720417
 20
-149.5846257121413
 30
0.0
 10
147.1838839559802
 20
-149.6591384966857
 30
0.0
 10
147.1237937216664
 20
-149.6963951754944
 30
0.0
 10
147.0624977399179
 20
-149.7336518543038
 30
0.0
 10
147.0024075056035
 20
-149.7697062241215
 30
0.0
 10
146.9399149456028
 20
-149.8045594310957
 30
0.0
 10
146.8774178010109
 20
-149.8394120649968
 30
0.0
 10
146.8149252410102
 20
-149.8742646988965
 30
0.0
 10
146.5649458318244
 20
-150.0112729088113
 30
0.0
 10
146.3089560238303
 20
-150.1326568325783
 30
0.0
 10
146.0493627273044
 20
-150.2396187791885
 30
0.0
 10
145.7885682679365
 20
-150.3453795629547
 30
0.0
 10
145.5241657354463
 20
-150.4367183695647
 30
0.0
 10
145.2537573887383
 20
-150.5112305810353
 30
0.0
 10
144.9845502048744
 20
-150.5869462476445
 30
0.0
 10
144.7093326222008
 20
-150.6470376281059
 30
0.0
 10
144.4293058035628
 20
-150.6903024134291
 30
0.0
 10
144.2898929756659
 20
-150.7119359522377
 30
0.0
 10
144.1468766592374
 20
-150.729962564073
 30
0.0
 10
144.0050615056535
 20
-150.7419810693946
 30
0.0
 10
143.9353573840003
 20
-150.7491914848988
 30
0.0
 10
143.8644475149125
 20
-150.7552007375596
 30
0.0
 10
143.7935422304159
 20
-150.7588065183859
 30
0.0
 10
143.7755156185805
 20
-150.7600088273776
 30
0.0
 10
143.7574844221547
 20
-150.761209990221
 30
0.0
 10
143.73945781032
 20
-150.761209990221
 30
0.0
 10
143.722632361328
 20
-150.7624122992121
 30
0.0
 10
143.7046057494933
 20
-150.7636134620562
 30
0.0
 10
143.6877803005015
 20
-150.7648157710473
 30
0.0
 10
143.6517270768314
 20
-150.7660180800383
 30
0.0
 10
143.6168750160048
 20
-150.7672192428825
 30
0.0
 10
143.5808172077442
 20
-150.7684215518729
 30
0.0
 10
143.4390020541591
 20
-150.7720261865515
 30
0.0
 10
143.2935834120443
 20
-150.7732284955432
 30
0.0
 10
143.1433555339646
 20
-150.7732284955432
 30
0.0
 10
143.1433555339646
 20
-150.7732284955432
 30
0.0
 10
143.0868687881811
 20
-150.7732284955432
 30
0.0
 10
143.0868687881811
 20
-150.7732284955432
 30
0.0
 10
143.0868687881811
 20
-150.7732284955432
 30
0.0
 10
143.0303820423976
 20
-150.7732284955432
 30
0.0
 10
143.0303820423976
 20
-150.7732284955432
 30
0.0
 10
142.9943288187276
 20
-150.7744308045343
 30
0.0
 10
142.9558686847795
 20
-150.7744308045343
 30
0.0
 10
142.918614298266
 20
-150.7744308045343
 30
0.0
 10
142.8441009406472
 20
-150.7744308045343
 30
0.0
 10
142.769587583029
 20
-150.7756319673777
 30
0.0
 10
142.6962753882543
 20
-150.7756319673777
 30
0.0
 10
142.1001731118989
 20
-150.7780354392123
 30
0.0
 10
141.5040708355435
 20
-150.7816412200385
 30
0.0
 10
140.9079639745976
 20
-150.7852470008648
 30
0.0
 10
139.716956000139
 20
-150.7912562535256
 30
0.0
 10
138.5259526102717
 20
-150.800870140865
 30
0.0
 10
137.3337434729697
 20
-150.8092828653603
 30
0.0
 10
136.1427354985118
 20
-150.8176955898568
 30
0.0
 10
134.9517275240533
 20
-150.8261083143522
 30
0.0
 10
133.760724134186
 20
-150.8345210388475
 30
0.0
 10
132.5697161597281
 20
-150.8405302915089
 30
0.0
 10
131.3799139327042
 20
-150.8465395441703
 30
0.0
 10
130.190109413385
 20
-150.8465395441703
 30
0.0
  0
SPLINE
  5
113
330
10B
100
AcDbEntity
  8
Capa 2
 62
   178
420
      519
370
    30
100
AcDbSpline
210
0.0
220
0.0
230
1.0
 70
     8
 71
     3
 72
   110
 73
   106
 74
     0
 42
0.0000000001
 43
0.0000000001
 40
0.0
 40
0.0
 40
0.0
 40
0.0
 40
1.0
 40
1.0
 40
1.0
 40
2.0
 40
2.0
 40
2.0
 40
3.0
 40
3.0
 40
3.0
 40
4.0
 40
4.0
 40
4.0
 40
5.0
 40
5.0
 40
5.0
 40
6.0
 40
6.0
 40
6.0
 40
7.0
 40
7.0
 40
7.0
 40
8.0
 40
8.0
 40
8.0
 40
9.0
 40
9.0
 40
9.0
 40
10.0
 40
10.0
 40
10.0
 40
11.0
 40
11.0
 40
11.0
 40
12.0
 40
12.0
 40
12.0
 40
13.0
 40
13.0
 40
13.0
 40
14.0
 40
14.0
 40
14.0
 40
15.0
 40
15.0
 40
15.0
 40
16.0
 40
16.0
 40
16.0
 40
17.0
 40
17.0
 40
17.0
 40
18.0
 40
18.0
 40
18.0
 40
19.0
 40
19.0
 40
19.0
 40
20.0
 40
20.0
 40
20.0
 40
21.0
 40
21.0
 40
21.0
 40
22.0
 40
22.0
 40
22.0
 40
23.0
 40
23.0
 40
23.0
 40
24.0
 40
24.0
 40
24.0
 40
25.0
 40
25.0
 40
25.0
 40
26.0
 40
26.0
 40
26.0
 40
27.0
 40
27.0
 40
27.0
 40
28.0
 40
28.0
 40
28.0
 40
29.0
 40
29.0
 40
29.0
 40
30.0
 40
30.0
 40
30.0
 40
31.0
 40
31.0
 40
31.0
 40
32.0
 40
32.0
 40
32.0
 40
33.0
 40
33.0
 40
33.0
 40
34.0
 40
34.0
 40
34.0
 40
35.0
 40
35.0
 40
35.0
 40
35.0
 10
108.5840941965698
 20
-140.5180726354496
 30
0.0
 10
108.5840941965698
 20
-140.2296353846113
 30
0.0
 10
108.5949103929009
 20
-139.9424004427641
 30
0.0
 10
108.6141393137274
 20
-139.6563666637606
 30
0.0
 10
108.6345705435455
 20
-139.3715351937482
 30
0.0
 10
108.6634144978577
 20
-139.0879048865793
 30
0.0
 10
108.7030746485023
 20
-138.8054757422532
 30
0.0
 10
108.7415324901551
 20
-138.523046597928
 30
0.0
 10
108.7920088371295
 20
-138.2430220715854
 30
0.0
 10
108.8496967457564
 20
-137.9641987080864
 30
0.0
 10
108.9085858172268
 20
-137.6865787997263
 30
0.0
 10
108.9770899221835
 20
-137.4089565990705
 30
0.0
 10
109.0564102234714
 20
-137.1349424715369
 30
0.0
 10
109.0960703741159
 20
-136.9967330987786
 30
0.0
 10
109.138133996595
 20
-136.8609260517073
 30
0.0
 10
109.1826010909087
 20
-136.7239178417925
 30
0.0
 10
109.2054357925607
 20
-136.6566160458265
 30
0.0
 10
109.2282704942134
 20
-136.5869096318778
 30
0.0
 10
109.2523075048565
 20
-136.5196078359115
 30
0.0
 10
109.2763433693533
 20
-136.4511048771021
 30
0.0
 10
109.300380379997
 20
-136.3838030811361
 30
0.0
 10
109.3256185534836
 20
-136.3165012851701
 30
0.0
 10
109.4253700845896
 20
-136.0460906461665
 30
0.0
 10
109.5347355030343
 20
-135.7816881136764
 30
0.0
 10
109.6525147921227
 20
-135.5232959799949
 30
0.0
 10
109.8904756959869
 20
-135.0065140049277
 30
0.0
 10
110.1644909696682
 20
-134.512563293069
 30
0.0
 10
110.4793687029857
 20
-134.0426518841502
 30
0.0
 10
110.6368069965697
 20
-133.808294468817
 30
0.0
 10
110.8038603236414
 20
-133.5787462894491
 30
0.0
 10
110.9829321560352
 20
-133.3576108345768
 30
0.0
 10
111.0718674908101
 20
-133.2470442532882
 30
0.0
 10
111.1632062974195
 20
-133.1376788348435
 30
0.0
 10
111.2581497387076
 20
-133.0295145792418
 30
0.0
 10
111.3050214510046
 20
-132.9754324514412
 30
0.0
 10
111.3530943261445
 20
-132.9225514864843
 30
0.0
 10
111.4011672012838
 20
-132.8696728138227
 30
0.0
 10
111.4492400764236
 20
-132.8167918488655
 30
0.0
 10
111.499716423398
 20
-132.7639108839085
 30
0.0
 10
111.548991607529
 20
-132.7134345369338
 30
0.0
 10
111.7472923607486
 20
-132.5079233682093
 30
0.0
 10
111.9540046923166
 20
-132.3120260868242
 30
0.0
 10
112.1691320406758
 20
-132.1281473107613
 30
0.0
 10
112.3842570967397
 20
-131.9442685346977
 30
0.0
 10
112.6065937144555
 20
-131.7724082639567
 30
0.0
 10
112.83974767465
 20
-131.610161880555
 30
0.0
 10
112.9563246547472
 20
-131.5296381241278
 30
0.0
 10
113.0741050899826
 20
-131.4515212779787
 30
0.0
 10
113.1954890137495
 20
-131.3770079203605
 30
0.0
 10
113.255579248064
 20
-131.3397512415514
 30
0.0
 10
113.3168729375165
 20
-131.3024945627423
 30
0.0
 10
113.3769631718303
 20
-131.2664390467767
 30
0.0
 10
113.4394580241269
 20
-131.2315869859501
 30
0.0
 10
113.5019528764229
 20
-131.1967349251235
 30
0.0
 10
113.5644477287195
 20
-131.1618805720013
 30
0.0
 10
113.8144271379053
 20
-131.0248723620869
 30
0.0
 10
114.0704146536048
 20
-130.9034884383199
 30
0.0
 10
114.3300102424246
 20
-130.7965276378573
 30
0.0
 10
114.5908047017932
 20
-130.6907657079432
 30
0.0
 10
114.8552049419874
 20
-130.6006303564729
 30
0.0
 10
115.1256155809907
 20
-130.5249158360109
 30
0.0
 10
115.3948250571512
 20
-130.4491990232534
 30
0.0
 10
115.6700426398242
 20
-130.3891087889396
 30
0.0
 10
115.9500671661662
 20
-130.3458440036177
 30
0.0
 10
116.0894777017679
 20
-130.3242093186605
 30
0.0
 10
116.2324940181964
 20
-130.3061827068255
 30
0.0
 10
116.3743091717809
 20
-130.2941642015036
 30
0.0
 10
116.4440155857294
 20
-130.2869549321471
 30
0.0
 10
116.5149231625219
 20
-130.280944533338
 30
0.0
 10
116.5858307393132
 20
-130.2773387525123
 30
0.0
 10
116.6038573511485
 20
-130.2761375896686
 30
0.0
 10
116.6218862552791
 20
-130.2749364268248
 30
0.0
 10
116.6399128671145
 20
-130.2749364268248
 30
0.0
 10
116.6567383161057
 20
-130.2737329716861
 30
0.0
 10
116.6747649279411
 20
-130.2725318088423
 30
0.0
 10
116.6915903769323
 20
-130.2713306459989
 30
0.0
 10
116.7276458928983
 20
-130.2701271908599
 30
0.0
 10
116.7624979537249
 20
-130.2689260280164
 30
0.0
 10
116.7985534696908
 20
-130.267724865173
 30
0.0
 10
116.9403686232747
 20
-130.2641190843467
 30
0.0
 10
117.0857895576854
 20
-130.2629179215029
 30
0.0
 10
117.2360174357658
 20
-130.2629179215029
 30
0.0
 10
117.2360174357658
 20
-130.2629179215029
 30
0.0
 10
117.2925018892533
 20
-130.2629179215029
 30
0.0
 10
117.2925018892533
 20
-130.2629179215029
 30
0.0
 10
117.2925018892533
 20
-130.2629179215029
 30
0.0
 10
117.3489886350361
 20
-130.2629179215029
 30
0.0
 10
117.3489886350361
 20
-130.2629179215029
 30
0.0
 10
117.3850441510021
 20
-130.2617144663639
 30
0.0
 10
117.4235019926543
 20
-130.2617144663639
 30
0.0
 10
117.4607586714637
 20
-130.2617144663639
 30
0.0
 10
117.5352720290825
 20
-130.2617144663639
 30
0.0
 10
117.6097853867007
 20
-130.2605133035208
 30
0.0
 10
117.6830952891795
 20
-130.2605133035208
 30
0.0
 10
118.2791998578308
 20
-130.2581109778332
 30
0.0
 10
118.8753044264808
 20
-130.2545051970073
 30
0.0
 10
119.4714089951321
 20
-130.2508994161814
 30
0.0
 10
120.6624146772954
 20
-130.2448890173727
 30
0.0
 10
121.8534226517533
 20
-130.2352751300336
 30
0.0
 10
123.04562949676
 20
-130.2268624055373
 30
0.0
 10
124.2366374712179
 20
-130.2184496810417
 30
0.0
 10
125.4276431533811
 20
-130.210036956546
 30
0.0
 10
126.6186488355431
 20
-130.2016242320504
 30
0.0
 10
127.8096568100016
 20
-130.1956161255376
 30
0.0
 10
128.9994613293214
 20
-130.1896057267282
 30
0.0
 10
130.18926584864
 20
-130.1896057267282
 30
0.0
  0
SPLINE
  5
114
330
10B
100
AcDbEntity
  8
Capa 2
 62
   178
420
      519
370
    30
100
AcDbSpline
210
0.0
220
0.0
230
1.0
 70
     8
 71
     3
 72
   110
 73
   106
 74
     0
 42
0.0000000001
 43
0.0000000001
 40
0.0
 40
0.0
 40
0.0
 40
0.0
 40
1.0
 40
1.0
 40
1.0
 40
2.0
 40
2.0
 40
2.0
 40
3.0
 40
3.0
 40
3.0
 40
4.0
 40
4.0
 40
4.0
 40
5.0
 40
5.0
 40
5.0
 40
6.0
 40
6.0
 40
6.0
 40
7.0
 40
7.0
 40
7.0
 40
8.0
 40
8.0
 40
8.0
 40
9.0
 40
9.0
 40
9.0
 40
10.0
 40
10.0
 40
10.0
 40
11.0
 40
11.0
 40
11.0
 40
12.0
 40
12.0
 40
12.0
 40
13.0
 40
13.0
 40
13.0
 40
14.0
 40
14.0
 40
14.0
 40
15.0
 40
15.0
 40
15.0
 40
16.0
 40
16.0
 40
16.0
 40
17.0
 40
17.0
 40
17.0
 40
18.0
 40
18.0
 40
18.0
 40
19.0
 40
19.0
 40
19.0
 40
20.0
 40
20.0
 40
20.0
 40
21.0
 40
21.0
 40
21.0
 40
22.0
 40
22.0
 40
22.0
 40
23.0
 40
23.0
 40
23.0
 40
24.0
 40
24.0
 40
24.0
 40
25.0
 40
25.0
 40
25.0
 40
26.0
 40
26.0
 40
26.0
 40
27.0
 40
27.0
 40
27.0
 40
28.0
 40
28.0
 40
28.0
 40
29.0
 40
29.0
 40
29.0
 40
30.0
 40
30.0
 40
30.0
 40
31.0
 40
31.0
 40
31.0
 40
32.0
 40
32.0
 40
32.0
 40
33.0
 40
33.0
 40
33.0
 40
34.0
 40
34.0
 40
34.0
 40
35.0
 40
35.0
 40
35.0
 40
35.0
 10
130.1897472306961
 20
-130.1896057267282
 30
0.0
 10
131.3795517500152
 20
-130.1896057267282
 30
0.0
 10
132.5705551398826
 20
-130.1944149626939
 30
0.0
 10
133.760361951497
 20
-130.2016242320504
 30
0.0
 10
134.9513699259549
 20
-130.2088357937023
 30
0.0
 10
136.1435744786657
 20
-130.2184496810417
 30
0.0
 10
137.3345824531242
 20
-130.2268624055373
 30
0.0
 10
138.5255904275828
 20
-130.2364785851723
 30
0.0
 10
139.7165984020407
 20
-130.2436878545289
 30
0.0
 10
140.9088029547515
 20
-130.2508994161814
 30
0.0
 10
141.5037086528546
 20
-130.2545051970073
 30
0.0
 10
142.09981092921
 20
-130.2569098149898
 30
0.0
 10
142.6959177901559
 20
-130.2617167586605
 30
0.0
 10
142.7704311477747
 20
-130.2617167586605
 30
0.0
 10
142.844939920801
 20
-130.2617167586605
 30
0.0
 10
142.9194532784205
 20
-130.2617167586605
 30
0.0
 10
142.9194532784205
 20
-130.2617167586605
 30
0.0
 10
143.0300244442992
 20
-130.2617167586605
 30
0.0
 10
143.0300244442992
 20
-130.2617167586605
 30
0.0
 10
143.0504533818215
 20
-130.2617167586605
 30
0.0
 10
143.0684799936568
 20
-130.2617167586605
 30
0.0
 10
143.0865066054922
 20
-130.2629179215029
 30
0.0
 10
143.0865066054922
 20
-130.2629179215029
 30
0.0
 10
143.142993351275
 20
-130.2629179215029
 30
0.0
 10
143.142993351275
 20
-130.2629179215029
 30
0.0
 10
143.2932212293554
 20
-130.2629179215029
 30
0.0
 10
143.4386444560607
 20
-130.2629179215029
 30
0.0
 10
143.5804596096459
 20
-130.267724865173
 30
0.0
 10
143.6165128333153
 20
-130.2689283203117
 30
0.0
 10
143.6513648941425
 20
-130.2701294831555
 30
0.0
 10
143.6874181178125
 20
-130.2725318088423
 30
0.0
 10
143.7054493142384
 20
-130.2725318088423
 30
0.0
 10
143.7222747632297
 20
-130.2725318088423
 30
0.0
 10
143.740301375065
 20
-130.2737352639817
 30
0.0
 10
143.7571268240563
 20
-130.2749364268248
 30
0.0
 10
143.7751534358916
 20
-130.2761375896686
 30
0.0
 10
143.7931800477263
 20
-130.2773410448076
 30
0.0
 10
143.8640899168141
 20
-130.282147988477
 30
0.0
 10
143.9349952013108
 20
-130.2869549321471
 30
0.0
 10
144.0059050703986
 20
-130.2929630386598
 30
0.0
 10
144.1465144765484
 20
-130.3073861619645
 30
0.0
 10
144.2895353775675
 20
-130.3242116109561
 30
0.0
 10
144.4289436208739
 20
-130.3458440036177
 30
0.0
 10
144.7089704395119
 20
-130.3891087889396
 30
0.0
 10
144.9841880221848
 20
-130.4479978604099
 30
0.0
 10
145.2545963688928
 20
-130.5237146731672
 30
0.0
 10
145.5238035527568
 20
-130.5994291936291
 30
0.0
 10
145.7894072480904
 20
-130.6907680002388
 30
0.0
 10
146.0490005446155
 20
-130.7977288007011
 30
0.0
 10
146.3085938411407
 20
-130.9034907306158
 30
0.0
 10
146.5645836491349
 20
-131.0248746543822
 30
0.0
 10
146.8145630583206
 20
-131.1618805720013
 30
0.0
 10
146.878261365756
 20
-131.1967349251235
 30
0.0
 10
146.9395527629139
 20
-131.2315869859501
 30
0.0
 10
147.0020499075051
 20
-131.2676425019161
 30
0.0
 10
147.063341304663
 20
-131.3036957255858
 30
0.0
 10
147.1234315389768
 20
-131.3397512415514
 30
0.0
 10
147.1835217732906
 20
-131.3770079203605
 30
0.0
 10
147.3049079893528
 20
-131.4527224408224
 30
0.0
 10
147.423887295137
 20
-131.5296404164231
 30
0.0
 10
147.5392631123901
 20
-131.610161880555
 30
0.0
 10
147.7724170725847
 20
-131.7724082639567
 30
0.0
 10
147.9959571454398
 20
-131.9442685346977
 30
0.0
 10
148.2098787463637
 20
-132.1293484736047
 30
0.0
 10
148.4250060947235
 20
-132.313227249668
 30
0.0
 10
148.6317207185868
 20
-132.5079233682093
 30
0.0
 10
148.8300226179547
 20
-132.7134345369338
 30
0.0
 10
148.8804989649291
 20
-132.7651143390473
 30
0.0
 10
148.9297741490601
 20
-132.8167918488655
 30
0.0
 10
148.9778435857564
 20
-132.8696728138227
 30
0.0
 10
149.0259176070439
 20
-132.9225514864843
 30
0.0
 10
149.0751927911748
 20
-132.9754324514412
 30
0.0
 10
149.1208599021843
 20
-133.0295145792418
 30
0.0
 10
149.2158067819159
 20
-133.1364776719997
 30
0.0
 10
149.3083467513694
 20
-133.2458430904445
 30
0.0
 10
149.3960774848573
 20
-133.357613126872
 30
0.0
 10
149.5751516095458
 20
-133.5799497445878
 30
0.0
 10
149.7422049366181
 20
-133.8082967611126
 30
0.0
 10
149.8996443763503
 20
-134.0426518841502
 30
0.0
 10
150.2145232558155
 20
-134.512563293069
 30
0.0
 10
150.4885350910539
 20
-135.0065140049277
 30
0.0
 10
150.7264982872127
 20
-135.5232982722902
 30
0.0
 10
150.844276430154
 20
-135.7828915688157
 30
0.0
 10
150.9536418485988
 20
-136.0472918090099
 30
0.0
 10
151.0533933797035
 20
-136.3165012851701
 30
0.0
 10
151.0786315531914
 20
-136.3838030811361
 30
0.0
 10
151.1026685638352
 20
-136.4523060399458
 30
0.0
 10
151.1279067373217
 20
-136.5196078359115
 30
0.0
 10
151.150742585122
 20
-136.5881130870171
 30
0.0
 10
151.1735738483318
 20
-136.6554148829828
 30
0.0
 10
151.1964096961321
 20
-136.7239178417925
 30
0.0
 10
151.2408802288893
 20
-136.8609260517073
 30
0.0
 10
151.2829438513671
 20
-136.9979342616221
 30
0.0
 10
151.3226005635681
 20
-137.1349424715369
 30
0.0
 10
151.4019231571519
 20
-137.4089565990705
 30
0.0
 10
151.4704261159616
 20
-137.6853776368828
 30
0.0
 10
151.529315187432
 20
-137.9641987080864
 30
0.0
 10
151.5882042589023
 20
-138.2430220715854
 30
0.0
 10
151.6374794430326
 20
-138.523046597928
 30
0.0
 10
151.6759395769808
 20
-138.8054757422532
 30
0.0
 10
151.7155962891818
 20
-139.0879048865793
 30
0.0
 10
151.7444425357912
 20
-139.3715351937482
 30
0.0
 10
151.7648714733128
 20
-139.6563666637606
 30
0.0
 10
151.7853049954255
 20
-139.9423992966168
 30
0.0
 10
151.7949188827656
 20
-140.2296353846113
 30
0.0
 10
151.7949188827656
 20
-140.5180726354496
 30
0.0
  0
LWPOLYLINE
  5
115
330
10B
100
AcDbEntity
  8
Capa 2
100
AcDbPolyline
 90
        4
 70
     1
 43
0.0
 10
98.62446680345412
 20
-158.9601676150024
 10
169.685854331593
 20
-158.9601676150024
 10
169.685854331593
 20
-117.0574046808261
 10
98.62446680345412
 20
-117.0574046808261
  0
ENDBLK
  5
10E
330
10B
100
AcDbEntity
  8
0
100
AcDbBlockEnd
  0
BLOCK
  5
11A
330
118
100
AcDbEntity
  8
0
100
AcDbBlockBegin
  2
Block_15
 70
     0
 10
0.0
 20
0.0
 30
0.0
  3
Block_15
  1

  0
SPLINE
  5
11C
330
118
100
AcDbEntity
  8
Capa 2
 62
   178
420
      519
370
    30
100
AcDbSpline
210
0.0
220
0.0
230
1.0
 70
     8
 71
     3
 72
    98
 73
    94
 74
     0
 42
0.0000000001
 43
0.0000000001
 40
0.0
 40
0.0
 40
0.0
 40
0.0
 40
1.0
 40
1.0
 40
1.0
 40
2.0
 40
2.0
 40
2.0
 40
3.0
 40
3.0
 40
3.0
 40
4.0
 40
4.0
 40
4.0
 40
5.0
 40
5.0
 40
5.0
 40
6.0
 40
6.0
 40
6.0
 40
7.0
 40
7.0
 40
7.0
 40
8.0
 40
8.0
 40
8.0
 40
9.0
 40
9.0
 40
9.0
 40
10.0
 40
10.0
 40
10.0
 40
11.0
 40
11.0
 40
11.0
 40
12.0
 40
12.0
 40
12.0
 40
13.0
 40
13.0
 40
13.0
 40
14.0
 40
14.0
 40
14.0
 40
15.0
 40
15.0
 40
15.0
 40
16.0
 40
16.0
 40
16.0
 40
17.0
 40
17.0
 40
17.0
 40
18.0
 40
18.0
 40
18.0
 40
19.0
 40
19.0
 40
19.0
 40
20.0
 40
20.0
 40
20.0
 40
21.0
 40
21.0
 40
21.0
 40
22.0
 40
22.0
 40
22.0
 40
23.0
 40
23.0
 40
23.0
 40
24.0
 40
24.0
 40
24.0
 40
25.0
 40
25.0
 40
25.0
 40
26.0
 40
26.0
 40
26.0
 40
27.0
 40
27.0
 40
27.0
 40
28.0
 40
28.0
 40
28.0
 40
29.0
 40
29.0
 40
29.0
 40
30.0
 40
30.0
 40
30.0
 40
31.0
 40
31.0
 40
31.0
 40
31.0
 10
160.630842389685
 20
-155.6588798505057
 30
0.0
 10
160.630842389685
 20
-155.6588798505057
 30
0.0
 10
160.630842389685
 20
-155.6805128162405
 30
0.0
 10
160.630842389685
 20
-155.6805128162405
 30
0.0
 10
160.629636642251
 20
-155.6865217823647
 30
0.0
 10
160.629636642251
 20
-155.6937327709428
 30
0.0
 10
160.629636642251
 20
-155.7009437595214
 30
0.0
 10
160.6284354794069
 20
-155.7069530121822
 30
0.0
 10
160.6284354794069
 20
-155.7129619783058
 30
0.0
 10
160.6284354794069
 20
-155.7201729668845
 30
0.0
 10
160.6272343165635
 20
-155.7261822195459
 30
0.0
 10
160.62603315372
 20
-155.7321911856694
 30
0.0
 10
160.62603315372
 20
-155.7382004383308
 30
0.0
 10
160.6248319908766
 20
-155.7442094044544
 30
0.0
 10
160.6236308280325
 20
-155.7502186571158
 30
0.0
 10
160.6236308280325
 20
-155.7562276232394
 30
0.0
 10
160.6224250805985
 20
-155.7610348534463
 30
0.0
 10
160.6212239177551
 20
-155.7670441061064
 30
0.0
 10
160.620022754911
 20
-155.7730530722306
 30
0.0
 10
160.6188215920675
 20
-155.7778605889741
 30
0.0
 10
160.6176204292247
 20
-155.7838695550983
 30
0.0
 10
160.6164192663806
 20
-155.7898788077591
 30
0.0
 10
160.6152181035372
 20
-155.794686037966
 30
0.0
 10
160.6140123561032
 20
-155.7994932681729
 30
0.0
 10
160.6128111932591
 20
-155.8043004983792
 30
0.0
 10
160.6116100304157
 20
-155.8091077285855
 30
0.0
 10
160.6104088675722
 20
-155.8139152453291
 30
0.0
 10
160.6092077047288
 20
-155.818722475536
 30
0.0
 10
160.6080065418847
 20
-155.8235297057429
 30
0.0
 10
160.6068053790413
 20
-155.8283369359492
 30
0.0
 10
160.6043984687631
 20
-155.8319424302382
 30
0.0
 10
160.6031973059197
 20
-155.8367496604451
 30
0.0
 10
160.6031973059197
 20
-155.8415571771886
 30
0.0
 10
160.6007949802322
 20
-155.8463644073949
 30
0.0
 10
160.5995938173894
 20
-155.849969901684
 30
0.0
 10
160.5983926545459
 20
-155.8535753959736
 30
0.0
 10
160.5971869071107
 20
-155.857180890262
 30
0.0
 10
160.5959857442678
 20
-155.8619881204689
 30
0.0
 10
160.593583418581
 20
-155.8655936147586
 30
0.0
 10
160.593583418581
 20
-155.8691991090469
 30
0.0
 10
160.5923822557369
 20
-155.8716025808821
 30
0.0
 10
160.58997993005
 20
-155.8764098110884
 30
0.0
 10
160.5887741826153
 20
-155.8788135694608
 30
0.0
 10
160.5875730197719
 20
-155.8824190637492
 30
0.0
 10
160.5863718569285
 20
-155.8860245580389
 30
0.0
 10
160.5851706940844
 20
-155.8884283164106
 30
0.0
 10
160.5683452450931
 20
-155.9292902029718
 30
0.0
 10
160.5467105601363
 20
-155.9677486176985
 30
0.0
 10
160.5226781340843
 20
-156.0038032740534
 30
0.0
 10
160.5022446119709
 20
-156.0326469418296
 30
0.0
 10
160.4794087641706
 20
-156.0590871377713
 30
0.0
 10
160.4541705906834
 20
-156.0843253112585
 30
0.0
 10
160.4397520519696
 20
-156.0987472884152
 30
0.0
 10
160.4241277658218
 20
-156.1131689790354
 30
0.0
 10
160.408503479674
 20
-156.1263892202742
 30
0.0
 10
160.3928791935262
 20
-156.1372054166047
 30
0.0
 10
160.3784560702212
 20
-156.1480218994724
 30
0.0
 10
160.3628317840733
 20
-156.1588383823401
 30
0.0
 10
160.3303866335248
 20
-156.1804710615382
 30
0.0
 10
160.2955299881077
 20
-156.1997002689013
 30
0.0
 10
160.2594767644376
 20
-156.214122246058
 30
0.0
 10
160.2414501526023
 20
-156.2225349705539
 30
0.0
 10
160.223423540767
 20
-156.2285442232147
 30
0.0
 10
160.204191181497
 20
-156.2345531893389
 30
0.0
 10
160.1849634068195
 20
-156.2405624419997
 30
0.0
 10
160.1657356321407
 20
-156.245369672206
 30
0.0
 10
160.1465032728701
 20
-156.2489751664956
 30
0.0
 10
160.1380905483748
 20
-156.2513786383302
 30
0.0
 10
160.1272754981925
 20
-156.2525806607846
 30
0.0
 10
160.1176616108525
 20
-156.2537823967019
 30
0.0
 10
160.1080477235138
 20
-156.2549841326198
 30
0.0
 10
160.0972326733309
 20
-156.2573878909909
 30
0.0
 10
160.0876142014004
 20
-156.2573878909909
 30
0.0
 10
160.0828095500259
 20
-156.2573878909909
 30
0.0
 10
160.078000314061
 20
-156.2573878909909
 30
0.0
 10
160.0731956626872
 20
-156.2585896269082
 30
0.0
 10
160.0683864267222
 20
-156.2585896269082
 30
0.0
 10
160.0635817753471
 20
-156.2597913628255
 30
0.0
 10
160.0587725393822
 20
-156.2597913628255
 30
0.0
 10
160.0587725393822
 20
-156.2597913628255
 30
0.0
 10
160.0515609777303
 20
-156.2597913628255
 30
0.0
 10
160.0515609777303
 20
-156.2597913628255
 30
0.0
 10
160.0515609777303
 20
-156.2597913628255
 30
0.0
 10
160.0443494160778
 20
-156.2597913628255
 30
0.0
 10
160.0443494160778
 20
-156.2597913628255
 30
0.0
 10
160.0443494160778
 20
-156.2597913628255
 30
0.0
 10
160.0371378544253
 20
-156.2597913628255
 30
0.0
 10
160.0371378544253
 20
-156.2597913628255
 30
0.0
 10
160.0371378544253
 20
-156.2609933852806
 30
0.0
 10
160.034735528739
 20
-156.2609933852806
 30
0.0
 10
160.0335343658956
 20
-156.2609933852806
 30
0.0
 10
160.0335343658956
 20
-156.2609933852806
 30
0.0
 10
160.02872512993
 20
-156.2609933852806
 30
0.0
 10
160.02872512993
 20
-156.2609933852806
 30
0.0
  0
LWPOLYLINE
  5
11D
330
118
100
AcDbEntity
  8
Capa 2
100
AcDbPolyline
 90
        4
 70
     1
 43
0.0
 10
98.62446680345412
 20
-158.9601676150024
 10
169.685854331593
 20
-158.9601676150024
 10
169.685854331593
 20
-117.0574046808261
 10
98.62446680345412
 20
-117.0574046808261
  0
ENDBLK
  5
11B
330
118
100
AcDbEntity
  8
0
100
AcDbBlockEnd
  0
BLOCK
  5
123
330
121
100
AcDbEntity
  8
0
100
AcDbBlockBegin
  2
Block_16
 70
     0
 10
0.0
 20
0.0
 30
0.0
  3
Block_16
  1

  0
SPLINE
  5
125
330
121
100
AcDbEntity
  8
Capa 2
 62
   178
420
      519
370
    30
100
AcDbSpline
210
0.0
220
0.0
230
1.0
 70
     8
 71
     3
 72
    74
 73
    70
 74
     0
 42
0.0000000001
 43
0.0000000001
 40
0.0
 40
0.0
 40
0.0
 40
0.0
 40
1.0
 40
1.0
 40
1.0
 40
2.0
 40
2.0
 40
2.0
 40
3.0
 40
3.0
 40
3.0
 40
4.0
 40
4.0
 40
4.0
 40
5.0
 40
5.0
 40
5.0
 40
6.0
 40
6.0
 40
6.0
 40
7.0
 40
7.0
 40
7.0
 40
8.0
 40
8.0
 40
8.0
 40
9.0
 40
9.0
 40
9.0
 40
10.0
 40
10.0
 40
10.0
 40
11.0
 40
11.0
 40
11.0
 40
12.0
 40
12.0
 40
12.0
 40
13.0
 40
13.0
 40
13.0
 40
14.0
 40
14.0
 40
14.0
 40
15.0
 40
15.0
 40
15.0
 40
16.0
 40
16.0
 40
16.0
 40
17.0
 40
17.0
 40
17.0
 40
18.0
 40
18.0
 40
18.0
 40
19.0
 40
19.0
 40
19.0
 40
20.0
 40
20.0
 40
20.0
 40
21.0
 40
21.0
 40
21.0
 40
22.0
 40
22.0
 40
22.0
 40
23.0
 40
23.0
 40
23.0
 40
23.0
 10
100.3499240474944
 20
-156.2602721718078
 30
0.0
 10
100.3499240474944
 20
-156.2602721718078
 30
0.0
 10
100.3451165307512
 20
-156.2602721718078
 30
0.0
 10
100.3451165307512
 20
-156.2602721718078
 30
0.0
 10
100.3451165307512
 20
-156.2602721718078
 30
0.0
 10
100.3415107499249
 20
-156.2602721718078
 30
0.0
 10
100.3415107499249
 20
-156.2602721718078
 30
0.0
 10
100.3415107499249
 20
-156.2602721718078
 30
0.0
 10
100.3355020703377
 20
-156.2602721718078
 30
0.0
 10
100.3355020703377
 20
-156.2602721718078
 30
0.0
 10
100.3355020703377
 20
-156.2602721718078
 30
0.0
 10
100.3270893458424
 20
-156.2602721718078
 30
0.0
 10
100.3270893458424
 20
-156.2602721718078
 30
0.0
 10
100.3258870368506
 20
-156.2590704358905
 30
0.0
 10
100.3222818290985
 20
-156.2590704358905
 30
0.0
 10
100.3210800931809
 20
-156.2590704358905
 30
0.0
 10
100.3150708405205
 20
-156.2590704358905
 30
0.0
 10
100.3102633237766
 20
-156.2590704358905
 30
0.0
 10
100.3054563801069
 20
-156.2578686999732
 30
0.0
 10
100.300648863364
 20
-156.2578686999732
 30
0.0
 10
100.2958419196937
 20
-156.2578686999732
 30
0.0
 10
100.2910344029502
 20
-156.2578686999732
 30
0.0
 10
100.281419942537
 20
-156.256666964056
 30
0.0
 10
100.2718054821241
 20
-156.2554649416008
 30
0.0
 10
100.2621904486374
 20
-156.2530614697663
 30
0.0
 10
100.2525759882235
 20
-156.2530614697663
 30
0.0
 10
100.2417597918931
 20
-156.2506577113952
 30
0.0
 10
100.2321453314802
 20
-156.2482539530228
 30
0.0
 10
100.2129158375799
 20
-156.244648745271
 30
0.0
 10
100.1936869167535
 20
-156.2398412285275
 30
0.0
 10
100.1756591587705
 20
-156.2338322624033
 30
0.0
 10
100.1564302379444
 20
-156.2278230097425
 30
0.0
 10
100.137201317118
 20
-156.2218140436183
 30
0.0
 10
100.1203752950526
 20
-156.2146030550403
 30
0.0
 10
100.0831191893174
 20
-156.1989793419657
 30
0.0
 10
100.0482659823428
 20
-156.1809518705199
 30
0.0
 10
100.0158168202772
 20
-156.1581174554045
 30
0.0
 10
100.0013948431205
 20
-156.1485027084547
 30
0.0
 10
99.98577113004653
 20
-156.137686225587
 30
0.0
 10
99.97255146188122
 20
-156.1268700292559
 30
0.0
 10
99.95572601288962
 20
-156.1124480520998
 30
0.0
 10
99.94010229981563
 20
-156.0992280973976
 30
0.0
 10
99.92447858674132
 20
-156.0836043843229
 30
0.0
 10
99.90044214917171
 20
-156.059567946753
 30
0.0
 10
99.87760744751904
 20
-156.0331277508113
 30
0.0
 10
99.85717621770154
 20
-156.004284083035
 30
0.0
 10
99.83193804421432
 20
-155.9682294266801
 30
0.0
 10
99.81150681439682
 20
-155.9297710119541
 30
0.0
 10
99.79468136540525
 20
-155.8889091253923
 30
0.0
 10
99.79227789357008
 20
-155.8816981368142
 30
0.0
 10
99.78867268581797
 20
-155.8744871482355
 30
0.0
 10
99.78626864090962
 20
-155.8672761596575
 30
0.0
 10
99.78266343315718
 20
-155.8588634351616
 30
0.0
 10
99.78025938824885
 20
-155.8504507106656
 30
0.0
 10
99.77665418049609
 20
-155.8420379861697
 30
0.0
 10
99.77425070866125
 20
-155.8324232392199
 30
0.0
 10
99.7718466637529
 20
-155.8228087788067
 30
0.0
 10
99.76824145600046
 20
-155.811992295939
 30
0.0
 10
99.76583798416626
 20
-155.8023778355264
 30
0.0
 10
99.76343393925663
 20
-155.7915613526587
 30
0.0
 10
99.76103046742178
 20
-155.780744869791
 30
0.0
 10
99.75862699558756
 20
-155.7675249150887
 30
0.0
 10
99.75622295067827
 20
-155.7555066963038
 30
0.0
 10
99.755021214761
 20
-155.7434884775188
 30
0.0
 10
99.75261774292615
 20
-155.73026823628
 30
0.0
 10
99.75141600700888
 20
-155.7170482815777
 30
0.0
 10
99.75021427109162
 20
-155.7026263044204
 30
0.0
 10
99.74901253517403
 20
-155.6882046138009
 30
0.0
 10
99.74901253517403
 20
-155.6737826366435
 30
0.0
 10
99.74781022618264
 20
-155.6581589235702
 30
0.0
  0
SPLINE
  5
126
330
121
100
AcDbEntity
  8
Capa 2
 62
   178
420
      519
370
    30
100
AcDbSpline
210
0.0
220
0.0
230
1.0
 70
     8
 71
     3
 72
     8
 73
     4
 74
     0
 42
0.0000000001
 43
0.0000000001
 40
0.0
 40
0.0
 40
0.0
 40
0.0
 40
1.0
 40
1.0
 40
1.0
 40
1.0
 10
132.6420655903912
 20
-141.6634100604555
 30
0.0
 10
132.8103200803063
 20
-141.305267541816
 30
0.0
 10
132.8956484881079
 20
-140.9146752880372
 30
0.0
 10
132.8956484881079
 20
-140.5180737815975
 30
0.0
  0
SPLINE
  5
127
330
121
100
AcDbEntity
  8
Capa 2
 62
   178
420
      519
370
    30
100
AcDbSpline
210
0.0
220
0.0
230
1.0
 70
     8
 71
     3
 72
     8
 73
     4
 74
     0
 42
0.0000000001
 43
0.0000000001
 40
0.0
 40
0.0
 40
0.0
 40
0.0
 40
1.0
 40
1.0
 40
1.0
 40
1.0
 10
130.1897472306961
 20
-143.2248186037548
 30
0.0
 10
130.6752829257626
 20
-143.2248186037548
 30
0.0
 10
131.1524036040379
 20
-143.0938207926488
 30
0.0
 10
131.5694363402954
 20
-142.8474471642892
 30
0.0
  0
SPLINE
  5
128
330
121
100
AcDbEntity
  8
Capa 2
 62
   178
420
      519
370
    30
100
AcDbSpline
210
0.0
220
0.0
230
1.0
 70
     8
 71
     3
 72
     8
 73
     4
 74
     0
 42
0.0000000001
 43
0.0000000001
 40
0.0
 40
0.0
 40
0.0
 40
0.0
 40
1.0
 40
1.0
 40
1.0
 40
1.0
 10
131.5696793236197
 20
-142.8466047456918
 30
0.0
 10
132.0371884068516
 20
-142.568983691184
 30
0.0
 10
132.4121529360387
 20
-142.1567590447445
 30
0.0
 10
132.6429045705457
 20
-141.6628094790334
 30
0.0
  0
SPLINE
  5
129
330
121
100
AcDbEntity
  8
Capa 2
 62
   178
420
      519
370
    30
100
AcDbSpline
210
0.0
220
0.0
230
1.0
 70
     8
 71
     3
 72
     8
 73
     4
 74
     0
 42
0.0000000001
 43
0.0000000001
 40
0.0
 40
0.0
 40
0.0
 40
0.0
 40
1.0
 40
1.0
 40
1.0
 40
1.0
 10
132.8963728534864
 20
-140.5180726354496
 30
0.0
 10
132.8963728534864
 20
-140.0325369403827
 30
0.0
 10
132.7653727500848
 20
-139.5554139698115
 30
0.0
 10
132.51899682943
 20
-139.138381233554
 30
0.0
  0
SPLINE
  5
12A
330
121
100
AcDbEntity
  8
Capa 2
 62
   178
420
      519
370
    30
100
AcDbSpline
210
0.0
220
0.0
230
1.0
 70
     8
 71
     3
 72
     8
 73
     4
 74
     0
 42
0.0000000001
 43
0.0000000001
 40
0.0
 40
0.0
 40
0.0
 40
0.0
 40
1.0
 40
1.0
 40
1.0
 40
1.0
 10
132.5181578492762
 20
-139.1381405425263
 30
0.0
 10
132.2405333563245
 20
-138.6706314592932
 30
0.0
 10
131.8283098560333
 20
-138.2956646378101
 30
0.0
 10
131.3343614364701
 20
-138.0649130033031
 30
0.0
  0
SPLINE
  5
12B
330
121
100
AcDbEntity
  8
Capa 2
 62
   178
420
      519
370
    30
100
AcDbSpline
210
0.0
220
0.0
230
1.0
 70
     8
 71
     3
 72
     8
 73
     4
 74
     0
 42
0.0000000001
 43
0.0000000001
 40
0.0
 40
0.0
 40
0.0
 40
0.0
 40
1.0
 40
1.0
 40
1.0
 40
1.0
 10
131.3349666024827
 20
-138.0656327840911
 30
0.0
 10
130.9768229376956
 20
-137.8985794570194
 30
0.0
 10
130.5862295377695
 20
-137.8120498863746
 30
0.0
 10
130.1896280313295
 20
-137.8120498863746
 30
0.0
  0
SPLINE
  5
12C
330
121
100
AcDbEntity
  8
Capa 2
 62
   178
420
      519
370
    30
100
AcDbSpline
210
0.0
220
0.0
230
1.0
 70
     8
 71
     3
 72
    11
 73
     7
 74
     0
 42
0.0000000001
 43
0.0000000001
 40
0.0
 40
0.0
 40
0.0
 40
0.0
 40
1.0
 40
1.0
 40
1.0
 40
2.0
 40
2.0
 40
2.0
 40
2.0
 10
130.1897472306961
 20
-137.8114470126576
 30
0.0
 10
129.4710552831391
 20
-137.8114470126576
 30
0.0
 10
128.7836142001743
 20
-138.0962807749653
 30
0.0
 10
128.2752426573068
 20
-138.6046523178322
 30
0.0
 10
127.7680722772834
 20
-139.1118204055616
 30
0.0
 10
127.4832408072704
 20
-139.800464943666
 30
0.0
 10
127.4832408072704
 20
-140.5179534360837
 30
0.0
  0
SPLINE
  5
12D
330
121
100
AcDbEntity
  8
Capa 2
 62
   178
420
      519
370
    30
100
AcDbSpline
210
0.0
220
0.0
230
1.0
 70
     8
 71
     3
 72
    11
 73
     7
 74
     0
 42
0.0000000001
 43
0.0000000001
 40
0.0
 40
0.0
 40
0.0
 40
0.0
 40
1.0
 40
1.0
 40
1.0
 40
2.0
 40
2.0
 40
2.0
 40
2.0
 10
127.4830024085385
 20
-140.5180726354496
 30
0.0
 10
127.4830024085385
 20
-141.2367634368586
 30
0.0
 10
127.7678338785509
 20
-141.9242056659714
 30
0.0
 10
128.2762054214171
 20
-142.4325772088385
 30
0.0
 10
128.7833735091459
 20
-142.9397464427147
 30
0.0
 10
129.4720180472501
 20
-143.2245790588747
 30
0.0
 10
130.1895065396677
 20
-143.2245790588747
 30
0.0
  0
LWPOLYLINE
  5
12E
330
121
100
AcDbEntity
  8
Capa 2
100
AcDbPolyline
 90
        4
 70
     1
 43
0.0
 10
98.62446680345412
 20
-158.9601676150024
 10
169.685854331593
 20
-158.9601676150024
 10
169.685854331593
 20
-117.0574046808261
 10
98.62446680345412
 20
-117.0574046808261
  0
ENDBLK
  5
124
330
121
100
AcDbEntity
  8
0
100
AcDbBlockEnd
  0
BLOCK
  5
134
330
132
100
AcDbEntity
  8
0
100
AcDbBlockBegin
  2
Block_17
 70
     0
 10
0.0
 20
0.0
 30
0.0
  3
Block_17
  1

  0
SPLINE
  5
136
330
132
100
AcDbEntity
  8
Capa 2
 62
   178
420
      519
370
    30
100
AcDbSpline
210
0.0
220
0.0
230
1.0
 70
     8
 71
     3
 72
    14
 73
    10
 74
     0
 42
0.0000000001
 43
0.0000000001
 40
0.0
 40
0.0
 40
0.0
 40
0.0
 40
1.0
 40
1.0
 40
1.0
 40
2.0
 40
2.0
 40
2.0
 40
3.0
 40
3.0
 40
3.0
 40
3.0
 10
130.1897472306961
 20
-142.2474961237842
 30
0.0
 10
130.8074841920077
 20
-142.2474961237842
 30
0.0
 10
131.37834600258
 20
-141.9181975594582
 30
0.0
 10
131.6872144832367
 20
-141.3833855341131
 30
0.0
 10
131.9960829638922
 20
-140.8485746549146
 30
0.0
 10
131.9960829638922
 20
-140.1875717621322
 30
0.0
 10
131.6872144832367
 20
-139.6527608829347
 30
0.0
 10
131.37834600258
 20
-139.1179500037365
 30
0.0
 10
130.8074841920077
 20
-138.7886502932619
 30
0.0
 10
130.1897472306961
 20
-138.7886502932619
 30
0.0
  0
SPLINE
  5
137
330
132
100
AcDbEntity
  8
Capa 2
 62
   178
420
      519
370
    30
100
AcDbSpline
210
0.0
220
0.0
230
1.0
 70
     8
 71
     3
 72
    17
 73
    13
 74
     0
 42
0.0000000001
 43
0.0000000001
 40
0.0
 40
0.0
 40
0.0
 40
0.0
 40
1.0
 40
1.0
 40
1.0
 40
2.0
 40
2.0
 40
2.0
 40
3.0
 40
3.0
 40
3.0
 40
4.0
 40
4.0
 40
4.0
 40
4.0
 10
130.1897472306961
 20
-138.7886502932619
 30
0.0
 10
129.731852034803
 20
-138.7886502932619
 30
0.0
 10
129.2907822879018
 20
-138.9713279064814
 30
0.0
 10
128.9662895210978
 20
-139.2958206732863
 30
0.0
 10
128.6417990465892
 20
-139.6191099849512
 30
0.0
 10
128.4603225962132
 20
-140.0589774228613
 30
0.0
 10
128.4603225962132
 20
-140.5180737815975
 30
0.0
 10
128.4603225962132
 20
-140.9771701403334
 30
0.0
 10
128.6417990465892
 20
-141.4170375782436
 30
0.0
 10
128.9662895210978
 20
-141.7403280360561
 30
0.0
 10
129.2907822879018
 20
-142.06482080286
 30
0.0
 10
129.731852034803
 20
-142.2474972699322
 30
0.0
 10
130.1897472306961
 20
-142.2474972699322
 30
0.0
  0
LWPOLYLINE
  5
138
330
132
100
AcDbEntity
  8
Capa 2
100
AcDbPolyline
 90
        4
 70
     1
 43
0.0
 10
98.62446680345412
 20
-158.9601676150024
 10
169.685854331593
 20
-158.9601676150024
 10
169.685854331593
 20
-117.0574046808261
 10
98.62446680345412
 20
-117.0574046808261
  0
ENDBLK
  5
135
330
132
100
AcDbEntity
  8
0
100
AcDbBlockEnd
  0
BLOCK
  5
13B
330
139
100
AcDbEntity
  8
0
100
AcDbBlockBegin
  2
Block_18
 70
     0
 10
0.0
 20
0.0
 30
0.0
  3
Block_18
  1

  0
MTEXT
  5
13D
330
139
100
AcDbEntity
  8
Capa 2
100
AcDbMText
 10
165.307394706937
 20
-84.34592825582324
 30
0.0
 40
0.2
 41
0.0
 46
0.0
 71
     7
 72
     1
  1
\C178;\c459264;\FArial Bold|b1|i0|c1;\H4.116779;\W1.000000;700
 11
0.0000000000000001
 21
1.0
 31
0.0
 73
     1
 44
1.0
  0
SPLINE
  5
13E
330
139
100
AcDbEntity
  8
Capa 2
 62
   178
420
      519
370
    30
100
AcDbSpline
210
0.0
220
0.0
230
1.0
 70
     8
 71
     3
 72
     8
 73
     4
 74
     0
 42
0.0000000001
 43
0.0000000001
 40
0.0
 40
0.0
 40
0.0
 40
0.0
 40
1.0
 40
1.0
 40
1.0
 40
1.0
 10
159.7124112734807
 20
-170.612322854186
 30
0.0
 10
159.8698461286218
 20
-170.5702592317069
 30
0.0
 10
160.0200740067016
 20
-170.4993516549156
 30
0.0
 10
160.1558833460682
 20
-170.4008024328013
 30
0.0
  0
SPLINE
  5
13F
330
139
100
AcDbEntity
  8
Capa 2
 62
   178
420
      519
370
    30
100
AcDbSpline
210
0.0
220
0.0
230
1.0
 70
     8
 71
     3
 72
     8
 73
     4
 74
     0
 42
0.0000000001
 43
0.0000000001
 40
0.0
 40
0.0
 40
0.0
 40
0.0
 40
1.0
 40
1.0
 40
1.0
 40
1.0
 10
101.6660403528382
 20
-170.4012826687092
 30
0.0
 10
101.8018462537612
 20
-170.4986307279794
 30
0.0
 10
101.9520741318413
 20
-170.570740613763
 30
0.0
 10
102.1095124254263
 20
-170.6128042362415
 30
0.0
  0
SPLINE
  5
140
330
139
100
AcDbEntity
  8
Capa 2
 62
   178
420
      519
370
    30
100
AcDbSpline
210
0.0
220
0.0
230
1.0
 70
     8
 71
     3
 72
     8
 73
     4
 74
     0
 42
0.0000000001
 43
0.0000000001
 40
0.0
 40
0.0
 40
0.0
 40
0.0
 40
1.0
 40
1.0
 40
1.0
 40
1.0
 10
159.7124112734807
 20
-207.7068309256852
 30
0.0
 10
159.8698461286218
 20
-207.6647673032068
 30
0.0
 10
160.0200740067016
 20
-207.5938620187101
 30
0.0
 10
160.1558833460682
 20
-207.4953116504482
 30
0.0
  0
SPLINE
  5
141
330
139
100
AcDbEntity
  8
Capa 2
 62
   178
420
      519
370
    30
100
AcDbSpline
210
0.0
220
0.0
230
1.0
 70
     8
 71
     3
 72
     8
 73
     4
 74
     0
 42
0.0000000001
 43
0.0000000001
 40
0.0
 40
0.0
 40
0.0
 40
0.0
 40
1.0
 40
1.0
 40
1.0
 40
1.0
 10
101.6660403528382
 20
-207.4956692485466
 30
0.0
 10
101.8018462537612
 20
-207.593018453965
 30
0.0
 10
101.9520741318413
 20
-207.6651294858963
 30
0.0
 10
102.1095124254263
 20
-207.7071931083754
 30
0.0
  0
SPLINE
  5
142
330
139
100
AcDbEntity
  8
Capa 2
 62
   178
420
      519
370
    30
100
AcDbSpline
210
0.0
220
0.0
230
1.0
 70
     8
 71
     3
 72
     8
 73
     4
 74
     0
 42
0.0000000001
 43
0.0000000001
 40
0.0
 40
0.0
 40
0.0
 40
0.0
 40
1.0
 40
1.0
 40
1.0
 40
1.0
 10
159.7124112734807
 20
-189.1596960893021
 30
0.0
 10
159.8698461286218
 20
-189.117632466823
 30
0.0
 10
160.0200740067016
 20
-189.0467248900305
 30
0.0
 10
160.1558833460682
 20
-188.9481768140645
 30
0.0
  0
SPLINE
  5
143
330
139
100
AcDbEntity
  8
Capa 2
 62
   178
420
      519
370
    30
100
AcDbSpline
210
0.0
220
0.0
230
1.0
 70
     8
 71
     3
 72
     8
 73
     4
 74
     0
 42
0.0000000001
 43
0.0000000001
 40
0.0
 40
0.0
 40
0.0
 40
0.0
 40
1.0
 40
1.0
 40
1.0
 40
1.0
 10
101.6660403528382
 20
-188.9484152127969
 30
0.0
 10
101.8018462537612
 20
-189.0457644182148
 30
0.0
 10
101.9520741318413
 20
-189.1178731578508
 30
0.0
 10
102.1095124254263
 20
-189.1599367803299
 30
0.0
  0
MTEXT
  5
144
330
139
100
AcDbEntity
  8
Capa 2
100
AcDbMText
 10
166.2778781051319
 20
-202.6515407479482
 30
0.0
 40
0.2
 41
0.0
 46
0.0
 71
     7
 72
     1
  1
\C178;\c459264;\FArial Bold|b1|i0|c1;\H4.116779;\W1.000000;740
 11
0.0000000000000001
 21
1.0
 31
0.0
 73
     1
 44
1.0
  0
MTEXT
  5
145
330
139
100
AcDbEntity
  8
Capa 2
100
AcDbMText
 10
166.2771890860348
 20
-234.114908795638
 30
0.0
 40
0.2
 41
0.0
 46
0.0
 71
     7
 72
     1
  1
\C178;\c459264;\FArial Bold|b1|i0|c1;\H4.116779;\W1.000000;110
 11
0.0000000000000001
 21
1.0
 31
0.0
 73
     1
 44
1.0
  0
MTEXT
  5
146
330
139
100
AcDbEntity
  8
Capa 2
100
AcDbMText
 10
114.2937987995515
 20
-243.250957512972
 30
0.0
 40
0.2
 41
0.0
 46
0.0
 71
     7
 72
     1
  1
\C178;\c459264;\FArial Bold|b1|i0|c1;\H4.116779;\W1.000000;600/800/1000
 73
     1
 44
1.0
  0
SPLINE
  5
147
330
139
100
AcDbEntity
  8
Capa 2
 62
   178
420
      518
370
    30
100
AcDbSpline
210
0.0
220
0.0
230
1.0
 70
     8
 71
     3
 72
    11
 73
     7
 74
     0
 42
0.0000000001
 43
0.0000000001
 40
0.0
 40
0.0
 40
0.0
 40
0.0
 40
1.0
 40
1.0
 40
1.0
 40
2.0
 40
2.0
 40
2.0
 40
2.0
 10
130.3676179002459
 20
-56.25453695643081
 30
0.0
 10
130.3676179002459
 20
-56.47327696250271
 30
0.0
 10
130.5454862774997
 20
-56.65114075516601
 30
0.0
 10
130.7642194066852
 20
-56.65114075516601
 30
0.0
 10
130.9817467884359
 20
-56.65114075516601
 30
0.0
 10
131.1596151656905
 20
-56.47327696250271
 30
0.0
 10
131.1596151656905
 20
-56.25453695643081
 30
0.0
  0
SPLINE
  5
148
330
139
100
AcDbEntity
  8
Capa 2
 62
   178
420
      518
370
    30
100
AcDbSpline
210
0.0
220
0.0
230
1.0
 70
     8
 71
     3
 72
    20
 73
    16
 74
     0
 42
0.0000000001
 43
0.0000000001
 40
0.0
 40
0.0
 40
0.0
 40
0.0
 40
1.0
 40
1.0
 40
1.0
 40
2.0
 40
2.0
 40
2.0
 40
3.0
 40
3.0
 40
3.0
 40
4.0
 40
4.0
 40
4.0
 40
5.0
 40
5.0
 40
5.0
 40
5.0
 10
132.5460413317739
 20
-55.32239791311861
 30
0.0
 10
132.5472424946173
 20
-55.31999558743141
 30
0.0
 10
132.5472424946173
 20
-55.31999558743141
 30
0.0
 10
132.5484436574614
 20
-55.31759326174451
 30
0.0
 10
132.5496448203042
 20
-55.31639209890107
 30
0.0
 10
132.5532483088352
 20
-55.3151909360573
 30
0.0
 10
132.5568563819567
 20
-55.3151909360573
 30
0.0
 10
132.5592587076436
 20
-55.3151909360573
 30
0.0
 10
132.5640679436093
 20
-55.3151909360573
 30
0.0
 10
132.568872594983
 20
-55.31398977321386
 30
0.0
 10
132.568872594983
 20
-55.31398977321386
 30
0.0
 10
132.583295718288
 20
-55.31398977321386
 30
0.0
 10
132.583295718288
 20
-55.31398977321386
 30
0.0
 10
132.583295718288
 20
-55.31398977321386
 30
0.0
 10
132.5953119313143
 20
-55.31398977321386
 30
0.0
 10
132.5953119313143
 20
-55.31398977321386
 30
0.0
  0
SPLINE
  5
149
330
139
100
AcDbEntity
  8
Capa 2
 62
   178
420
      518
370
    30
100
AcDbSpline
210
0.0
220
0.0
230
1.0
 70
     8
 71
     3
 72
    20
 73
    16
 74
     0
 42
0.0000000001
 43
0.0000000001
 40
0.0
 40
0.0
 40
0.0
 40
0.0
 40
1.0
 40
1.0
 40
1.0
 40
2.0
 40
2.0
 40
2.0
 40
3.0
 40
3.0
 40
3.0
 40
4.0
 40
4.0
 40
4.0
 40
5.0
 40
5.0
 40
5.0
 40
5.0
 10
132.1004053322307
 20
-55.31398977321386
 30
0.0
 10
132.1004053322307
 20
-55.31398977321386
 30
0.0
 10
132.1172307812227
 20
-55.31398977321386
 30
0.0
 10
132.1172307812227
 20
-55.31398977321386
 30
0.0
 10
132.1172307812227
 20
-55.31398977321386
 30
0.0
 10
132.1316493199358
 20
-55.31398977321386
 30
0.0
 10
132.1316493199358
 20
-55.31398977321386
 30
0.0
 10
132.1352573930574
 20
-55.31520010523937
 30
0.0
 10
132.1388608815877
 20
-55.31520010523937
 30
0.0
 10
132.1424689547092
 20
-55.31640126808282
 30
0.0
 10
132.1448712803967
 20
-55.31640126808282
 30
0.0
 10
132.1472736060836
 20
-55.31760243092627
 30
0.0
 10
132.1484747689271
 20
-55.31880359377002
 30
0.0
 10
132.1496759317712
 20
-55.32000475661379
 30
0.0
 10
132.1496759317712
 20
-55.32120591945691
 30
0.0
 10
132.1496759317712
 20
-55.32240708230165
 30
0.0
  0
SPLINE
  5
14A
330
139
100
AcDbEntity
  8
Capa 2
 62
   178
420
      518
370
    30
100
AcDbSpline
210
0.0
220
0.0
230
1.0
 70
     8
 71
     3
 72
    20
 73
    16
 74
     0
 42
0.0000000001
 43
0.0000000001
 40
0.0
 40
0.0
 40
0.0
 40
0.0
 40
1.0
 40
1.0
 40
1.0
 40
2.0
 40
2.0
 40
2.0
 40
3.0
 40
3.0
 40
3.0
 40
4.0
 40
4.0
 40
4.0
 40
5.0
 40
5.0
 40
5.0
 40
5.0
 10
132.0113496519417
 20
-55.32239791311861
 30
0.0
 10
132.0125508147851
 20
-55.31999558743141
 30
0.0
 10
132.0125508147851
 20
-55.31999558743141
 30
0.0
 10
132.0137519776292
 20
-55.31759326174451
 30
0.0
 10
132.0149531404726
 20
-55.31639209890107
 30
0.0
 10
132.0185566290036
 20
-55.3151909360573
 30
0.0
 10
132.0221647021251
 20
-55.3151909360573
 30
0.0
 10
132.0245670278114
 20
-55.3151909360573
 30
0.0
 10
132.029376263777
 20
-55.3151909360573
 30
0.0
 10
132.0341809151514
 20
-55.31398977321386
 30
0.0
 10
132.0341809151514
 20
-55.31398977321386
 30
0.0
 10
132.0486040384551
 20
-55.31398977321386
 30
0.0
 10
132.0486040384551
 20
-55.31398977321386
 30
0.0
 10
132.0486040384551
 20
-55.31398977321386
 30
0.0
 10
132.0606202514814
 20
-55.31398977321386
 30
0.0
 10
132.0606202514814
 20
-55.31398977321386
 30
0.0
  0
SPLINE
  5
14B
330
139
100
AcDbEntity
  8
Capa 2
 62
   178
420
      518
370
    30
100
AcDbSpline
210
0.0
220
0.0
230
1.0
 70
     8
 71
     3
 72
    20
 73
    16
 74
     0
 42
0.0000000001
 43
0.0000000001
 40
0.0
 40
0.0
 40
0.0
 40
0.0
 40
1.0
 40
1.0
 40
1.0
 40
2.0
 40
2.0
 40
2.0
 40
3.0
 40
3.0
 40
3.0
 40
4.0
 40
4.0
 40
4.0
 40
5.0
 40
5.0
 40
5.0
 40
5.0
 10
131.2983082128001
 20
-55.32239791311861
 30
0.0
 10
131.2971024653655
 20
-55.31999558743141
 30
0.0
 10
131.2971024653655
 20
-55.31999558743141
 30
0.0
 10
131.295901302522
 20
-55.31759326174451
 30
0.0
 10
131.2947001396779
 20
-55.31639209890107
 30
0.0
 10
131.2910966511482
 20
-55.3151909360573
 30
0.0
 10
131.2874885780267
 20
-55.3151909360573
 30
0.0
 10
131.2850862523391
 20
-55.3151909360573
 30
0.0
 10
131.2802770163742
 20
-55.3151909360573
 30
0.0
 10
131.2754723649998
 20
-55.31398977321386
 30
0.0
 10
131.2754723649998
 20
-55.31398977321386
 30
0.0
 10
131.2610492416954
 20
-55.31398977321386
 30
0.0
 10
131.2610492416954
 20
-55.31398977321386
 30
0.0
 10
131.2610492416954
 20
-55.31398977321386
 30
0.0
 10
131.2490330286691
 20
-55.31398977321386
 30
0.0
 10
131.2490330286691
 20
-55.31398977321386
 30
0.0
  0
SPLINE
  5
14C
330
139
100
AcDbEntity
  8
Capa 2
 62
   178
420
      518
370
    30
100
AcDbSpline
210
0.0
220
0.0
230
1.0
 70
     8
 71
     3
 72
    11
 73
     7
 74
     0
 42
0.0000000001
 43
0.0000000001
 40
0.0
 40
0.0
 40
0.0
 40
0.0
 40
1.0
 40
1.0
 40
1.0
 40
2.0
 40
2.0
 40
2.0
 40
2.0
 10
130.3676179002459
 20
-56.61375800010423
 30
0.0
 10
130.5659175073179
 20
-56.83249800617613
 30
0.0
 10
130.9048311051309
 20
-56.84932345516739
 30
0.0
 10
131.122360779177
 20
-56.65102155580011
 30
0.0
 10
131.1355827396379
 20
-56.63900075818263
 30
0.0
 10
131.1475989526642
 20
-56.62577879772171
 30
0.0
 10
131.1596151656905
 20
-56.61375800010423
 30
0.0
  0
SPLINE
  5
14D
330
139
100
AcDbEntity
  8
Capa 2
 62
   178
420
      518
370
    30
100
AcDbSpline
210
0.0
220
0.0
230
1.0
 70
     8
 71
     3
 72
    20
 73
    16
 74
     0
 42
0.0000000001
 43
0.0000000001
 40
0.0
 40
0.0
 40
0.0
 40
0.0
 40
1.0
 40
1.0
 40
1.0
 40
2.0
 40
2.0
 40
2.0
 40
3.0
 40
3.0
 40
3.0
 40
4.0
 40
4.0
 40
4.0
 40
5.0
 40
5.0
 40
5.0
 40
5.0
 10
130.2784430205902
 20
-55.31398977321386
 30
0.0
 10
130.2784430205902
 20
-55.31398977321386
 30
0.0
 10
130.2616152793037
 20
-55.31398977321386
 30
0.0
 10
130.2616152793037
 20
-55.31398977321386
 30
0.0
 10
130.2616152793037
 20
-55.31398977321386
 30
0.0
 10
130.2471944482946
 20
-55.31398977321386
 30
0.0
 10
130.2471944482946
 20
-55.31398977321386
 30
0.0
 10
130.243588667469
 20
-55.31520010523937
 30
0.0
 10
130.2399828866421
 20
-55.31520010523937
 30
0.0
 10
130.2363771058165
 20
-55.31640126808282
 30
0.0
 10
130.233974780129
 20
-55.31640126808282
 30
0.0
 10
130.2315701621468
 20
-55.31760243092627
 30
0.0
 10
130.2303689993034
 20
-55.31880359377002
 30
0.0
 10
130.2291678364593
 20
-55.32000475661379
 30
0.0
 10
130.2291678364593
 20
-55.32120591945691
 30
0.0
 10
130.2291678364593
 20
-55.32240708230165
 30
0.0
  0
SPLINE
  5
14E
330
139
100
AcDbEntity
  8
Capa 2
 62
   178
420
      518
370
    30
100
AcDbSpline
210
0.0
220
0.0
230
1.0
 70
     8
 71
     3
 72
    20
 73
    16
 74
     0
 42
0.0000000001
 43
0.0000000001
 40
0.0
 40
0.0
 40
0.0
 40
0.0
 40
1.0
 40
1.0
 40
1.0
 40
2.0
 40
2.0
 40
2.0
 40
3.0
 40
3.0
 40
3.0
 40
4.0
 40
4.0
 40
4.0
 40
5.0
 40
5.0
 40
5.0
 40
5.0
 10
129.3774356425033
 20
-55.32239791311861
 30
0.0
 10
129.3786368053468
 20
-55.31999558743141
 30
0.0
 10
129.3786368053468
 20
-55.31999558743141
 30
0.0
 10
129.3798379681909
 20
-55.31759326174451
 30
0.0
 10
129.3810391310343
 20
-55.31639209890107
 30
0.0
 10
129.3846449118606
 20
-55.3151909360573
 30
0.0
 10
129.3882506926868
 20
-55.3151909360573
 30
0.0
 10
129.390655310669
 20
-55.3151909360573
 30
0.0
 10
129.3954622543387
 20
-55.3151909360573
 30
0.0
 10
129.400269198009
 20
-55.31398977321386
 30
0.0
 10
129.400269198009
 20
-55.31398977321386
 30
0.0
 10
129.4146900290175
 20
-55.31398977321386
 30
0.0
 10
129.4146900290175
 20
-55.31398977321386
 30
0.0
 10
129.4146900290175
 20
-55.31398977321386
 30
0.0
 10
129.426708534339
 20
-55.31398977321386
 30
0.0
 10
129.426708534339
 20
-55.31398977321386
 30
0.0
  0
SPLINE
  5
14F
330
139
100
AcDbEntity
  8
Capa 2
 62
   178
420
      518
370
    30
100
AcDbSpline
210
0.0
220
0.0
230
1.0
 70
     8
 71
     3
 72
    20
 73
    16
 74
     0
 42
0.0000000001
 43
0.0000000001
 40
0.0
 40
0.0
 40
0.0
 40
0.0
 40
1.0
 40
1.0
 40
1.0
 40
2.0
 40
2.0
 40
2.0
 40
3.0
 40
3.0
 40
3.0
 40
4.0
 40
4.0
 40
4.0
 40
5.0
 40
5.0
 40
5.0
 40
5.0
 10
129.4664913227931
 20
-55.31398977321386
 30
0.0
 10
129.4664913227931
 20
-55.31398977321386
 30
0.0
 10
129.4833167717843
 20
-55.31398977321386
 30
0.0
 10
129.4833167717843
 20
-55.31398977321386
 30
0.0
 10
129.4833167717843
 20
-55.31398977321386
 30
0.0
 10
129.4977376027928
 20
-55.31398977321386
 30
0.0
 10
129.4977376027928
 20
-55.31398977321386
 30
0.0
 10
129.5013433836197
 20
-55.31520010523937
 30
0.0
 10
129.5049491644453
 20
-55.31520010523937
 30
0.0
 10
129.5085549452709
 20
-55.31640126808282
 30
0.0
 10
129.5109572709584
 20
-55.31640126808282
 30
0.0
 10
129.5133618889412
 20
-55.31760243092627
 30
0.0
 10
129.5145630517847
 20
-55.31880359377002
 30
0.0
 10
129.5157642146288
 20
-55.32000475661379
 30
0.0
 10
129.5157642146288
 20
-55.32120591945691
 30
0.0
 10
129.5157642146288
 20
-55.32240708230165
 30
0.0
  0
SPLINE
  5
150
330
139
100
AcDbEntity
  8
Capa 2
 62
   178
420
      518
370
    30
100
AcDbSpline
210
0.0
220
0.0
230
1.0
 70
     8
 71
     3
 72
    20
 73
    16
 74
     0
 42
0.0000000001
 43
0.0000000001
 40
0.0
 40
0.0
 40
0.0
 40
0.0
 40
1.0
 40
1.0
 40
1.0
 40
2.0
 40
2.0
 40
2.0
 40
3.0
 40
3.0
 40
3.0
 40
4.0
 40
4.0
 40
4.0
 40
5.0
 40
5.0
 40
5.0
 40
5.0
 10
128.9813155181202
 20
-55.32239791311861
 30
0.0
 10
128.9801120629808
 20
-55.31999558743141
 30
0.0
 10
128.9801120629808
 20
-55.31999558743141
 30
0.0
 10
128.9789109001367
 20
-55.31759326174451
 30
0.0
 10
128.9777097372933
 20
-55.31639209890107
 30
0.0
 10
128.9741039564677
 20
-55.3151909360573
 30
0.0
 10
128.9704981756414
 20
-55.3151909360573
 30
0.0
 10
128.9680935576586
 20
-55.3151909360573
 30
0.0
 10
128.9632866139889
 20
-55.3151909360573
 30
0.0
 10
128.9584796703199
 20
-55.31398977321386
 30
0.0
 10
128.9584796703199
 20
-55.31398977321386
 30
0.0
 10
128.9440588393108
 20
-55.31398977321386
 30
0.0
 10
128.9440588393108
 20
-55.31398977321386
 30
0.0
 10
128.9440588393108
 20
-55.31398977321386
 30
0.0
 10
128.9320403339886
 20
-55.31398977321386
 30
0.0
 10
128.9320403339886
 20
-55.31398977321386
 30
0.0
  0
SPLINE
  5
151
330
139
100
AcDbEntity
  8
Capa 2
 62
   178
420
      518
370
    30
100
AcDbSpline
210
0.0
220
0.0
230
1.0
 70
     8
 71
     3
 72
    11
 73
     7
 74
     0
 42
0.0000000001
 43
0.0000000001
 40
0.0
 40
0.0
 40
0.0
 40
0.0
 40
1.0
 40
1.0
 40
1.0
 40
2.0
 40
2.0
 40
2.0
 40
2.0
 10
132.1499189150942
 20
-56.65065478851934
 30
0.0
 10
132.1499189150942
 20
-56.76002479155529
 30
0.0
 10
132.2376496485821
 20
-56.84895668788694
 30
0.0
 10
132.3470150670268
 20
-56.84895668788694
 30
0.0
 10
132.4575816483157
 20
-56.84895668788694
 30
0.0
 10
132.5465181292388
 20
-56.76002479155529
 30
0.0
 10
132.5465181292388
 20
-56.65065478851934
 30
0.0
  0
SPLINE
  5
152
330
139
100
AcDbEntity
  8
Capa 2
 62
   178
420
      518
370
    30
100
AcDbSpline
210
0.0
220
0.0
230
1.0
 70
     8
 71
     3
 72
    11
 73
     7
 74
     0
 42
0.0000000001
 43
0.0000000001
 40
0.0
 40
0.0
 40
0.0
 40
0.0
 40
1.0
 40
1.0
 40
1.0
 40
2.0
 40
2.0
 40
2.0
 40
2.0
 10
128.9813155181202
 20
-56.65065478851934
 30
0.0
 10
128.9813155181202
 20
-56.76002479155529
 30
0.0
 10
129.0690485439033
 20
-56.84895668788694
 30
0.0
 10
129.1784139623487
 20
-56.84895668788694
 30
0.0
 10
129.2889805436363
 20
-56.84895668788694
 30
0.0
 10
129.3779170245595
 20
-56.76002479155529
 30
0.0
 10
129.3779170245595
 20
-56.65065478851934
 30
0.0
  0
SPLINE
  5
153
330
139
100
AcDbEntity
  8
Capa 2
 62
   178
420
      518
370
    30
100
AcDbSpline
210
0.0
220
0.0
230
1.0
 70
     8
 71
     3
 72
    11
 73
     7
 74
     0
 42
0.0000000001
 43
0.0000000001
 40
0.0
 40
0.0
 40
0.0
 40
0.0
 40
1.0
 40
1.0
 40
1.0
 40
2.0
 40
2.0
 40
2.0
 40
2.0
 10
132.5460413317739
 20
-56.25453695643081
 30
0.0
 10
132.5460413317739
 20
-56.1451761225766
 30
0.0
 10
132.4583060136942
 20
-56.05744538908871
 30
0.0
 10
132.347739432406
 20
-56.05744538908871
 30
0.0
 10
132.2383740139612
 20
-56.05744538908871
 30
0.0
 10
132.1494375330387
 20
-56.1451761225766
 30
0.0
 10
132.1494375330387
 20
-56.25453695643081
 30
0.0
  0
SPLINE
  5
154
330
139
100
AcDbEntity
  8
Capa 2
 62
   178
420
      518
370
    30
100
AcDbSpline
210
0.0
220
0.0
230
1.0
 70
     8
 71
     3
 72
    11
 73
     7
 74
     0
 42
0.0000000001
 43
0.0000000001
 40
0.0
 40
0.0
 40
0.0
 40
0.0
 40
1.0
 40
1.0
 40
1.0
 40
2.0
 40
2.0
 40
2.0
 40
2.0
 10
129.3774356425033
 20
-56.25453695643081
 30
0.0
 10
129.3774356425033
 20
-56.1451761225766
 30
0.0
 10
129.2897003244243
 20
-56.05744538908871
 30
0.0
 10
129.179133743136
 20
-56.05744538908871
 30
0.0
 10
129.0697683246913
 20
-56.05744538908871
 30
0.0
 10
128.9808318437681
 20
-56.1451761225766
 30
0.0
 10
128.9808318437681
 20
-56.25453695643081
 30
0.0
  0
MTEXT
  5
155
330
139
100
AcDbEntity
  8
Capa 2
100
AcDbMText
 10
126.5218207148973
 20
-46.58768173748502
 30
0.0
 40
0.2
 41
0.0
 46
0.0
 71
     7
 72
     1
  1
\C178;\c393728;\FArial Bold|b1|i0|c1;\H4.116779;\W1.000000;308
 73
     1
 44
1.0
  0
LWPOLYLINE
  5
156
330
139
100
AcDbEntity
  8
Capa 2
100
AcDbPolyline
 90
        4
 70
     1
 43
0.0
 10
98.62446680345412
 20
-158.9601676150024
 10
169.685854331593
 20
-158.9601676150024
 10
169.685854331593
 20
-117.0574046808261
 10
98.62446680345412
 20
-117.0574046808261
  0
ENDBLK
  5
13C
330
139
100
AcDbEntity
  8
0
100
AcDbBlockEnd
  0
ENDSEC
  0
SECTION
  2
ENTITIES
  0
INSERT
  5
7A
330
70
100
AcDbEntity
  8
Capa 1
100
AcDbBlockReference
  2
Block_0
 10
0.0
 20
0.0
 30
0.0
  0
LINE
  5
85
330
70
100
AcDbEntity
  8
Capa 1
 62
   250
420
  4078912
370
     9
100
AcDbLine
 10
115.0055555268048
 20
-53.21861999143757
 30
0.0
 11
145.344444408109
 21
-53.21861999143757
 31
0.0
  0
LINE
  5
87
330
70
100
AcDbEntity
  8
Capa 2
 62
   250
420
  4078912
370
     9
100
AcDbLine
 10
161.9095045082721
 20
-156.9861110718646
 30
0.0
 11
161.9095045082721
 21
-122.0545176188345
 31
0.0
  0
LINE
  5
88
330
70
100
AcDbEntity
  8
Capa 2
 62
   250
420
  4078912
370
     9
100
AcDbLine
 10
161.9095045082721
 20
-109.7138888614607
 30
0.0
 11
161.9095045082721
 21
-57.5027777634024
 31
0.0
  0
MTEXT
  5
89
330
70
100
AcDbEntity
  8
Capa 2
100
AcDbMText
 10
164.3996120465737
 20
-141.541403501941
 30
0.0
 40
0.2
 41
0.0
 46
0.0
 71
     7
 72
     1
  1
\C251;\c5920856;\FArial Bold|b1|i0|c1;\H2.747433;\W1.000000;460
 73
     1
 44
1.0
  0
MTEXT
  5
8A
330
70
100
AcDbEntity
  8
Capa 2
100
AcDbMText
 10
164.3996120465737
 20
-87.56640351543479
 30
0.0
 40
0.2
 41
0.0
 46
0.0
 71
     7
 72
     1
  1
\C251;\c5920856;\FArial Bold|b1|i0|c1;\H2.747433;\W1.000000;700
 73
     1
 44
1.0
  0
MTEXT
  5
8B
330
70
100
AcDbEntity
  8
Capa 2
100
AcDbMText
 10
127.0051676114779
 20
-51.58307019109729
 30
0.0
 40
0.2
 41
0.0
 46
0.0
 71
     7
 72
     1
  1
\C251;\c5920856;\FArial Bold|b1|i0|c1;\H2.747433;\W1.000000;308
 73
     1
 44
1.0
  0
INSERT
  5
8D
330
70
100
AcDbEntity
  8
Capa 2
100
AcDbBlockReference
  2
Block_1
 10
0.0
 20
0.0
 30
0.0
  0
MTEXT
  5
15A
330
70
100
AcDbEntity
  8
Capa 2
100
AcDbMText
 10
115.975349905902
 20
-169.4869845496421
 30
0.0
 40
0.2
 41
0.0
 46
0.0
 71
     7
 72
     1
  1
\C251;\c5920856;\FArial Bold|b1|i0|c1;\H2.747433;\W0.936110;595 / 795 / 995 
 73
     1
 44
1.0
  0
MTEXT
  5
15B
330
70
100
AcDbEntity
  8
Capa 2
100
AcDbMText
 10
68.1586303540541
 20
-169.4869845496421
 30
0.0
 40
0.2
 41
0.0
 46
0.0
 71
     7
 72
     1
  1
\C251;\c5920856;\FArial Bold|b1|i0|c1;\H2.747433;\W0.936110;450
 73
     1
 44
1.0
  0
MTEXT
  5
15C
330
70
100
AcDbEntity
  8
Capa 2
100
AcDbMText
 10
163.5534965953963
 20
-199.9237141427274
 30
0.0
 40
0.2
 41
0.0
 46
0.0
 71
     7
 72
     1
  1
\C251;\c5920856;\FArial Bold|b1|i0|c1;\H2.747433;\W0.936110;565
 73
     1
 44
1.0
  0
LINE
  5
15D
330
70
100
AcDbEntity
  8
Capa 2
 62
   250
420
  4078912
370
     9
100
AcDbLine
 10
114.8503924179482
 20
-54.98716250490922
 30
0.0
 11
145.2388895402462
 21
-54.98716250490922
 31
0.0
  0
LINE
  5
15E
330
70
100
AcDbEntity
  8
Capa 2
 62
   250
420
  4078912
370
     9
100
AcDbLine
 10
114.8503924179482
 20
-54.98716250490922
 30
0.0
 11
114.8503924179482
 21
-54.36923889149523
 31
0.0
  0
LINE
  5
15F
330
70
100
AcDbEntity
  8
Capa 2
 62
   250
420
  4078912
370
     9
100
AcDbLine
 10
145.239250428906
 20
-54.36959521194484
 30
0.0
 11
145.239250428906
 21
-54.98752796177958
 31
0.0
  0
LINE
  5
160
330
70
100
AcDbEntity
  8
Capa 2
 62
   250
420
  4078912
370
     9
100
AcDbLine
 10
114.8503924179482
 20
-54.29643074642912
 30
0.0
 11
145.2388895402462
 21
-54.29643074642912
 31
0.0
  0
LINE
  5
161
330
70
100
AcDbEntity
  8
Capa 2
 62
   250
420
  4078912
370
     9
100
AcDbLine
 10
114.8503924179482
 20
-54.29643074642912
 30
0.0
 11
114.8503924179482
 21
-54.36948557488348
 31
0.0
  0
LINE
  5
162
330
70
100
AcDbEntity
  8
Capa 2
 62
   250
420
  4078912
370
     9
100
AcDbLine
 10
145.239250428906
 20
-54.36959521194484
 30
0.0
 11
145.239250428906
 21
-54.2965495199119
 31
0.0
  0
LINE
  5
163
330
70
100
AcDbEntity
  8
Capa 2
 62
   250
420
  4078912
370
     9
100
AcDbLine
 10
145.0912358280598
 20
-55.77657675490155
 30
0.0
 11
145.0912358280598
 21
-55.75023645094539
 31
0.0
  0
LINE
  5
164
330
70
100
AcDbEntity
  8
Capa 2
 62
   250
420
  4078912
370
     9
100
AcDbLine
 10
145.0912358280598
 20
-55.04643960933773
 30
0.0
 11
145.0912358280598
 21
-55.75059277139436
 31
0.0
  0
LINE
  5
165
330
70
100
AcDbEntity
  8
Capa 2
 62
   250
420
  4078912
370
     9
100
AcDbLine
 10
145.0912358280598
 20
-55.04643960933773
 30
0.0
 11
145.0912358280598
 21
-54.99614360750646
 31
0.0
  0
LINE
  5
166
330
70
100
AcDbEntity
  8
Capa 2
 62
   250
420
  4078912
370
     9
100
AcDbLine
 10
114.9984070187957
 20
-54.99662783786153
 30
0.0
 11
145.0911124863649
 21
-54.99662783786153
 31
0.0
  0
LINE
  5
167
330
70
100
AcDbEntity
  8
Capa 2
 62
   250
420
  4078912
370
     9
100
AcDbLine
 10
114.9984070187957
 20
-54.99662783786153
 30
0.0
 11
114.9984070187957
 21
-55.04693297611325
 31
0.0
  0
LINE
  5
168
330
70
100
AcDbEntity
  8
Capa 2
 62
   250
420
  4078912
370
     9
100
AcDbLine
 10
114.9984070187957
 20
-55.75071154487745
 30
0.0
 11
114.9984070187957
 21
-55.04656751924223
 31
0.0
  0
LINE
  5
169
330
70
100
AcDbEntity
  8
Capa 2
 62
   250
420
  4078912
370
     9
100
AcDbLine
 10
114.9984070187957
 20
-55.75071154487745
 30
0.0
 11
114.9984070187957
 21
-55.77706098525534
 31
0.0
  0
LINE
  5
16A
330
70
100
AcDbEntity
  8
Capa 2
 62
   250
420
  4078912
370
     9
100
AcDbLine
 10
145.0912358280598
 20
-55.77657675490155
 30
0.0
 11
114.9985280763847
 21
-55.77657675490155
 31
0.0
  0
SPLINE
  5
16B
330
70
100
AcDbEntity
  8
Capa 2
 62
   250
420
  4078912
370
     9
100
AcDbSpline
210
0.0
220
0.0
230
1.0
 70
     8
 71
     3
 72
    11
 73
     7
 74
     0
 42
0.0000000001
 43
0.0000000001
 40
0.0
 40
0.0
 40
0.0
 40
0.0
 40
1.0
 40
1.0
 40
1.0
 40
2.0
 40
2.0
 40
2.0
 40
2.0
 10
129.6501759692783
 20
-56.71376349056432
 30
0.0
 10
129.6501759692783
 20
-56.93172196825392
 30
0.0
 10
129.8274088469388
 20
-57.10895027770357
 30
0.0
 10
130.0453604723116
 20
-57.10895027770357
 30
0.0
 10
130.2621106582231
 20
-57.10895027770357
 30
0.0
 10
130.4393435358836
 20
-56.93172196825392
 30
0.0
 10
130.4393435358836
 20
-56.71376349056432
 30
0.0
  0
LINE
  5
16C
330
70
100
AcDbEntity
  8
Capa 2
 62
   250
420
  4078912
370
     9
100
AcDbLine
 10
130.4394668775773
 20
-56.71376349056432
 30
0.0
 11
130.4394668775773
 21
-55.7761016609695
 31
0.0
  0
LINE
  5
16D
330
70
100
AcDbEntity
  8
Capa 2
 62
   250
420
  4078912
370
     9
100
AcDbLine
 10
129.6501759692783
 20
-55.77657675490155
 30
0.0
 11
129.6501759692783
 21
-56.71424772091842
 31
0.0
  0
LINE
  5
16E
330
70
100
AcDbEntity
  8
Capa 2
 62
   250
420
  4078912
370
     9
100
AcDbLine
 10
131.8701528668097
 20
-57.50316860413526
 30
0.0
 11
131.9192474291777
 21
-57.50316860413526
 31
0.0
  0
LINE
  5
16F
330
70
100
AcDbEntity
  8
Capa 2
 62
   250
420
  4078912
370
     9
100
AcDbLine
 10
131.8208161892649
 20
-57.50316860413526
 30
0.0
 11
131.8208161892649
 21
-55.78471730669638
 31
0.0
  0
SPLINE
  5
170
330
70
100
AcDbEntity
  8
Capa 2
 62
   250
420
  4078912
370
     9
100
AcDbSpline
210
0.0
220
0.0
230
1.0
 70
     8
 71
     3
 72
    20
 73
    16
 74
     0
 42
0.0000000001
 43
0.0000000001
 40
0.0
 40
0.0
 40
0.0
 40
0.0
 40
1.0
 40
1.0
 40
1.0
 40
2.0
 40
2.0
 40
2.0
 40
3.0
 40
3.0
 40
3.0
 40
4.0
 40
4.0
 40
4.0
 40
5.0
 40
5.0
 40
5.0
 40
5.0
 10
131.8208161892649
 20
-55.78495485366225
 30
0.0
 10
131.8220130605157
 20
-55.78256111115948
 30
0.0
 10
131.8220130605157
 20
-55.78256111115948
 30
0.0
 10
131.8232099317677
 20
-55.78016736865701
 30
0.0
 10
131.8244068030197
 20
-55.77897049740466
 30
0.0
 10
131.8279974167745
 20
-55.77777362615295
 30
0.0
 10
131.8315925987399
 20
-55.77777362615295
 30
0.0
 10
131.8339863412427
 20
-55.77777362615295
 30
0.0
 10
131.83877839446
 20
-55.77777362615295
 30
0.0
 10
131.8435658794669
 20
-55.77657675490155
 30
0.0
 10
131.8435658794669
 20
-55.77657675490155
 30
0.0
 10
131.8579374709072
 20
-55.77657675490155
 30
0.0
 10
131.8579374709072
 20
-55.77657675490155
 30
0.0
 10
131.8579374709072
 20
-55.77657675490155
 30
0.0
 10
131.8699107516342
 20
-55.77657675490155
 30
0.0
 10
131.8699107516342
 20
-55.77657675490155
 30
0.0
  0
LINE
  5
171
330
70
100
AcDbEntity
  8
Capa 2
 62
   250
420
  4078912
370
     9
100
AcDbLine
 10
131.8701528668097
 20
-57.50316860413526
 30
0.0
 11
131.8210537362298
 21
-57.50316860413526
 31
0.0
  0
LINE
  5
172
330
70
100
AcDbEntity
  8
Capa 2
 62
   250
420
  4078912
370
     9
100
AcDbLine
 10
128.712870460133
 20
-57.50316860413526
 30
0.0
 11
128.6637713295531
 21
-57.50316860413526
 31
0.0
  0
LINE
  5
173
330
70
100
AcDbEntity
  8
Capa 2
 62
   250
420
  4078912
370
     9
100
AcDbLine
 10
128.712870460133
 20
-57.50316860413526
 30
0.0
 11
128.7523877683828
 21
-57.50316860413526
 31
0.0
  0
LINE
  5
174
330
70
100
AcDbEntity
  8
Capa 2
 62
   250
420
  4078912
370
     9
100
AcDbLine
 10
128.7522689948997
 20
-57.50316860413526
 30
0.0
 11
128.8013658413749
 21
-57.50316860413526
 31
0.0
  0
LINE
  5
175
330
70
100
AcDbEntity
  8
Capa 2
 62
   250
420
  4078912
370
     9
100
AcDbLine
 10
129.5119807377258
 20
-57.50316860413526
 30
0.0
 11
128.8018455035178
 21
-57.50316860413526
 31
0.0
  0
LINE
  5
176
330
70
100
AcDbEntity
  8
Capa 2
 62
   250
420
  4078912
370
     9
100
AcDbLine
 10
129.5119807377258
 20
-57.50316860413526
 30
0.0
 11
129.5610775841998
 21
-57.50316860413526
 31
0.0
  0
LINE
  5
177
330
70
100
AcDbEntity
  8
Capa 2
 62
   250
420
  4078912
370
     9
100
AcDbLine
 10
129.6008370076275
 20
-57.50316860413526
 30
0.0
 11
129.5613174152706
 21
-57.50316860413526
 31
0.0
  0
LINE
  5
178
330
70
100
AcDbEntity
  8
Capa 2
 62
   250
420
  4078912
370
     9
100
AcDbLine
 10
129.6008370076275
 20
-57.50316860413526
 30
0.0
 11
129.6499338541015
 21
-57.50316860413526
 31
0.0
  0
LINE
  5
179
330
70
100
AcDbEntity
  8
Capa 2
 62
   250
420
  4078912
370
     9
100
AcDbLine
 10
130.4394668775773
 20
-57.50316860413526
 30
0.0
 11
129.6502947427613
 21
-57.50316860413526
 31
0.0
  0
LINE
  5
17A
330
70
100
AcDbEntity
  8
Capa 2
 62
   250
420
  4078912
370
     9
100
AcDbLine
 10
130.4394668775773
 20
-57.50316860413526
 30
0.0
 11
130.4885614399466
 21
-57.50316860413526
 31
0.0
  0
LINE
  5
17B
330
70
100
AcDbEntity
  8
Capa 2
 62
   250
420
  4078912
370
     9
100
AcDbLine
 10
130.5282043739946
 20
-57.50316860413526
 30
0.0
 11
130.4886847816403
 21
-57.50316860413526
 31
0.0
  0
LINE
  5
17C
330
70
100
AcDbEntity
  8
Capa 2
 62
   250
420
  4078912
370
     9
100
AcDbLine
 10
130.5282043739946
 20
-57.50316860413526
 30
0.0
 11
130.577298936364
 21
-57.50316860413526
 31
0.0
  0
LINE
  5
17D
330
70
100
AcDbEntity
  8
Capa 2
 62
   250
420
  4078912
370
     9
100
AcDbLine
 10
131.2880348903039
 20
-57.50316860413526
 30
0.0
 11
130.57789737199
 21
-57.50316860413526
 31
0.0
  0
LINE
  5
17E
330
70
100
AcDbEntity
  8
Capa 2
 62
   250
420
  4078912
370
     9
100
AcDbLine
 10
131.2880348903039
 20
-57.50316860413526
 30
0.0
 11
131.3371294526732
 21
-57.50316860413526
 31
0.0
  0
LINE
  5
17F
330
70
100
AcDbEntity
  8
Capa 2
 62
   250
420
  4078912
370
     9
100
AcDbLine
 10
131.3372527943656
 20
-57.50316860413526
 30
0.0
 11
131.3767678185119
 21
-57.50316860413526
 31
0.0
  0
LINE
  5
180
330
70
100
AcDbEntity
  8
Capa 2
 62
   250
420
  4078912
370
     9
100
AcDbLine
 10
131.4261090642686
 20
-57.50316860413526
 30
0.0
 11
131.3770099336899
 21
-57.50316860413526
 31
0.0
  0
LINE
  5
181
330
70
100
AcDbEntity
  8
Capa 2
 62
   250
420
  4078912
370
     9
100
AcDbLine
 10
131.8208161892649
 20
-57.50316860413526
 30
0.0
 11
131.4256294021256
 21
-57.50316860413526
 31
0.0
  0
LINE
  5
182
330
70
100
AcDbEntity
  8
Capa 2
 62
   250
420
  4078912
370
     9
100
AcDbLine
 10
131.9194941125663
 20
-57.50316860413526
 30
0.0
 11
131.9685886749356
 21
-57.50316860413526
 31
0.0
  0
LINE
  5
183
330
70
100
AcDbEntity
  8
Capa 2
 62
   250
420
  4078912
370
     9
100
AcDbLine
 10
128.1701487342892
 20
-57.50316860413526
 30
0.0
 11
128.1210496037093
 21
-57.50316860413526
 31
0.0
  0
LINE
  5
184
330
70
100
AcDbEntity
  8
Capa 2
 62
   250
420
  4078912
370
     9
100
AcDbLine
 10
128.1701487342892
 20
-57.50316860413526
 30
0.0
 11
128.2192455807632
 21
-57.50316860413526
 31
0.0
  0
LINE
  5
185
330
70
100
AcDbEntity
  8
Capa 2
 62
   250
420
  4078912
370
     9
100
AcDbLine
 10
128.2688266575894
 20
-57.50316860413526
 30
0.0
 11
128.219727527012
 21
-57.50316860413526
 31
0.0
  0
LINE
  5
186
330
70
100
AcDbEntity
  8
Capa 2
 62
   250
420
  4078912
370
     9
100
AcDbLine
 10
128.663531498481
 20
-57.50316860413526
 30
0.0
 11
128.2683447113431
 21
-57.50316860413526
 31
0.0
  0
LINE
  5
187
330
70
100
AcDbEntity
  8
Capa 2
 62
   250
420
  4078912
370
     9
100
AcDbLine
 10
131.9688307901111
 20
-55.77657675490155
 30
0.0
 11
131.9688307901111
 21
-57.50341528752318
 31
0.0
  0
LINE
  5
188
330
70
100
AcDbEntity
  8
Capa 2
 62
   250
420
  4078912
370
     9
100
AcDbLine
 10
131.4261090642686
 20
-55.78495485366225
 30
0.0
 11
131.4261090642686
 21
-57.50341528752318
 31
0.0
  0
SPLINE
  5
189
330
70
100
AcDbEntity
  8
Capa 2
 62
   250
420
  4078912
370
     9
100
AcDbSpline
210
0.0
220
0.0
230
1.0
 70
     8
 71
     3
 72
    20
 73
    16
 74
     0
 42
0.0000000001
 43
0.0000000001
 40
0.0
 40
0.0
 40
0.0
 40
0.0
 40
1.0
 40
1.0
 40
1.0
 40
2.0
 40
2.0
 40
2.0
 40
3.0
 40
3.0
 40
3.0
 40
4.0
 40
4.0
 40
4.0
 40
5.0
 40
5.0
 40
5.0
 40
5.0
 10
131.3767723867225
 20
-55.77657675490155
 30
0.0
 10
131.3767723867225
 20
-55.77657675490155
 30
0.0
 10
131.3935377206656
 20
-55.77657675490155
 30
0.0
 10
131.3935377206656
 20
-55.77657675490155
 30
0.0
 10
131.3935377206656
 20
-55.77657675490155
 30
0.0
 10
131.4079047438967
 20
-55.77657675490155
 30
0.0
 10
131.4079047438967
 20
-55.77657675490155
 30
0.0
 10
131.411499925862
 20
-55.77778276257467
 30
0.0
 10
131.4150905396168
 20
-55.77778276257467
 30
0.0
 10
131.4186857215822
 20
-55.77897963382671
 30
0.0
 10
131.421079464085
 20
-55.77897963382671
 30
0.0
 10
131.4234732065878
 20
-55.7801765050781
 30
0.0
 10
131.4246700778411
 20
-55.78137337632981
 30
0.0
 10
131.4258669490905
 20
-55.78257024758119
 30
0.0
 10
131.4258669490905
 20
-55.78376711883291
 30
0.0
 10
131.4258669490905
 20
-55.7849639900843
 30
0.0
  0
LINE
  5
18A
330
70
100
AcDbEntity
  8
Capa 2
 62
   250
420
  4078912
370
     9
100
AcDbLine
 10
131.2880348903039
 20
-57.50316860413526
 30
0.0
 11
131.2880348903039
 21
-55.78471730669638
 31
0.0
  0
SPLINE
  5
18B
330
70
100
AcDbEntity
  8
Capa 2
 62
   250
420
  4078912
370
     9
100
AcDbSpline
210
0.0
220
0.0
230
1.0
 70
     8
 71
     3
 72
    20
 73
    16
 74
     0
 42
0.0000000001
 43
0.0000000001
 40
0.0
 40
0.0
 40
0.0
 40
0.0
 40
1.0
 40
1.0
 40
1.0
 40
2.0
 40
2.0
 40
2.0
 40
3.0
 40
3.0
 40
3.0
 40
4.0
 40
4.0
 40
4.0
 40
5.0
 40
5.0
 40
5.0
 40
5.0
 10
131.2880348903039
 20
-55.78495485366225
 30
0.0
 10
131.2892317615559
 20
-55.78256111115948
 30
0.0
 10
131.2892317615559
 20
-55.78256111115948
 30
0.0
 10
131.2904286328079
 20
-55.78016736865701
 30
0.0
 10
131.2916255040587
 20
-55.77897049740466
 30
0.0
 10
131.2952161178135
 20
-55.77777362615295
 30
0.0
 10
131.2988112997788
 20
-55.77777362615295
 30
0.0
 10
131.3012050422829
 20
-55.77777362615295
 30
0.0
 10
131.3059970955003
 20
-55.77777362615295
 30
0.0
 10
131.3107845805059
 20
-55.77657675490155
 30
0.0
 10
131.3107845805059
 20
-55.77657675490155
 30
0.0
 10
131.3251561719462
 20
-55.77657675490155
 30
0.0
 10
131.3251561719462
 20
-55.77657675490155
 30
0.0
 10
131.3251561719462
 20
-55.77657675490155
 30
0.0
 10
131.3371294526732
 20
-55.77657675490155
 30
0.0
 10
131.3371294526732
 20
-55.77657675490155
 30
0.0
  0
SPLINE
  5
18C
330
70
100
AcDbEntity
  8
Capa 2
 62
   250
420
  4078912
370
     9
100
AcDbSpline
210
0.0
220
0.0
230
1.0
 70
     8
 71
     3
 72
    20
 73
    16
 74
     0
 42
0.0000000001
 43
0.0000000001
 40
0.0
 40
0.0
 40
0.0
 40
0.0
 40
1.0
 40
1.0
 40
1.0
 40
2.0
 40
2.0
 40
2.0
 40
3.0
 40
3.0
 40
3.0
 40
4.0
 40
4.0
 40
4.0
 40
5.0
 40
5.0
 40
5.0
 40
5.0
 10
130.5775410515407
 20
-55.78495485366225
 30
0.0
 10
130.5763396120781
 20
-55.78256111115948
 30
0.0
 10
130.5763396120781
 20
-55.78256111115948
 30
0.0
 10
130.5751427408274
 20
-55.78016736865701
 30
0.0
 10
130.5739458695754
 20
-55.77897049740466
 30
0.0
 10
130.5703552558218
 20
-55.77777362615295
 30
0.0
 10
130.5667600738552
 20
-55.77777362615295
 30
0.0
 10
130.5643663313511
 20
-55.77777362615295
 30
0.0
 10
130.559574278135
 20
-55.77777362615295
 30
0.0
 10
130.5547867931282
 20
-55.77657675490155
 30
0.0
 10
130.5547867931282
 20
-55.77657675490155
 30
0.0
 10
130.5404152016878
 20
-55.77657675490155
 30
0.0
 10
130.5404152016878
 20
-55.77657675490155
 30
0.0
 10
130.5404152016878
 20
-55.77657675490155
 30
0.0
 10
130.5284419209621
 20
-55.77657675490155
 30
0.0
 10
130.5284419209621
 20
-55.77657675490155
 30
0.0
  0
LINE
  5
18D
330
70
100
AcDbEntity
  8
Capa 2
 62
   250
420
  4078912
370
     9
100
AcDbLine
 10
130.5775410515407
 20
-57.50316860413526
 30
0.0
 11
130.5775410515407
 21
-55.78471730669638
 31
0.0
  0
LINE
  5
18E
330
70
100
AcDbEntity
  8
Capa 2
 62
   250
420
  4078912
370
     9
100
AcDbLine
 10
130.4394668775773
 20
-57.07181985963984
 30
0.0
 11
130.4394668775773
 21
-57.50293105716939
 31
0.0
  0
SPLINE
  5
18F
330
70
100
AcDbEntity
  8
Capa 2
 62
   250
420
  4078912
370
     9
100
AcDbSpline
210
0.0
220
0.0
230
1.0
 70
     8
 71
     3
 72
    11
 73
     7
 74
     0
 42
0.0000000001
 43
0.0000000001
 40
0.0
 40
0.0
 40
0.0
 40
0.0
 40
1.0
 40
1.0
 40
1.0
 40
2.0
 40
2.0
 40
2.0
 40
2.0
 10
129.6501759692783
 20
-57.07181985963984
 30
0.0
 10
129.8477670787426
 20
-57.28977833732944
 30
0.0
 10
130.1854697842239
 20
-57.3065436712732
 30
0.0
 10
130.4022222542413
 20
-57.10895027770357
 30
0.0
 10
130.4153969744296
 20
-57.09697242876634
 30
0.0
 10
130.4273702551566
 20
-57.08379770857707
 30
0.0
 10
130.4393435358836
 20
-57.07181985963984
 30
0.0
  0
LINE
  5
190
330
70
100
AcDbEntity
  8
Capa 2
 62
   250
420
  4078912
370
     9
100
AcDbLine
 10
129.5119807377258
 20
-55.78495485366225
 30
0.0
 11
129.5119807377258
 21
-57.50341528752318
 31
0.0
  0
SPLINE
  5
191
330
70
100
AcDbEntity
  8
Capa 2
 62
   250
420
  4078912
370
     9
100
AcDbSpline
210
0.0
220
0.0
230
1.0
 70
     8
 71
     3
 72
    20
 73
    16
 74
     0
 42
0.0000000001
 43
0.0000000001
 40
0.0
 40
0.0
 40
0.0
 40
0.0
 40
1.0
 40
1.0
 40
1.0
 40
2.0
 40
2.0
 40
2.0
 40
3.0
 40
3.0
 40
3.0
 40
4.0
 40
4.0
 40
4.0
 40
5.0
 40
5.0
 40
5.0
 40
5.0
 10
129.5613196993765
 20
-55.77657675490155
 30
0.0
 10
129.5613196993765
 20
-55.77657675490155
 30
0.0
 10
129.5445520813288
 20
-55.77657675490155
 30
0.0
 10
129.5445520813288
 20
-55.77657675490155
 30
0.0
 10
129.5445520813288
 20
-55.77657675490155
 30
0.0
 10
129.5301827739931
 20
-55.77657675490155
 30
0.0
 10
129.5301827739931
 20
-55.77657675490155
 30
0.0
 10
129.5265898761324
 20
-55.77778276257467
 30
0.0
 10
129.5229969782716
 20
-55.77778276257467
 30
0.0
 10
129.5194040804122
 20
-55.77897963382671
 30
0.0
 10
129.5170103379094
 20
-55.77897963382671
 30
0.0
 10
129.5146143113007
 20
-55.7801765050781
 30
0.0
 10
129.5134174400487
 20
-55.78137337632981
 30
0.0
 10
129.5122205687979
 20
-55.78257024758119
 30
0.0
 10
129.5122205687979
 20
-55.78376711883291
 30
0.0
 10
129.5122205687979
 20
-55.7849639900843
 30
0.0
  0
LINE
  5
192
330
70
100
AcDbEntity
  8
Capa 2
 62
   250
420
  4078912
370
     9
100
AcDbLine
 10
129.6501759692783
 20
-57.50316860413526
 30
0.0
 11
129.6501759692783
 21
-57.07206654302744
 31
0.0
  0
LINE
  5
193
330
70
100
AcDbEntity
  8
Capa 2
 62
   250
420
  4078912
370
     9
100
AcDbLine
 10
128.663531498481
 20
-57.50316860413526
 30
0.0
 11
128.663531498481
 21
-55.78471730669638
 31
0.0
  0
SPLINE
  5
194
330
70
100
AcDbEntity
  8
Capa 2
 62
   250
420
  4078912
370
     9
100
AcDbSpline
210
0.0
220
0.0
230
1.0
 70
     8
 71
     3
 72
    20
 73
    16
 74
     0
 42
0.0000000001
 43
0.0000000001
 40
0.0
 40
0.0
 40
0.0
 40
0.0
 40
1.0
 40
1.0
 40
1.0
 40
2.0
 40
2.0
 40
2.0
 40
3.0
 40
3.0
 40
3.0
 40
4.0
 40
4.0
 40
4.0
 40
5.0
 40
5.0
 40
5.0
 40
5.0
 10
128.663531498481
 20
-55.78495485366225
 30
0.0
 10
128.6647283697331
 20
-55.78256111115948
 30
0.0
 10
128.6647283697331
 20
-55.78256111115948
 30
0.0
 10
128.6659252409851
 20
-55.78016736865701
 30
0.0
 10
128.6671221122359
 20
-55.77897049740466
 30
0.0
 10
128.6707150100966
 20
-55.77777362615295
 30
0.0
 10
128.674307907956
 20
-55.77777362615295
 30
0.0
 10
128.6767039345647
 20
-55.77777362615295
 30
0.0
 10
128.6814937036762
 20
-55.77777362615295
 30
0.0
 10
128.6862834727889
 20
-55.77657675490155
 30
0.0
 10
128.6862834727889
 20
-55.77657675490155
 30
0.0
 10
128.7006527801234
 20
-55.77657675490155
 30
0.0
 10
128.7006527801234
 20
-55.77657675490155
 30
0.0
 10
128.7006527801234
 20
-55.77657675490155
 30
0.0
 10
128.712628344955
 20
-55.77657675490155
 30
0.0
 10
128.712628344955
 20
-55.77657675490155
 30
0.0
  0
LINE
  5
195
330
70
100
AcDbEntity
  8
Capa 2
 62
   250
420
  4078912
370
     9
100
AcDbLine
 10
128.8016056724457
 20
-55.78495485366225
 30
0.0
 11
128.8016056724457
 21
-57.50341528752318
 31
0.0
  0
SPLINE
  5
196
330
70
100
AcDbEntity
  8
Capa 2
 62
   250
420
  4078912
370
     9
100
AcDbSpline
210
0.0
220
0.0
230
1.0
 70
     8
 71
     3
 72
    20
 73
    16
 74
     0
 42
0.0000000001
 43
0.0000000001
 40
0.0
 40
0.0
 40
0.0
 40
0.0
 40
1.0
 40
1.0
 40
1.0
 40
2.0
 40
2.0
 40
2.0
 40
3.0
 40
3.0
 40
3.0
 40
4.0
 40
4.0
 40
4.0
 40
5.0
 40
5.0
 40
5.0
 40
5.0
 10
128.7522689948997
 20
-55.77657675490155
 30
0.0
 10
128.7522689948997
 20
-55.77657675490155
 30
0.0
 10
128.7690343288441
 20
-55.77657675490155
 30
0.0
 10
128.7690343288441
 20
-55.77657675490155
 30
0.0
 10
128.7690343288441
 20
-55.77657675490155
 30
0.0
 10
128.7834036361785
 20
-55.77657675490155
 30
0.0
 10
128.7834036361785
 20
-55.77657675490155
 30
0.0
 10
128.7869965340392
 20
-55.77778276257467
 30
0.0
 10
128.7905894318987
 20
-55.77778276257467
 30
0.0
 10
128.7941823297581
 20
-55.77897963382671
 30
0.0
 10
128.7965760722622
 20
-55.77897963382671
 30
0.0
 10
128.7989720988722
 20
-55.7801765050781
 30
0.0
 10
128.8001689701229
 20
-55.78137337632981
 30
0.0
 10
128.8013658413749
 20
-55.78257024758119
 30
0.0
 10
128.8013658413749
 20
-55.78376711883291
 30
0.0
 10
128.8013658413749
 20
-55.7849639900843
 30
0.0
  0
LINE
  5
197
330
70
100
AcDbEntity
  8
Capa 2
 62
   250
420
  4078912
370
     9
100
AcDbLine
 10
128.1209308302263
 20
-57.50316860413526
 30
0.0
 11
128.1209308302263
 21
-55.77633920793537
 31
0.0
  0
SPLINE
  5
198
330
70
100
AcDbEntity
  8
Capa 2
 62
   250
420
  4078912
370
     9
100
AcDbSpline
210
0.0
220
0.0
230
1.0
 70
     8
 71
     3
 72
    20
 73
    16
 74
     0
 42
0.0000000001
 43
0.0000000001
 40
0.0
 40
0.0
 40
0.0
 40
0.0
 40
1.0
 40
1.0
 40
1.0
 40
2.0
 40
2.0
 40
2.0
 40
3.0
 40
3.0
 40
3.0
 40
4.0
 40
4.0
 40
4.0
 40
5.0
 40
5.0
 40
5.0
 40
5.0
 10
128.2688266575894
 20
-55.78495485366225
 30
0.0
 10
128.267627502234
 20
-55.78256111115948
 30
0.0
 10
128.267627502234
 20
-55.78256111115948
 30
0.0
 10
128.2664306309819
 20
-55.78016736865701
 30
0.0
 10
128.2652337597312
 20
-55.77897049740466
 30
0.0
 10
128.2616408618705
 20
-55.77777362615295
 30
0.0
 10
128.258047964011
 20
-55.77777362615295
 30
0.0
 10
128.2556519374023
 20
-55.77777362615295
 30
0.0
 10
128.2508621682909
 20
-55.77777362615295
 30
0.0
 10
128.2460723991781
 20
-55.77657675490155
 30
0.0
 10
128.2460723991781
 20
-55.77657675490155
 30
0.0
 10
128.2317030918437
 20
-55.77657675490155
 30
0.0
 10
128.2317030918437
 20
-55.77657675490155
 30
0.0
 10
128.2317030918437
 20
-55.77657675490155
 30
0.0
 10
128.219727527012
 20
-55.77657675490155
 30
0.0
 10
128.219727527012
 20
-55.77657675490155
 30
0.0
  0
LINE
  5
199
330
70
100
AcDbEntity
  8
Capa 2
 62
   250
420
  4078912
370
     9
100
AcDbLine
 10
128.2688266575894
 20
-55.78495485366225
 30
0.0
 11
128.2688266575894
 21
-57.50341528752318
 31
0.0
  0
SPLINE
  5
19A
330
70
100
AcDbEntity
  8
Capa 2
 62
   250
420
  4078912
370
     9
100
AcDbSpline
210
0.0
220
0.0
230
1.0
 70
     8
 71
     3
 72
    11
 73
     7
 74
     0
 42
0.0000000001
 43
0.0000000001
 40
0.0
 40
0.0
 40
0.0
 40
0.0
 40
1.0
 40
1.0
 40
1.0
 40
2.0
 40
2.0
 40
2.0
 40
2.0
 10
131.4261090642686
 20
-57.10846604734978
 30
0.0
 10
131.4261090642686
 20
-57.21744528619442
 30
0.0
 10
131.5135263477415
 20
-57.30605944091941
 30
0.0
 10
131.622501018375
 20
-57.30605944091941
 30
0.0
 10
131.7326725602605
 20
-57.30605944091941
 30
0.0
 10
131.8212912831973
 20
-57.21744528619442
 30
0.0
 10
131.8212912831973
 20
-57.10846604734978
 30
0.0
  0
SPLINE
  5
19B
330
70
100
AcDbEntity
  8
Capa 2
 62
   250
420
  4078912
370
     9
100
AcDbSpline
210
0.0
220
0.0
230
1.0
 70
     8
 71
     3
 72
    11
 73
     7
 74
     0
 42
0.0000000001
 43
0.0000000001
 40
0.0
 40
0.0
 40
0.0
 40
0.0
 40
1.0
 40
1.0
 40
1.0
 40
2.0
 40
2.0
 40
2.0
 40
2.0
 10
128.2688266575894
 20
-57.10846604734978
 30
0.0
 10
128.2688266575894
 20
-57.21744528619442
 30
0.0
 10
128.3562462251682
 20
-57.30605944091941
 30
0.0
 10
128.465220895803
 20
-57.30605944091941
 30
0.0
 10
128.5753924376884
 20
-57.30605944091941
 30
0.0
 10
128.664011160624
 20
-57.21744528619442
 30
0.0
 10
128.664011160624
 20
-57.10846604734978
 30
0.0
  0
SPLINE
  5
19C
330
70
100
AcDbEntity
  8
Capa 2
 62
   250
420
  4078912
370
     9
100
AcDbSpline
210
0.0
220
0.0
230
1.0
 70
     8
 71
     3
 72
    11
 73
     7
 74
     0
 42
0.0000000001
 43
0.0000000001
 40
0.0
 40
0.0
 40
0.0
 40
0.0
 40
1.0
 40
1.0
 40
1.0
 40
2.0
 40
2.0
 40
2.0
 40
2.0
 10
131.8208161892649
 20
-56.71376349056432
 30
0.0
 10
131.8208161892649
 20
-56.6047933881414
 30
0.0
 10
131.7333943375814
 20
-56.51737610466813
 30
0.0
 10
131.6232227956959
 20
-56.51737610466813
 30
0.0
 10
131.5142481250612
 20
-56.51737610466813
 30
0.0
 10
131.4256294021256
 20
-56.6047933881414
 30
0.0
 10
131.4256294021256
 20
-56.71376349056432
 30
0.0
  0
SPLINE
  5
19D
330
70
100
AcDbEntity
  8
Capa 2
 62
   250
420
  4078912
370
     9
100
AcDbSpline
210
0.0
220
0.0
230
1.0
 70
     8
 71
     3
 72
    11
 73
     7
 74
     0
 42
0.0000000001
 43
0.0000000001
 40
0.0
 40
0.0
 40
0.0
 40
0.0
 40
1.0
 40
1.0
 40
1.0
 40
2.0
 40
2.0
 40
2.0
 40
2.0
 10
128.663531498481
 20
-56.71376349056432
 30
0.0
 10
128.663531498481
 20
-56.6047933881414
 30
0.0
 10
128.5761096467963
 20
-56.51737610466813
 30
0.0
 10
128.4659381049121
 20
-56.51737610466813
 30
0.0
 10
128.3569634342786
 20
-56.51737610466813
 30
0.0
 10
128.2683447113431
 20
-56.6047933881414
 30
0.0
 10
128.2683447113431
 20
-56.71376349056432
 30
0.0
  0
LINE
  5
19E
330
70
100
AcDbEntity
  8
Capa 2
 62
   250
420
  4078912
370
     9
100
AcDbLine
 10
114.8503924179482
 20
-55.04643960933773
 30
0.0
 11
114.8503924179482
 21
-55.75059277139436
 31
0.0
  0
LINE
  5
19F
330
70
100
AcDbEntity
  8
Capa 2
 62
   250
420
  4078912
370
     9
100
AcDbLine
 10
114.8503924179482
 20
-54.99662783786153
 30
0.0
 11
114.997687525582
 21
-54.99662783786153
 31
0.0
  0
LINE
  5
1A0
330
70
100
AcDbEntity
  8
Capa 2
 62
   250
420
  4078912
370
     9
100
AcDbLine
 10
114.8503924179482
 20
-55.04643960933773
 30
0.0
 11
114.8503924179482
 21
-54.99614360750646
 31
0.0
  0
LINE
  5
1A1
330
70
100
AcDbEntity
  8
Capa 2
 62
   250
420
  4078912
370
     9
100
AcDbLine
 10
114.9984070187957
 20
-55.77657675490155
 30
0.0
 11
114.8511096270574
 21
-55.77657675490155
 31
0.0
  0
LINE
  5
1A2
330
70
100
AcDbEntity
  8
Capa 2
 62
   250
420
  4078912
370
     9
100
AcDbLine
 10
114.8503924179482
 20
-55.77657675490155
 30
0.0
 11
114.8503924179482
 21
-55.75023645094539
 31
0.0
  0
LINE
  5
1A3
330
70
100
AcDbEntity
  8
Capa 2
 62
   250
420
  4078912
370
     9
100
AcDbLine
 10
145.239250428906
 20
-55.75071154487745
 30
0.0
 11
145.239250428906
 21
-55.04656751924223
 31
0.0
  0
LINE
  5
1A4
330
70
100
AcDbEntity
  8
Capa 2
 62
   250
420
  4078912
370
     9
100
AcDbLine
 10
145.0912358280598
 20
-54.99662783786153
 30
0.0
 11
145.2385286515876
 21
-54.99662783786153
 31
0.0
  0
LINE
  5
1A5
330
70
100
AcDbEntity
  8
Capa 2
 62
   250
420
  4078912
370
     9
100
AcDbLine
 10
145.239250428906
 20
-54.99662783786153
 30
0.0
 11
145.239250428906
 21
-55.04693297611325
 31
0.0
  0
LINE
  5
1A6
330
70
100
AcDbEntity
  8
Capa 2
 62
   250
420
  4078912
370
     9
100
AcDbLine
 10
145.239250428906
 20
-55.77657675490155
 30
0.0
 11
145.0919530371676
 21
-55.77657675490155
 31
0.0
  0
LINE
  5
1A7
330
70
100
AcDbEntity
  8
Capa 2
 62
   250
420
  4078912
370
     9
100
AcDbLine
 10
145.239250428906
 20
-55.75071154487745
 30
0.0
 11
145.239250428906
 21
-55.77706098525534
 31
0.0
  0
LINE
  5
1A8
330
70
100
AcDbEntity
  8
Capa 2
 62
   250
420
  4078912
370
     9
100
AcDbLine
 10
114.8503924179482
 20
-54.29643074642912
 30
0.0
 11
114.8503924179482
 21
-54.29643074642912
 31
0.0
  0
LINE
  5
1A9
330
70
100
AcDbEntity
  8
Capa 2
 62
   250
420
  4078912
370
     9
100
AcDbLine
 10
145.239250428906
 20
-54.29643074642912
 30
0.0
 11
145.239250428906
 21
-54.29643074642912
 31
0.0
  0
ENDSEC
  0
SECTION
  2
OBJECTS
  0
DICTIONARY
  5
C
330
0
100
AcDbDictionary
281
     1
  3
ACAD_COLOR
350
63
  3
ACAD_DETAILVIEWSTYLE
350
6A
  3
ACAD_GROUP
350
D
  3
ACAD_LAYOUT
350
62
  3
ACAD_MATERIAL
350
10
  3
ACAD_MLEADERSTYLE
350
66
  3
ACAD_MLINESTYLE
350
5F
  3
ACAD_PLOTSETTINGS
350
61
  3
ACAD_PLOTSTYLENAME
350
E
  3
ACAD_SCALELIST
350
42
  3
ACAD_SECTIONVIEWSTYLE
350
68
  3
ACAD_TABLESTYLE
350
64
  3
ACAD_VISUALSTYLE
350
29
  3
ACDB_RECOMPOSE_DATA
350
1B2
  3
AcDbVariableDictionary
350
1AA
  0
DICTIONARY
  5
63
102
{ACAD_REACTORS
330
C
102
}
330
C
100
AcDbDictionary
281
     1
  0
DICTIONARY
  5
6A
102
{ACAD_REACTORS
330
C
102
}
330
C
100
AcDbDictionary
281
     1
  3
Imperial24
350
6B
  0
DICTIONARY
  5
D
102
{ACAD_REACTORS
330
C
102
}
330
C
100
AcDbDictionary
281
     1
  0
DICTIONARY
  5
62
102
{ACAD_REACTORS
330
C
102
}
330
C
100
AcDbDictionary
281
     1
  3
Layout1
350
6F
  3
Layout2
350
77
  3
Model
350
73
  0
DICTIONARY
  5
10
102
{ACAD_REACTORS
330
C
102
}
330
C
100
AcDbDictionary
281
     1
  3
ByBlock
350
19
  3
ByLayer
350
11
  3
Global
350
21
  0
DICTIONARY
  5
66
102
{ACAD_REACTORS
330
C
102
}
330
C
100
AcDbDictionary
281
     1
  3
Standard
350
67
  0
DICTIONARY
  5
5F
102
{ACAD_REACTORS
330
C
102
}
330
C
100
AcDbDictionary
281
     1
  3
Standard
350
60
  0
DICTIONARY
  5
61
102
{ACAD_REACTORS
330
C
102
}
330
C
100
AcDbDictionary
281
     1
  0
ACDBDICTIONARYWDFLT
  5
E
102
{ACAD_REACTORS
330
C
102
}
330
C
100
AcDbDictionary
281
     1
  3
Normal
350
F
100
AcDbDictionaryWithDefault
340
F
  0
DICTIONARY
  5
42
102
{ACAD_REACTORS
330
C
102
}
330
C
100
AcDbDictionary
281
     1
  3
A0
350
43
  3
A1
350
44
  3
A2
350
45
  3
A3
350
46
  3
A4
350
47
  3
A5
350
48
  3
A6
350
49
  3
A7
350
4A
  3
A8
350
4B
  3
A9
350
4C
  3
B0
350
4D
  3
B1
350
4E
  3
B2
350
4F
  3
B3
350
50
  3
B4
350
51
  3
B5
350
52
  3
B6
350
53
  0
DICTIONARY
  5
68
102
{ACAD_REACTORS
330
C
102
}
330
C
100
AcDbDictionary
281
     1
  3
Imperial24
350
69
  0
DICTIONARY
  5
64
102
{ACAD_REACTORS
330
C
102
}
330
C
100
AcDbDictionary
281
     1
  3
Standard
350
65
  0
DICTIONARY
  5
29
102
{ACAD_REACTORS
330
C
102
}
330
C
100
AcDbDictionary
281
     1
  3
2dWireframe
350
2F
  3
Basic
350
2E
  3
Brighten
350
35
  3
ColorChange
350
39
  3
Conceptual
350
32
  3
Dim
350
34
  3
EdgeColorOff
350
41
  3
Facepattern
350
38
  3
Flat
350
2A
  3
FlatWithEdges
350
2B
  3
Gouraud
350
2C
  3
GouraudWithEdges
350
2D
  3
Hidden
350
31
  3
JitterOff
350
3F
  3
Linepattern
350
37
  3
OverhangOff
350
40
  3
Realistic
350
33
  3
Shaded
350
3E
  3
Shaded with edges
350
3D
  3
Shades of Gray
350
3A
  3
Sketchy
350
3B
  3
Thicken
350
36
  3
Wireframe
350
30
  3
X-Ray
350
3C
  0
XRECORD
  5
1B2
102
{ACAD_REACTORS
330
C
102
}
330
C
100
AcDbXrecord
280
     1
 90
        1
330
65
  0
DICTIONARY
  5
1AA
102
{ACAD_REACTORS
330
C
102
}
330
C
100
AcDbDictionary
281
     1
  3
CANNOSCALE
350
1AF
  3
CMLEADERSTYLE
350
1AC
  3
CTABLESTYLE
350
1AB
  3
CVIEWDETAILSTYLE
350
1AD
  3
CVIEWSECTIONSTYLE
350
1AE
  0
ACDBDETAILVIEWSTYLE
  5
6B
102
{ACAD_REACTORS
330
6A
102
}
330
6A
100
AcDbModelDocViewStyle
 70
     0
  3
Imperial24
290
     1
300
Imperial24
 90
        0
100
AcDbDetailViewStyle
 70
     0
 71
     0
 90
        3
 71
     1
340
55
 62
   256
 40
0.24
340
0
 62
   256
 40
0.24
300

 40
0.36
280
     3
 71
     2
340
5D
 90
       25
 62
   256
 71
     3
340
55
 62
   256
 40
0.24
 90
        1
 40
0.75
 90
        1
300
%<\AcVar ViewType \f "%tc1">% %<\AcVar ViewDetailId>%\PSCALE %<\AcVar ViewScale \f "%sn">%
 71
     4
340
5D
 90
       25
 62
   256
340
5D
 90
       25
 62
   256
280
     0
  0
LAYOUT
  5
6F
102
{ACAD_REACTORS
330
62
102
}
330
62
100
AcDbPlotSettings
  1

  2

  4

  6

 40
0.0
 41
0.0
 42
0.0
 43
0.0
 44
0.0
 45
0.0
 46
0.0
 47
0.0
 48
0.0
 49
0.0
140
0.0
141
0.0
142
1.0
143
1.0
 70
   688
 72
     0
 73
     0
 74
     5
  7

 75
    16
147
1.0
 76
     0
 77
     2
 78
   300
148
0.0
149
0.0
100
AcDbLayout
  1
Layout1
 70
     1
 71
     1
 10
0.0
 20
0.0
 11
12.0
 21
9.0
 12
0.0
 22
0.0
 32
0.0
 14
0.0
 24
0.0
 34
0.0
 15
0.0
 25
0.0
 35
0.0
146
0.0
 13
0.0
 23
0.0
 33
0.0
 16
1.0
 26
0.0
 36
0.0
 17
0.0
 27
1.0
 37
0.0
 76
     0
330
6C
  0
LAYOUT
  5
77
102
{ACAD_REACTORS
330
62
102
}
330
62
100
AcDbPlotSettings
  1

  2

  4

  6

 40
0.0
 41
0.0
 42
0.0
 43
0.0
 44
0.0
 45
0.0
 46
0.0
 47
0.0
 48
0.0
 49
0.0
140
0.0
141
0.0
142
1.0
143
1.0
 70
   688
 72
     0
 73
     0
 74
     5
  7

 75
    16
147
1.0
 76
     0
 77
     2
 78
   300
148
0.0
149
0.0
100
AcDbLayout
  1
Layout2
 70
     1
 71
     2
 10
0.0
 20
0.0
 11
12.0
 21
9.0
 12
0.0
 22
0.0
 32
0.0
 14
0.0
 24
0.0
 34
0.0
 15
0.0
 25
0.0
 35
0.0
146
0.0
 13
0.0
 23
0.0
 33
0.0
 16
1.0
 26
0.0
 36
0.0
 17
0.0
 27
1.0
 37
0.0
 76
     0
330
74
  0
LAYOUT
  5
73
102
{ACAD_REACTORS
330
62
102
}
330
62
100
AcDbPlotSettings
  1

  2

  4

  6

 40
0.0
 41
0.0
 42
0.0
 43
0.0
 44
0.0
 45
0.0
 46
0.0
 47
0.0
 48
0.0
 49
0.0
140
0.0
141
0.0
142
1.0
143
1.0
 70
  1712
 72
     0
 73
     0
 74
     0
  7

 75
     0
147
1.0
 76
     0
 77
     2
 78
   300
148
0.0
149
0.0
100
AcDbLayout
  1
Model
 70
     1
 71
     0
 10
0.0
 20
0.0
 11
12.0
 21
9.0
 12
0.0
 22
0.0
 32
0.0
 14
0.0
 24
0.0
 34
0.0
 15
0.0
 25
0.0
 35
0.0
146
0.0
 13
0.0
 23
0.0
 33
0.0
 16
1.0
 26
0.0
 36
0.0
 17
0.0
 27
1.0
 37
0.0
 76
     0
330
70
  0
MATERIAL
  5
19
102
{ACAD_XDICTIONARY
360
1A
102
}
102
{ACAD_REACTORS
330
10
102
}
330
10
100
AcDbMaterial
  1
ByBlock
 72
     0
 43
0.0208333333333333
 43
0.0
 43
0.0
 43
0.0
 43
0.0
 43
0.0208333333333333
 43
0.0
 43
0.0
 43
0.0
 43
0.0
 43
1.0
 43
0.0
 43
0.0
 43
0.0
 43
0.0
 43
1.0
 77
     0
 47
0.0208333333333333
 47
0.0
 47
0.0
 47
0.0
 47
0.0
 47
0.0208333333333333
 47
0.0
 47
0.0
 47
0.0
 47
0.0
 47
1.0
 47
0.0
 47
0.0
 47
0.0
 47
0.0
 47
1.0
171
     0
 49
0.0208333333333333
 49
0.0
 49
0.0
 49
0.0
 49
0.0
 49
0.0208333333333333
 49
0.0
 49
0.0
 49
0.0
 49
0.0
 49
1.0
 49
0.0
 49
0.0
 49
0.0
 49
0.0
 49
1.0
175
     0
142
0.0208333333333333
142
0.0
142
0.0
142
0.0
142
0.0
142
0.0208333333333333
142
0.0
142
0.0
142
0.0
142
0.0
142
1.0
142
0.0
142
0.0
142
0.0
142
0.0
142
1.0
179
     0
144
0.0208333333333333
144
0.0
144
0.0
144
0.0
144
0.0
144
0.0208333333333333
144
0.0
144
0.0
144
0.0
144
0.0
144
1.0
144
0.0
144
0.0
144
0.0
144
0.0
144
1.0
147
0.0208333333333333
147
0.0
147
0.0
147
0.0
147
0.0
147
0.0208333333333333
147
0.0
147
0.0
147
0.0
147
0.0
147
1.0
147
0.0
147
0.0
147
0.0
147
0.0
147
1.0
  0
MATERIAL
  5
11
102
{ACAD_XDICTIONARY
360
12
102
}
102
{ACAD_REACTORS
330
10
102
}
330
10
100
AcDbMaterial
  1
ByLayer
 72
     0
 43
0.0208333333333333
 43
0.0
 43
0.0
 43
0.0
 43
0.0
 43
0.0208333333333333
 43
0.0
 43
0.0
 43
0.0
 43
0.0
 43
1.0
 43
0.0
 43
0.0
 43
0.0
 43
0.0
 43
1.0
 77
     0
 47
0.0208333333333333
 47
0.0
 47
0.0
 47
0.0
 47
0.0
 47
0.0208333333333333
 47
0.0
 47
0.0
 47
0.0
 47
0.0
 47
1.0
 47
0.0
 47
0.0
 47
0.0
 47
0.0
 47
1.0
171
     0
 49
0.0208333333333333
 49
0.0
 49
0.0
 49
0.0
 49
0.0
 49
0.0208333333333333
 49
0.0
 49
0.0
 49
0.0
 49
0.0
 49
1.0
 49
0.0
 49
0.0
 49
0.0
 49
0.0
 49
1.0
175
     0
142
0.0208333333333333
142
0.0
142
0.0
142
0.0
142
0.0
142
0.0208333333333333
142
0.0
142
0.0
142
0.0
142
0.0
142
1.0
142
0.0
142
0.0
142
0.0
142
0.0
142
1.0
179
     0
144
0.0208333333333333
144
0.0
144
0.0
144
0.0
144
0.0
144
0.0208333333333333
144
0.0
144
0.0
144
0.0
144
0.0
144
1.0
144
0.0
144
0.0
144
0.0
144
0.0
144
1.0
147
0.0208333333333333
147
0.0
147
0.0
147
0.0
147
0.0
147
0.0208333333333333
147
0.0
147
0.0
147
0.0
147
0.0
147
1.0
147
0.0
147
0.0
147
0.0
147
0.0
147
1.0
  0
MATERIAL
  5
21
102
{ACAD_XDICTIONARY
360
22
102
}
102
{ACAD_REACTORS
330
10
102
}
330
10
100
AcDbMaterial
  1
Global
 72
     0
 43
0.0208333333333333
 43
0.0
 43
0.0
 43
0.0
 43
0.0
 43
0.0208333333333333
 43
0.0
 43
0.0
 43
0.0
 43
0.0
 43
1.0
 43
0.0
 43
0.0
 43
0.0
 43
0.0
 43
1.0
 77
     0
 47
0.0208333333333333
 47
0.0
 47
0.0
 47
0.0
 47
0.0
 47
0.0208333333333333
 47
0.0
 47
0.0
 47
0.0
 47
0.0
 47
1.0
 47
0.0
 47
0.0
 47
0.0
 47
0.0
 47
1.0
171
     0
 49
0.0208333333333333
 49
0.0
 49
0.0
 49
0.0
 49
0.0
 49
0.0208333333333333
 49
0.0
 49
0.0
 49
0.0
 49
0.0
 49
1.0
 49
0.0
 49
0.0
 49
0.0
 49
0.0
 49
1.0
175
     0
142
0.0208333333333333
142
0.0
142
0.0
142
0.0
142
0.0
142
0.0208333333333333
142
0.0
142
0.0
142
0.0
142
0.0
142
1.0
142
0.0
142
0.0
142
0.0
142
0.0
142
1.0
179
     0
144
0.0208333333333333
144
0.0
144
0.0
144
0.0
144
0.0
144
0.0208333333333333
144
0.0
144
0.0
144
0.0
144
0.0
144
1.0
144
0.0
144
0.0
144
0.0
144
0.0
144
1.0
147
0.0208333333333333
147
0.0
147
0.0
147
0.0
147
0.0
147
0.0208333333333333
147
0.0
147
0.0
147
0.0
147
0.0
147
1.0
147
0.0
147
0.0
147
0.0
147
0.0
147
1.0
  0
MLEADERSTYLE
  5
67
102
{ACAD_REACTORS
330
66
102
}
330
66
100
AcDbMLeaderStyle
179
     2
170
     2
171
     1
172
     0
 90
        2
 40
0.0
 41
0.0
173
     1
 91
-1056964608
340
5B
 92
       -2
290
     1
 42
0.09
291
     1
 43
0.36
  3
Standard
 44
0.18
300

342
55
174
     1
178
     6
175
     1
176
     0
 93
-1056964608
 45
0.18
292
     0
297
     0
 46
0.18
 94
-1056964608
 47
1.0
 49
1.0
140
1.0
293
     1
141
0.0
294
     1
177
     0
142
1.0
295
     1
296
     0
143
0.125
271
     0
272
     9
273
     9
298
     1
  0
MLINESTYLE
  5
60
102
{ACAD_REACTORS
330
5F
102
}
330
5F
100
AcDbMlineStyle
  2
STANDARD
 70
     0
  3

 62
   256
 51
90.0
 52
90.0
 71
     2
 49
0.5
 62
   256
  6
BYLAYER
 49
-0.5
 62
   256
  6
BYLAYER
  0
ACDBPLACEHOLDER
  5
F
102
{ACAD_REACTORS
330
E
102
}
330
E
  0
SCALE
  5
43
102
{ACAD_REACTORS
330
42
102
}
330
42
100
AcDbScale
 70
     0
300
1:1
140
1.0
141
1.0
290
     1
  0
SCALE
  5
44
102
{ACAD_REACTORS
330
42
102
}
330
42
100
AcDbScale
 70
     0
300
1/128" = 1'-0"
140
0.0078125
141
12.0
290
     0
  0
SCALE
  5
45
102
{ACAD_REACTORS
330
42
102
}
330
42
100
AcDbScale
 70
     0
300
1/64" = 1'-0"
140
0.015625
141
12.0
290
     0
  0
SCALE
  5
46
102
{ACAD_REACTORS
330
42
102
}
330
42
100
AcDbScale
 70
     0
300
1/32" = 1'-0"
140
0.03125
141
12.0
290
     0
  0
SCALE
  5
47
102
{ACAD_REACTORS
330
42
102
}
330
42
100
AcDbScale
 70
     0
300
1/16" = 1'-0"
140
0.0625
141
12.0
290
     0
  0
SCALE
  5
48
102
{ACAD_REACTORS
330
42
102
}
330
42
100
AcDbScale
 70
     0
300
3/32" = 1'-0"
140
0.09375
141
12.0
290
     0
  0
SCALE
  5
49
102
{ACAD_REACTORS
330
42
102
}
330
42
100
AcDbScale
 70
     0
300
1/8" = 1'-0"
140
0.125
141
12.0
290
     0
  0
SCALE
  5
4A
102
{ACAD_REACTORS
330
42
102
}
330
42
100
AcDbScale
 70
     0
300
3/16" = 1'-0"
140
0.1875
141
12.0
290
     0
  0
SCALE
  5
4B
102
{ACAD_REACTORS
330
42
102
}
330
42
100
AcDbScale
 70
     0
300
1/4" = 1'-0"
140
0.25
141
12.0
290
     0
  0
SCALE
  5
4C
102
{ACAD_REACTORS
330
42
102
}
330
42
100
AcDbScale
 70
     0
300
3/8" = 1'-0"
140
0.375
141
12.0
290
     0
  0
SCALE
  5
4D
102
{ACAD_REACTORS
330
42
102
}
330
42
100
AcDbScale
 70
     0
300
1/2" = 1'-0"
140
0.5
141
12.0
290
     0
  0
SCALE
  5
4E
102
{ACAD_REACTORS
330
42
102
}
330
42
100
AcDbScale
 70
     0
300
3/4" = 1'-0"
140
0.75
141
12.0
290
     0
  0
SCALE
  5
4F
102
{ACAD_REACTORS
330
42
102
}
330
42
100
AcDbScale
 70
     0
300
1" = 1'-0"
140
1.0
141
12.0
290
     0
  0
SCALE
  5
50
102
{ACAD_REACTORS
330
42
102
}
330
42
100
AcDbScale
 70
     0
300
1-1/2" = 1'-0"
140
1.5
141
12.0
290
     0
  0
SCALE
  5
51
102
{ACAD_REACTORS
330
42
102
}
330
42
100
AcDbScale
 70
     0
300
3" = 1'-0"
140
3.0
141
12.0
290
     0
  0
SCALE
  5
52
102
{ACAD_REACTORS
330
42
102
}
330
42
100
AcDbScale
 70
     0
300
6" = 1'-0"
140
6.0
141
12.0
290
     0
  0
SCALE
  5
53
102
{ACAD_REACTORS
330
42
102
}
330
42
100
AcDbScale
 70
     0
300
1'-0" = 1'-0"
140
12.0
141
12.0
290
     0
  0
ACDBSECTIONVIEWSTYLE
  5
69
102
{ACAD_REACTORS
330
68
102
}
330
68
100
AcDbModelDocViewStyle
 70
     0
  3
Imperial24
290
     1
300
Imperial24
 90
        0
100
AcDbSectionViewStyle
 70
     0
 71
     0
 90
       78
 71
     1
340
55
 62
   256
 40
0.24
340
0
340
0
 62
   256
 40
0.24
300
I, O, Q, S, X, Z
 40
0.48
 90
        3
 40
0.18
 90
        1
 71
     2
340
5D
 90
       25
 62
   256
340
5D
 90
       50
 62
   256
 40
0.24
 40
0.0
 40
0.24
 71
     3
340
55
 62
   256
 40
0.24
 90
        1
 40
0.75
 90
        1
300
%<\AcVar ViewType \f "%tc1">% %<\AcVar ViewSectionStartId>%-%<\AcVar ViewSectionEndId>%\PSCALE %<\AcVar ViewScale \f "%sn">%
 71
     4
 62
   256
 62
   257
300
ANSI31
 40
1.0
 90
        0
290
     0
290
     0
 90
        6
 40
0.0
 40
1.570796326794896
 40
0.2617993877991494
 40
1.308996938995747
 40
-0.2617993877991494
 40
1.832595714594046
  0
TABLESTYLE
  5
65
102
{ACAD_XDICTIONARY
360
1B0
102
}
102
{ACAD_REACTORS
330
64
102
}
330
64
100
AcDbTableStyle
280
     0
  3
Standard
 70
     0
 71
     0
 40
0.06
 41
0.06
280
     0
281
     0
  7
Standard
140
0.18
170
     2
 62
     0
 63
     7
283
     0
 90
      512
 91
        0
  1

274
    -2
284
     1
 64
     0
275
    -2
285
     1
 65
     0
276
    -2
286
     1
 66
     0
277
    -2
287
     1
 67
     0
278
    -2
288
     1
 68
     0
279
    -2
289
     1
 69
     0
  7
Standard
140
0.25
170
     5
 62
     0
 63
     7
283
     0
 90
      512
 91
        0
  1

274
    -2
284
     1
 64
     0
275
    -2
285
     1
 65
     0
276
    -2
286
     1
 66
     0
277
    -2
287
     1
 67
     0
278
    -2
288
     1
 68
     0
279
    -2
289
     1
 69
     0
  7
Standard
140
0.18
170
     5
 62
     0
 63
     7
283
     0
 90
      512
 91
        0
  1

274
    -2
284
     1
 64
     0
275
    -2
285
     1
 65
     0
276
    -2
286
     1
 66
     0
277
    -2
287
     1
 67
     0
278
    -2
288
     1
 68
     0
279
    -2
289
     1
 69
     0
  0
VISUALSTYLE
  5
2F
102
{ACAD_REACTORS
330
29
102
}
330
29
100
AcDbVisualStyle
  2
2dWireframe
 70
     4
177
     3
291
     0
 70
    58
 90
        0
176
     1
 90
        2
176
     1
 90
        0
176
     1
 90
        0
176
     1
 40
0.6
176
     1
 40
30.0
176
     1
 62
     7
420
 16777215
176
     1
 90
        1
176
     1
 90
        4
176
     1
 62
     7
176
     1
 62
   257
176
     1
 90
        1
176
     1
 90
        1
176
     1
 40
1.0
176
     1
 90
        0
176
     1
 62
   257
176
     1
 40
1.0
176
     1
 90
        1
176
     1
 90
        6
176
     1
 90
        2
176
     1
 62
     7
176
     1
 90
        5
176
     1
 90
        0
176
     1
 90
        0
176
     1
290
     0
176
     1
 90
        1
176
     1
 40
0.0
176
     1
 90
        0
176
     1
290
     1
176
     1
290
     1
176
     1
290
     0
176
     1
290
     0
176
     1
290
     0
176
     1
290
     0
176
     1
290
     0
176
     1
290
     0
176
     1
290
     0
176
     1
 90
       50
176
     1
 40
0.0
176
     1
 40
1.0
176
     1
 90
        0
176
     1
 62
    18
420
        0
176
     1
 90
       50
176
     1
 90
        3
176
     1
 62
     5
420
      255
176
     1
290
     0
176
     1
 90
       50
176
     1
 90
       50
176
     1
 90
       50
176
     1
290
     0
176
     1
 90
       50
176
     1
 62
   256
176
     0
 40
1.0
176
     0
 90
        2
176
     1
  1
strokes_ogs.tif
176
     1
290
     0
176
     1
 40
1.0
176
     1
 40
1.0
176
     1
  0
VISUALSTYLE
  5
2E
102
{ACAD_REACTORS
330
29
102
}
330
29
100
AcDbVisualStyle
  2
Basic
 70
     7
177
     3
291
     1
 70
    58
 90
        1
176
     1
 90
        0
176
     1
 90
        1
176
     1
 90
        0
176
     1
 40
0.6
176
     1
 40
30.0
176
     1
 62
     7
420
 16777215
176
     1
 90
        0
176
     1
 90
        4
176
     1
 62
     7
176
     1
 62
   257
176
     1
 90
        1
176
     1
 90
        1
176
     1
 40
1.0
176
     1
 90
        8
176
     1
 62
     7
176
     1
 40
1.0
176
     1
 90
        1
176
     1
 90
        6
176
     1
 90
        2
176
     1
 62
     7
176
     1
 90
        5
176
     1
 90
        0
176
     1
 90
        0
176
     1
290
     0
176
     1
 90
        1
176
     1
 40
0.0
176
     1
 90
        0
176
     1
290
     0
176
     1
290
     1
176
     1
290
     1
176
     1
290
     0
176
     1
290
     0
176
     1
290
     0
176
     1
290
     0
176
     1
290
     0
176
     1
290
     0
176
     1
 90
       50
176
     1
 40
0.0
176
     1
 40
1.0
176
     1
 90
        0
176
     1
 62
    18
420
        0
176
     1
 90
       50
176
     1
 90
        3
176
     1
 62
     5
420
      255
176
     1
290
     0
176
     1
 90
       50
176
     1
 90
       50
176
     1
 90
       50
176
     1
290
     0
176
     1
 90
       50
176
     1
 62
   256
176
     0
 40
1.0
176
     0
 90
        2
176
     1
  1
strokes_ogs.tif
176
     1
290
     0
176
     1
 40
1.0
176
     1
 40
1.0
176
     1
  0
VISUALSTYLE
  5
35
102
{ACAD_REACTORS
330
29
102
}
330
29
100
AcDbVisualStyle
  2
Brighten
 70
    12
177
     3
291
     1
 70
    58
 90
        2
176
     1
 90
        2
176
     1
 90
        0
176
     1
 90
        0
176
     1
 40
0.6
176
     1
 40
30.0
176
     1
 62
     7
420
 16777215
176
     1
 90
        1
176
     1
 90
        4
176
     1
 62
     7
176
     1
 62
   257
176
     1
 90
        1
176
     1
 90
        1
176
     1
 40
1.0
176
     1
 90
        8
176
     1
 62
     7
176
     1
 40
1.0
176
     1
 90
        1
176
     1
 90
        6
176
     1
 90
        2
176
     1
 62
     7
176
     1
 90
        5
176
     1
 90
        0
176
     1
 90
        0
176
     1
290
     0
176
     1
 90
        1
176
     1
 40
50.0
176
     1
 90
        0
176
     1
290
     0
176
     1
290
     1
176
     1
290
     1
176
     1
290
     0
176
     1
290
     0
176
     1
290
     0
176
     1
290
     0
176
     1
290
     0
176
     1
290
     0
176
     1
 90
       50
176
     1
 40
0.0
176
     1
 40
1.0
176
     1
 90
        0
176
     1
 62
    18
420
        0
176
     1
 90
       50
176
     1
 90
        3
176
     1
 62
     5
420
      255
176
     1
290
     0
176
     1
 90
       50
176
     1
 90
       50
176
     1
 90
       50
176
     1
290
     0
176
     1
 90
       50
176
     1
 62
   256
176
     0
 40
1.0
176
     0
 90
        2
176
     1
  1
strokes_ogs.tif
176
     1
290
     0
176
     1
 40
1.0
176
     1
 40
1.0
176
     1
  0
VISUALSTYLE
  5
39
102
{ACAD_REACTORS
330
29
102
}
330
29
100
AcDbVisualStyle
  2
ColorChange
 70
    16
177
     3
291
     1
 70
    58
 90
        2
176
     1
 90
        2
176
     1
 90
        3
176
     1
 90
        0
176
     1
 40
0.6
176
     1
 40
30.0
176
     1
 62
     8
420
  8421504
176
     1
 90
        1
176
     1
 90
        4
176
     1
 62
     7
176
     1
 62
   257
176
     1
 90
        1
176
     1
 90
        1
176
     1
 40
1.0
176
     1
 90
        8
176
     1
 62
     8
420
  8421504
176
     1
 40
1.0
176
     1
 90
        1
176
     1
 90
        6
176
     1
 90
        2
176
     1
 62
     7
176
     1
 90
        5
176
     1
 90
        0
176
     1
 90
        0
176
     1
290
     0
176
     1
 90
        1
176
     1
 40
0.0
176
     1
 90
        0
176
     1
290
     0
176
     1
290
     1
176
     1
290
     1
176
     1
290
     0
176
     1
290
     0
176
     1
290
     0
176
     1
290
     0
176
     1
290
     0
176
     1
290
     0
176
     1
 90
       50
176
     1
 40
0.0
176
     1
 40
1.0
176
     1
 90
        0
176
     1
 62
    18
420
        0
176
     1
 90
       50
176
     1
 90
        3
176
     1
 62
     5
420
      255
176
     1
290
     0
176
     1
 90
       50
176
     1
 90
       50
176
     1
 90
       50
176
     1
290
     0
176
     1
 90
       50
176
     1
 62
   256
176
     0
 40
1.0
176
     0
 90
        2
176
     1
  1
strokes_ogs.tif
176
     1
290
     0
176
     1
 40
1.0
176
     1
 40
1.0
176
     1
  0
VISUALSTYLE
  5
32
102
{ACAD_REACTORS
330
29
102
}
330
29
100
AcDbVisualStyle
  2
Conceptual
 70
     9
177
     3
291
     0
 70
    58
 90
        3
176
     1
 90
        2
176
     1
 90
        0
176
     1
 90
        0
176
     1
 40
0.6
176
     1
 40
30.0
176
     1
 62
     7
420
 16777215
176
     1
 90
        2
176
     1
 90
        2
176
     1
 62
     7
176
     1
 62
   257
176
     1
 90
        1
176
     1
 90
        1
176
     1
 40
179.0
176
     1
 90
        8
176
     1
 62
     7
176
     1
 40
1.0
176
     1
 90
        1
176
     1
 90
        6
176
     1
 90
        2
176
     1
 62
     7
176
     1
 90
        3
176
     1
 90
        0
176
     1
 90
        0
176
     1
290
     0
176
     1
 90
        1
176
     1
 40
0.0
176
     1
 90
        0
176
     1
290
     0
176
     1
290
     1
176
     1
290
     1
176
     1
290
     0
176
     1
290
     0
176
     1
290
     0
176
     1
290
     0
176
     1
290
     0
176
     1
290
     0
176
     1
 90
       50
176
     1
 40
0.0
176
     1
 40
1.0
176
     1
 90
        0
176
     1
 62
    18
420
        0
176
     1
 90
       50
176
     1
 90
        3
176
     1
 62
     5
420
      255
176
     1
290
     0
176
     1
 90
       50
176
     1
 90
       50
176
     1
 90
       50
176
     1
290
     0
176
     1
 90
       50
176
     1
 62
   256
176
     0
 40
1.0
176
     0
 90
        2
176
     1
  1
strokes_ogs.tif
176
     1
290
     0
176
     1
 40
1.0
176
     1
 40
1.0
176
     1
  0
VISUALSTYLE
  5
34
102
{ACAD_REACTORS
330
29
102
}
330
29
100
AcDbVisualStyle
  2
Dim
 70
    11
177
     3
291
     1
 70
    58
 90
        2
176
     1
 90
        2
176
     1
 90
        0
176
     1
 90
        0
176
     1
 40
0.6
176
     1
 40
30.0
176
     1
 62
     7
420
 16777215
176
     1
 90
        1
176
     1
 90
        4
176
     1
 62
     7
176
     1
 62
   257
176
     1
 90
        1
176
     1
 90
        1
176
     1
 40
1.0
176
     1
 90
        8
176
     1
 62
     7
176
     1
 40
1.0
176
     1
 90
        1
176
     1
 90
        6
176
     1
 90
        2
176
     1
 62
     7
176
     1
 90
        5
176
     1
 90
        0
176
     1
 90
        0
176
     1
290
     0
176
     1
 90
        1
176
     1
 40
-50.0
176
     1
 90
        0
176
     1
290
     0
176
     1
290
     1
176
     1
290
     1
176
     1
290
     0
176
     1
290
     0
176
     1
290
     0
176
     1
290
     0
176
     1
290
     0
176
     1
290
     0
176
     1
 90
       50
176
     1
 40
0.0
176
     1
 40
1.0
176
     1
 90
        0
176
     1
 62
    18
420
        0
176
     1
 90
       50
176
     1
 90
        3
176
     1
 62
     5
420
      255
176
     1
290
     0
176
     1
 90
       50
176
     1
 90
       50
176
     1
 90
       50
176
     1
290
     0
176
     1
 90
       50
176
     1
 62
   256
176
     0
 40
1.0
176
     0
 90
        2
176
     1
  1
strokes_ogs.tif
176
     1
290
     0
176
     1
 40
1.0
176
     1
 40
1.0
176
     1
  0
VISUALSTYLE
  5
41
102
{ACAD_REACTORS
330
29
102
}
330
29
100
AcDbVisualStyle
  2
EdgeColorOff
 70
    22
177
     3
291
     1
 70
    58
 90
        2
176
     0
 90
        2
176
     0
 90
        0
176
     0
 90
        0
176
     0
 40
0.6
176
     0
 40
30.0
176
     0
 62
     7
420
 16777215
176
     0
 90
        1
176
     0
 90
        4
176
     0
 62
     7
176
     0
 62
   257
176
     0
 90
        1
176
     0
 90
        1
176
     0
 40
1.0
176
     0
 90
        8
176
     2
 62
     7
176
     0
 40
1.0
176
     0
 90
        1
176
     0
 90
        6
176
     0
 90
        2
176
     0
 62
     7
176
     0
 90
        5
176
     0
 90
        0
176
     0
 90
        0
176
     0
290
     0
176
     0
 90
        1
176
     0
 40
0.0
176
     0
 90
        0
176
     0
290
     0
176
     0
290
     1
176
     0
290
     1
176
     0
290
     0
176
     0
290
     0
176
     0
290
     0
176
     0
290
     0
176
     0
290
     0
176
     0
290
     0
176
     0
 90
       50
176
     0
 40
0.0
176
     0
 40
1.0
176
     0
 90
        0
176
     0
 62
    18
420
        0
176
     0
 90
       50
176
     0
 90
        3
176
     0
 62
     5
420
      255
176
     0
290
     0
176
     0
 90
       50
176
     0
 90
       50
176
     0
 90
       50
176
     0
290
     0
176
     0
 90
       50
176
     0
 62
   256
176
     0
 40
1.0
176
     0
 90
        2
176
     0
  1
strokes_ogs.tif
176
     0
290
     0
176
     0
 40
1.0
176
     0
 40
1.0
176
     0
  0
VISUALSTYLE
  5
38
102
{ACAD_REACTORS
330
29
102
}
330
29
100
AcDbVisualStyle
  2
Facepattern
 70
    15
177
     3
291
     1
 70
    58
 90
        2
176
     1
 90
        2
176
     1
 90
        0
176
     1
 90
        0
176
     1
 40
0.6
176
     1
 40
30.0
176
     1
 62
     7
420
 16777215
176
     1
 90
        1
176
     1
 90
        4
176
     1
 62
     7
176
     1
 62
   257
176
     1
 90
        1
176
     1
 90
        1
176
     1
 40
1.0
176
     1
 90
        8
176
     1
 62
     7
176
     1
 40
1.0
176
     1
 90
        1
176
     1
 90
        6
176
     1
 90
        2
176
     1
 62
     7
176
     1
 90
        5
176
     1
 90
        0
176
     1
 90
        0
176
     1
290
     0
176
     1
 90
        1
176
     1
 40
0.0
176
     1
 90
        0
176
     1
290
     0
176
     1
290
     1
176
     1
290
     1
176
     1
290
     0
176
     1
290
     0
176
     1
290
     0
176
     1
290
     0
176
     1
290
     0
176
     1
290
     0
176
     1
 90
       50
176
     1
 40
0.0
176
     1
 40
1.0
176
     1
 90
        0
176
     1
 62
    18
420
        0
176
     1
 90
       50
176
     1
 90
        3
176
     1
 62
     5
420
      255
176
     1
290
     0
176
     1
 90
       50
176
     1
 90
       50
176
     1
 90
       50
176
     1
290
     0
176
     1
 90
       50
176
     1
 62
   256
176
     0
 40
1.0
176
     0
 90
        2
176
     1
  1
strokes_ogs.tif
176
     1
290
     0
176
     1
 40
1.0
176
     1
 40
1.0
176
     1
  0
VISUALSTYLE
  5
2A
102
{ACAD_REACTORS
330
29
102
}
330
29
100
AcDbVisualStyle
  2
Flat
 70
     0
177
     3
291
     1
 70
    58
 90
        2
176
     1
 90
        1
176
     1
 90
        1
176
     1
 90
        2
176
     1
 40
0.6
176
     1
 40
30.0
176
     1
 62
     7
420
 16777215
176
     1
 90
        0
176
     1
 90
        0
176
     1
 62
     7
176
     1
 62
   257
176
     1
 90
        1
176
     1
 90
        1
176
     1
 40
1.0
176
     1
 90
        8
176
     1
 62
     7
176
     1
 40
1.0
176
     1
 90
        1
176
     1
 90
        6
176
     1
 90
        2
176
     1
 62
     7
176
     1
 90
        5
176
     1
 90
        0
176
     1
 90
        0
176
     1
290
     0
176
     1
 90
       13
176
     1
 40
0.0
176
     1
 90
        0
176
     1
290
     0
176
     1
290
     1
176
     1
290
     1
176
     1
290
     0
176
     1
290
     0
176
     1
290
     0
176
     1
290
     0
176
     1
290
     0
176
     1
290
     0
176
     1
 90
       50
176
     1
 40
0.0
176
     1
 40
1.0
176
     1
 90
        0
176
     1
 62
    18
420
        0
176
     1
 90
       50
176
     1
 90
        3
176
     1
 62
     5
420
      255
176
     1
290
     0
176
     1
 90
       50
176
     1
 90
       50
176
     1
 90
       50
176
     1
290
     0
176
     1
 90
       50
176
     1
 62
   256
176
     0
 40
1.0
176
     0
 90
        2
176
     1
  1
strokes_ogs.tif
176
     1
290
     0
176
     1
 40
1.0
176
     1
 40
1.0
176
     1
  0
VISUALSTYLE
  5
2B
102
{ACAD_REACTORS
330
29
102
}
330
29
100
AcDbVisualStyle
  2
FlatWithEdges
 70
     1
177
     3
291
     1
 70
    58
 90
        2
176
     1
 90
        1
176
     1
 90
        1
176
     1
 90
        2
176
     1
 40
0.6
176
     1
 40
30.0
176
     1
 62
     7
420
 16777215
176
     1
 90
        1
176
     1
 90
        0
176
     1
 62
     7
176
     1
 62
   257
176
     1
 90
        1
176
     1
 90
        1
176
     1
 40
1.0
176
     1
 90
        0
176
     1
 62
   257
176
     1
 40
1.0
176
     1
 90
        1
176
     1
 90
        6
176
     1
 90
        2
176
     1
 62
     7
176
     1
 90
        5
176
     1
 90
        0
176
     1
 90
        0
176
     1
290
     0
176
     1
 90
       13
176
     1
 40
0.0
176
     1
 90
        0
176
     1
290
     0
176
     1
290
     1
176
     1
290
     1
176
     1
290
     0
176
     1
290
     0
176
     1
290
     0
176
     1
290
     0
176
     1
290
     0
176
     1
290
     0
176
     1
 90
       50
176
     1
 40
0.0
176
     1
 40
1.0
176
     1
 90
        0
176
     1
 62
    18
420
        0
176
     1
 90
       50
176
     1
 90
        3
176
     1
 62
     5
420
      255
176
     1
290
     0
176
     1
 90
       50
176
     1
 90
       50
176
     1
 90
       50
176
     1
290
     0
176
     1
 90
       50
176
     1
 62
   256
176
     0
 40
1.0
176
     0
 90
        2
176
     1
  1
strokes_ogs.tif
176
     1
290
     0
176
     1
 40
1.0
176
     1
 40
1.0
176
     1
  0
VISUALSTYLE
  5
2C
102
{ACAD_REACTORS
330
29
102
}
330
29
100
AcDbVisualStyle
  2
Gouraud
 70
     2
177
     3
291
     1
 70
    58
 90
        2
176
     1
 90
        2
176
     1
 90
        1
176
     1
 90
        2
176
     1
 40
0.6
176
     1
 40
30.0
176
     1
 62
     7
420
 16777215
176
     1
 90
        0
176
     1
 90
        0
176
     1
 62
     7
176
     1
 62
   257
176
     1
 90
        1
176
     1
 90
        1
176
     1
 40
1.0
176
     1
 90
        0
176
     1
 62
     7
176
     1
 40
1.0
176
     1
 90
        1
176
     1
 90
        6
176
     1
 90
        2
176
     1
 62
     7
176
     1
 90
        5
176
     1
 90
        0
176
     1
 90
        0
176
     1
290
     0
176
     1
 90
       13
176
     1
 40
0.0
176
     1
 90
        0
176
     1
290
     0
176
     1
290
     1
176
     1
290
     1
176
     1
290
     0
176
     1
290
     0
176
     1
290
     0
176
     1
290
     0
176
     1
290
     0
176
     1
290
     0
176
     1
 90
       50
176
     1
 40
0.0
176
     1
 40
1.0
176
     1
 90
        0
176
     1
 62
    18
420
        0
176
     1
 90
       50
176
     1
 90
        3
176
     1
 62
     5
420
      255
176
     1
290
     0
176
     1
 90
       50
176
     1
 90
       50
176
     1
 90
       50
176
     1
290
     0
176
     1
 90
       50
176
     1
 62
   256
176
     0
 40
1.0
176
     0
 90
        2
176
     1
  1
strokes_ogs.tif
176
     1
290
     0
176
     1
 40
1.0
176
     1
 40
1.0
176
     1
  0
VISUALSTYLE
  5
2D
102
{ACAD_REACTORS
330
29
102
}
330
29
100
AcDbVisualStyle
  2
GouraudWithEdges
 70
     3
177
     3
291
     1
 70
    58
 90
        2
176
     1
 90
        2
176
     1
 90
        1
176
     1
 90
        2
176
     1
 40
0.6
176
     1
 40
30.0
176
     1
 62
     7
420
 16777215
176
     1
 90
        1
176
     1
 90
        0
176
     1
 62
     7
176
     1
 62
   257
176
     1
 90
        1
176
     1
 90
        1
176
     1
 40
1.0
176
     1
 90
        0
176
     1
 62
   257
176
     1
 40
1.0
176
     1
 90
        1
176
     1
 90
        6
176
     1
 90
        2
176
     1
 62
     7
176
     1
 90
        5
176
     1
 90
        0
176
     1
 90
        0
176
     1
290
     0
176
     1
 90
       13
176
     1
 40
0.0
176
     1
 90
        0
176
     1
290
     0
176
     1
290
     1
176
     1
290
     1
176
     1
290
     0
176
     1
290
     0
176
     1
290
     0
176
     1
290
     0
176
     1
290
     0
176
     1
290
     0
176
     1
 90
       50
176
     1
 40
0.0
176
     1
 40
1.0
176
     1
 90
        0
176
     1
 62
    18
420
        0
176
     1
 90
       50
176
     1
 90
        3
176
     1
 62
     5
420
      255
176
     1
290
     0
176
     1
 90
       50
176
     1
 90
       50
176
     1
 90
       50
176
     1
290
     0
176
     1
 90
       50
176
     1
 62
   256
176
     0
 40
1.0
176
     0
 90
        2
176
     1
  1
strokes_ogs.tif
176
     1
290
     0
176
     1
 40
1.0
176
     1
 40
1.0
176
     1
  0
VISUALSTYLE
  5
31
102
{ACAD_REACTORS
330
29
102
}
330
29
100
AcDbVisualStyle
  2
Hidden
 70
     6
177
     3
291
     0
 70
    58
 90
        1
176
     1
 90
        2
176
     1
 90
        2
176
     1
 90
        0
176
     1
 40
0.6
176
     1
 40
30.0
176
     1
 62
     7
420
 16777215
176
     1
 90
        2
176
     1
 90
        2
176
     1
 62
     7
176
     1
 62
   257
176
     1
 90
        2
176
     1
 90
        1
176
     1
 40
40.0
176
     1
 90
        0
176
     1
 62
   257
176
     1
 40
1.0
176
     1
 90
        1
176
     1
 90
        6
176
     1
 90
        2
176
     1
 62
     7
176
     1
 90
        3
176
     1
 90
        0
176
     1
 90
        0
176
     1
290
     0
176
     1
 90
        1
176
     1
 40
0.0
176
     1
 90
        0
176
     1
290
     0
176
     1
290
     1
176
     1
290
     1
176
     1
290
     0
176
     1
290
     0
176
     1
290
     0
176
     1
290
     0
176
     1
290
     0
176
     1
290
     0
176
     1
 90
       50
176
     1
 40
0.0
176
     1
 40
1.0
176
     1
 90
        0
176
     1
 62
    18
420
        0
176
     1
 90
       50
176
     1
 90
        3
176
     1
 62
     5
420
      255
176
     1
290
     0
176
     1
 90
       50
176
     1
 90
       50
176
     1
 90
       50
176
     1
290
     0
176
     1
 90
       50
176
     1
 62
   256
176
     0
 40
1.0
176
     0
 90
        2
176
     1
  1
strokes_ogs.tif
176
     1
290
     0
176
     1
 40
1.0
176
     1
 40
1.0
176
     1
  0
VISUALSTYLE
  5
3F
102
{ACAD_REACTORS
330
29
102
}
330
29
100
AcDbVisualStyle
  2
JitterOff
 70
    20
177
     3
291
     1
 70
    58
 90
        2
176
     0
 90
        2
176
     0
 90
        0
176
     0
 90
        0
176
     0
 40
0.6
176
     0
 40
30.0
176
     0
 62
     7
420
 16777215
176
     0
 90
        1
176
     0
 90
        4
176
     0
 62
     7
176
     0
 62
   257
176
     0
 90
        1
176
     0
 90
        1
176
     0
 40
1.0
176
     0
 90
       10
176
     2
 62
     7
176
     0
 40
1.0
176
     0
 90
        1
176
     0
 90
        6
176
     0
 90
        2
176
     0
 62
     7
176
     0
 90
        5
176
     0
 90
        0
176
     0
 90
        0
176
     0
290
     0
176
     0
 90
        1
176
     0
 40
0.0
176
     0
 90
        0
176
     0
290
     0
176
     0
290
     1
176
     0
290
     1
176
     0
290
     0
176
     0
290
     0
176
     0
290
     0
176
     0
290
     0
176
     0
290
     0
176
     0
290
     0
176
     0
 90
       50
176
     0
 40
0.0
176
     0
 40
1.0
176
     0
 90
        0
176
     0
 62
    18
420
        0
176
     0
 90
       50
176
     0
 90
        3
176
     0
 62
     5
420
      255
176
     0
290
     0
176
     0
 90
       50
176
     0
 90
       50
176
     0
 90
       50
176
     0
290
     0
176
     0
 90
       50
176
     0
 62
   256
176
     0
 40
1.0
176
     0
 90
        2
176
     0
  1
strokes_ogs.tif
176
     0
290
     0
176
     0
 40
1.0
176
     0
 40
1.0
176
     0
  0
VISUALSTYLE
  5
37
102
{ACAD_REACTORS
330
29
102
}
330
29
100
AcDbVisualStyle
  2
Linepattern
 70
    14
177
     3
291
     1
 70
    58
 90
        2
176
     1
 90
        2
176
     1
 90
        0
176
     1
 90
        0
176
     1
 40
0.6
176
     1
 40
30.0
176
     1
 62
     7
420
 16777215
176
     1
 90
        1
176
     1
 90
        4
176
     1
 62
     7
176
     1
 62
   257
176
     1
 90
        7
176
     1
 90
        7
176
     1
 40
1.0
176
     1
 90
        8
176
     1
 62
     7
176
     1
 40
1.0
176
     1
 90
        1
176
     1
 90
        6
176
     1
 90
        2
176
     1
 62
     7
176
     1
 90
        5
176
     1
 90
        0
176
     1
 90
        0
176
     1
290
     0
176
     1
 90
        1
176
     1
 40
0.0
176
     1
 90
        0
176
     1
290
     0
176
     1
290
     1
176
     1
290
     1
176
     1
290
     0
176
     1
290
     0
176
     1
290
     0
176
     1
290
     0
176
     1
290
     0
176
     1
290
     0
176
     1
 90
       50
176
     1
 40
0.0
176
     1
 40
1.0
176
     1
 90
        0
176
     1
 62
    18
420
        0
176
     1
 90
       50
176
     1
 90
        3
176
     1
 62
     5
420
      255
176
     1
290
     0
176
     1
 90
       50
176
     1
 90
       50
176
     1
 90
       50
176
     1
290
     0
176
     1
 90
       50
176
     1
 62
   256
176
     0
 40
1.0
176
     0
 90
        2
176
     1
  1
strokes_ogs.tif
176
     1
290
     0
176
     1
 40
1.0
176
     1
 40
1.0
176
     1
  0
VISUALSTYLE
  5
40
102
{ACAD_REACTORS
330
29
102
}
330
29
100
AcDbVisualStyle
  2
OverhangOff
 70
    21
177
     3
291
     1
 70
    58
 90
        2
176
     0
 90
        2
176
     0
 90
        0
176
     0
 90
        0
176
     0
 40
0.6
176
     0
 40
30.0
176
     0
 62
     7
420
 16777215
176
     0
 90
        1
176
     0
 90
        4
176
     0
 62
     7
176
     0
 62
   257
176
     0
 90
        1
176
     0
 90
        1
176
     0
 40
1.0
176
     0
 90
        9
176
     2
 62
     7
176
     0
 40
1.0
176
     0
 90
        1
176
     0
 90
        6
176
     0
 90
        2
176
     0
 62
     7
176
     0
 90
        5
176
     0
 90
        0
176
     0
 90
        0
176
     0
290
     0
176
     0
 90
        1
176
     0
 40
0.0
176
     0
 90
        0
176
     0
290
     0
176
     0
290
     1
176
     0
290
     1
176
     0
290
     0
176
     0
290
     0
176
     0
290
     0
176
     0
290
     0
176
     0
290
     0
176
     0
290
     0
176
     0
 90
       50
176
     0
 40
0.0
176
     0
 40
1.0
176
     0
 90
        0
176
     0
 62
    18
420
        0
176
     0
 90
       50
176
     0
 90
        3
176
     0
 62
     5
420
      255
176
     0
290
     0
176
     0
 90
       50
176
     0
 90
       50
176
     0
 90
       50
176
     0
290
     0
176
     0
 90
       50
176
     0
 62
   256
176
     0
 40
1.0
176
     0
 90
        2
176
     0
  1
strokes_ogs.tif
176
     0
290
     0
176
     0
 40
1.0
176
     0
 40
1.0
176
     0
  0
VISUALSTYLE
  5
33
102
{ACAD_REACTORS
330
29
102
}
330
29
100
AcDbVisualStyle
  2
Realistic
 70
     8
177
     3
291
     0
 70
    58
 90
        2
176
     1
 90
        3
176
     1
 90
        0
176
     1
 90
        2
176
     1
 40
0.6
176
     1
 40
30.0
176
     1
 62
     7
420
 16777215
176
     1
 90
        0
176
     1
 90
        0
176
     1
 62
     7
176
     1
 62
   257
176
     1
 90
        1
176
     1
 90
        1
176
     1
 40
1.0
176
     1
 90
        8
176
     1
 62
   257
176
     1
 40
1.0
176
     1
 90
        1
176
     1
 90
        6
176
     1
 90
        2
176
     1
 62
     7
176
     1
 90
        3
176
     1
 90
        0
176
     1
 90
        0
176
     1
290
     0
176
     1
 90
       13
176
     1
 40
0.0
176
     1
 90
        0
176
     1
290
     0
176
     1
290
     1
176
     1
290
     1
176
     1
290
     0
176
     1
290
     0
176
     1
290
     0
176
     1
290
     0
176
     1
290
     0
176
     1
290
     0
176
     1
 90
       50
176
     1
 40
0.0
176
     1
 40
1.0
176
     1
 90
        0
176
     1
 62
    18
420
        0
176
     1
 90
       50
176
     1
 90
        3
176
     1
 62
     5
420
      255
176
     1
290
     0
176
     1
 90
       50
176
     1
 90
       50
176
     1
 90
       50
176
     1
290
     0
176
     1
 90
       50
176
     1
 62
   256
176
     0
 40
1.0
176
     0
 90
        2
176
     1
  1
strokes_ogs.tif
176
     1
290
     0
176
     1
 40
1.0
176
     1
 40
1.0
176
     1
  0
VISUALSTYLE
  5
3E
102
{ACAD_REACTORS
330
29
102
}
330
29
100
AcDbVisualStyle
  2
Shaded
 70
    27
177
     3
291
     0
 70
    58
 90
        2
176
     1
 90
        2
176
     1
 90
        1
176
     1
 90
        2
176
     1
 40
0.6
176
     1
 40
30.0
176
     1
 62
     7
420
 16777215
176
     1
 90
        0
176
     1
 90
        4
176
     1
 62
     7
176
     1
 62
   257
176
     1
 90
        1
176
     1
 90
        1
176
     1
 40
1.0
176
     1
 90
        8
176
     1
 62
   257
176
     1
 40
1.0
176
     1
 90
        1
176
     1
 90
        6
176
     1
 90
        2
176
     1
 62
     8
420
  7895160
176
     1
 90
        3
176
     1
 90
        0
176
     1
 90
        0
176
     1
290
     0
176
     1
 90
        5
176
     1
 40
0.0
176
     1
 90
        0
176
     1
290
     0
176
     1
290
     1
176
     1
290
     1
176
     1
290
     0
176
     1
290
     0
176
     1
290
     0
176
     1
290
     0
176
     1
290
     0
176
     1
290
     0
176
     1
 90
       50
176
     1
 40
0.0
176
     1
 40
1.0
176
     1
 90
        0
176
     1
 62
    18
420
        0
176
     1
 90
       50
176
     1
 90
        3
176
     1
 62
     5
420
      255
176
     1
290
     0
176
     1
 90
       50
176
     1
 90
       50
176
     1
 90
       50
176
     1
290
     0
176
     1
 90
       50
176
     1
 62
   256
176
     0
 40
1.0
176
     0
 90
        2
176
     1
  1
strokes_ogs.tif
176
     1
290
     0
176
     1
 40
1.0
176
     1
 40
1.0
176
     1
  0
VISUALSTYLE
  5
3D
102
{ACAD_REACTORS
330
29
102
}
330
29
100
AcDbVisualStyle
  2
Shaded with edges
 70
    26
177
     3
291
     0
 70
    58
 90
        2
176
     1
 90
        2
176
     1
 90
        1
176
     1
 90
        2
176
     1
 40
0.6
176
     1
 40
30.0
176
     1
 62
     7
420
 16777215
176
     1
 90
        1
176
     1
 90
        2
176
     1
 62
     7
176
     1
 62
   257
176
     1
 90
        2
176
     1
 90
        1
176
     1
 40
1.0
176
     1
 90
        8
176
     1
 62
   257
176
     1
 40
1.0
176
     1
 90
        1
176
     1
 90
        6
176
     1
 90
        2
176
     1
 62
     7
176
     1
 90
        3
176
     1
 90
        0
176
     1
 90
        0
176
     1
290
     0
176
     1
 90
        5
176
     1
 40
0.0
176
     1
 90
        0
176
     1
290
     0
176
     1
290
     1
176
     1
290
     1
176
     1
290
     0
176
     1
290
     0
176
     1
290
     0
176
     1
290
     0
176
     1
290
     0
176
     1
290
     0
176
     1
 90
       50
176
     1
 40
0.0
176
     1
 40
1.0
176
     1
 90
        0
176
     1
 62
    18
420
        0
176
     1
 90
       50
176
     1
 90
        3
176
     1
 62
     5
420
      255
176
     1
290
     0
176
     1
 90
       50
176
     1
 90
       50
176
     1
 90
       50
176
     1
290
     0
176
     1
 90
       50
176
     1
 62
   256
176
     0
 40
1.0
176
     0
 90
        2
176
     1
  1
strokes_ogs.tif
176
     1
290
     0
176
     1
 40
1.0
176
     1
 40
1.0
176
     1
  0
VISUALSTYLE
  5
3A
102
{ACAD_REACTORS
330
29
102
}
330
29
100
AcDbVisualStyle
  2
Shades of Gray
 70
    23
177
     3
291
     0
 70
    58
 90
        2
176
     1
 90
        2
176
     1
 90
        3
176
     1
 90
        0
176
     1
 40
0.6
176
     1
 40
30.0
176
     1
 62
     7
420
 16777215
176
     1
 90
        2
176
     1
 90
        2
176
     1
 62
     7
176
     1
 62
     7
176
     1
 90
        1
176
     1
 90
        1
176
     1
 40
40.0
176
     1
 90
        8
176
     1
 62
     7
176
     1
 40
1.0
176
     1
 90
        1
176
     1
 90
        6
176
     1
 90
        2
176
     1
 62
     7
176
     1
 90
        3
176
     1
 90
        0
176
     1
 90
        0
176
     1
290
     0
176
     1
 90
        1
176
     1
 40
0.0
176
     1
 90
        0
176
     1
290
     0
176
     1
290
     1
176
     1
290
     1
176
     1
290
     0
176
     1
290
     0
176
     1
290
     0
176
     1
290
     0
176
     1
290
     0
176
     1
290
     0
176
     1
 90
       50
176
     1
 40
0.0
176
     1
 40
1.0
176
     1
 90
        0
176
     1
 62
    18
420
        0
176
     1
 90
       50
176
     1
 90
        3
176
     1
 62
     5
420
      255
176
     1
290
     0
176
     1
 90
       50
176
     1
 90
       50
176
     1
 90
       50
176
     1
290
     0
176
     1
 90
       50
176
     1
 62
   256
176
     0
 40
1.0
176
     0
 90
        2
176
     1
  1
strokes_ogs.tif
176
     1
290
     0
176
     1
 40
1.0
176
     1
 40
1.0
176
     1
  0
VISUALSTYLE
  5
3B
102
{ACAD_REACTORS
330
29
102
}
330
29
100
AcDbVisualStyle
  2
Sketchy
 70
    24
177
     3
291
     0
 70
    58
 90
        1
176
     1
 90
        2
176
     1
 90
        2
176
     1
 90
        0
176
     1
 40
0.6
176
     1
 40
30.0
176
     1
 62
     7
420
 16777215
176
     1
 90
        2
176
     1
 90
        2
176
     1
 62
     7
176
     1
 62
     7
176
     1
 90
        1
176
     1
 90
        1
176
     1
 40
40.0
176
     1
 90
       11
176
     1
 62
     7
176
     1
 40
1.0
176
     1
 90
        1
176
     1
 90
        6
176
     1
 90
        2
176
     1
 62
     7
176
     1
 90
        6
176
     1
 90
        0
176
     1
 90
        0
176
     1
290
     0
176
     1
 90
        1
176
     1
 40
0.0
176
     1
 90
        0
176
     1
290
     0
176
     1
290
     1
176
     1
290
     1
176
     1
290
     0
176
     1
290
     0
176
     1
290
     0
176
     1
290
     0
176
     1
290
     0
176
     1
290
     0
176
     1
 90
       50
176
     1
 40
0.0
176
     1
 40
1.0
176
     1
 90
        0
176
     1
 62
    18
420
        0
176
     1
 90
       50
176
     1
 90
        3
176
     1
 62
     5
420
      255
176
     1
290
     0
176
     1
 90
       50
176
     1
 90
       50
176
     1
 90
       50
176
     1
290
     0
176
     1
 90
       50
176
     1
 62
   256
176
     0
 40
1.0
176
     0
 90
        2
176
     1
  1
strokes_ogs.tif
176
     1
290
     0
176
     1
 40
1.0
176
     1
 40
1.0
176
     1
  0
VISUALSTYLE
  5
36
102
{ACAD_REACTORS
330
29
102
}
330
29
100
AcDbVisualStyle
  2
Thicken
 70
    13
177
     3
291
     1
 70
    58
 90
        2
176
     1
 90
        2
176
     1
 90
        0
176
     1
 90
        0
176
     1
 40
0.6
176
     1
 40
30.0
176
     1
 62
     7
420
 16777215
176
     1
 90
        1
176
     1
 90
        4
176
     1
 62
     7
176
     1
 62
   257
176
     1
 90
        1
176
     1
 90
        1
176
     1
 40
1.0
176
     1
 90
       12
176
     1
 62
     7
176
     1
 40
1.0
176
     1
 90
        1
176
     1
 90
        6
176
     1
 90
        2
176
     1
 62
     7
176
     1
 90
        5
176
     1
 90
        0
176
     1
 90
        0
176
     1
290
     0
176
     1
 90
        1
176
     1
 40
0.0
176
     1
 90
        0
176
     1
290
     0
176
     1
290
     1
176
     1
290
     1
176
     1
290
     0
176
     1
290
     0
176
     1
290
     0
176
     1
290
     0
176
     1
290
     0
176
     1
290
     0
176
     1
 90
       50
176
     1
 40
0.0
176
     1
 40
1.0
176
     1
 90
        0
176
     1
 62
    18
420
        0
176
     1
 90
       50
176
     1
 90
        3
176
     1
 62
     5
420
      255
176
     1
290
     0
176
     1
 90
       50
176
     1
 90
       50
176
     1
 90
       50
176
     1
290
     0
176
     1
 90
       50
176
     1
 62
   256
176
     0
 40
1.0
176
     0
 90
        2
176
     1
  1
strokes_ogs.tif
176
     1
290
     0
176
     1
 40
1.0
176
     1
 40
1.0
176
     1
  0
VISUALSTYLE
  5
30
102
{ACAD_REACTORS
330
29
102
}
330
29
100
AcDbVisualStyle
  2
Wireframe
 70
     5
177
     3
291
     0
 70
    58
 90
        0
176
     1
 90
        2
176
     1
 90
        0
176
     1
 90
        0
176
     1
 40
0.6
176
     1
 40
30.0
176
     1
 62
     7
420
 16777215
176
     1
 90
        1
176
     1
 90
        4
176
     1
 62
     7
176
     1
 62
   257
176
     1
 90
        1
176
     1
 90
        1
176
     1
 40
1.0
176
     1
 90
        0
176
     1
 62
   257
176
     1
 40
1.0
176
     1
 90
        1
176
     1
 90
        6
176
     1
 90
        2
176
     1
 62
     7
176
     1
 90
        3
176
     1
 90
        0
176
     1
 90
        0
176
     1
290
     0
176
     1
 90
        1
176
     1
 40
0.0
176
     1
 90
        0
176
     1
290
     0
176
     1
290
     1
176
     1
290
     1
176
     1
290
     0
176
     1
290
     0
176
     1
290
     0
176
     1
290
     0
176
     1
290
     0
176
     1
290
     0
176
     1
 90
       50
176
     1
 40
0.0
176
     1
 40
1.0
176
     1
 90
        0
176
     1
 62
    18
420
        0
176
     1
 90
       50
176
     1
 90
        3
176
     1
 62
     5
420
      255
176
     1
290
     0
176
     1
 90
       50
176
     1
 90
       50
176
     1
 90
       50
176
     1
290
     0
176
     1
 90
       50
176
     1
 62
   256
176
     0
 40
1.0
176
     0
 90
        2
176
     1
  1
strokes_ogs.tif
176
     1
290
     0
176
     1
 40
1.0
176
     1
 40
1.0
176
     1
  0
VISUALSTYLE
  5
3C
102
{ACAD_REACTORS
330
29
102
}
330
29
100
AcDbVisualStyle
  2
X-Ray
 70
    25
177
     3
291
     0
 70
    58
 90
        2
176
     1
 90
        2
176
     1
 90
        1
176
     1
 90
        1
176
     1
 40
0.5
176
     1
 40
30.0
176
     1
 62
     7
420
 16777215
176
     1
 90
        1
176
     1
 90
        0
176
     1
 62
     7
176
     1
 62
   257
176
     1
 90
        1
176
     1
 90
        1
176
     1
 40
1.0
176
     1
 90
        8
176
     1
 62
     7
176
     1
 40
1.0
176
     1
 90
        1
176
     1
 90
        6
176
     1
 90
        2
176
     1
 62
     7
176
     1
 90
        3
176
     1
 90
        0
176
     1
 90
        0
176
     1
290
     0
176
     1
 90
       13
176
     1
 40
0.0
176
     1
 90
        0
176
     1
290
     0
176
     1
290
     1
176
     1
290
     1
176
     1
290
     0
176
     1
290
     0
176
     1
290
     0
176
     1
290
     0
176
     1
290
     0
176
     1
290
     0
176
     1
 90
       50
176
     1
 40
0.0
176
     1
 40
1.0
176
     1
 90
        0
176
     1
 62
    18
420
        0
176
     1
 90
       50
176
     1
 90
        3
176
     1
 62
     5
420
      255
176
     1
290
     0
176
     1
 90
       50
176
     1
 90
       50
176
     1
 90
       50
176
     1
290
     0
176
     1
 90
       50
176
     1
 62
   256
176
     0
 40
1.0
176
     0
 90
        2
176
     1
  1
strokes_ogs.tif
176
     1
290
     0
176
     1
 40
1.0
176
     1
 40
1.0
176
     1
  0
DICTIONARYVAR
  5
1AF
102
{ACAD_REACTORS
330
1AA
102
}
330
1AA
100
DictionaryVariables
280
     0
  1
1:1
  0
DICTIONARYVAR
  5
1AC
102
{ACAD_REACTORS
330
1AA
102
}
330
1AA
100
DictionaryVariables
280
     0
  1
STANDARD
  0
DICTIONARYVAR
  5
1AB
102
{ACAD_REACTORS
330
1AA
102
}
330
1AA
100
DictionaryVariables
280
     0
  1
STANDARD
  0
DICTIONARYVAR
  5
1AD
102
{ACAD_REACTORS
330
1AA
102
}
330
1AA
100
DictionaryVariables
280
     0
  1
Imperial24
  0
DICTIONARYVAR
  5
1AE
102
{ACAD_REACTORS
330
1AA
102
}
330
1AA
100
DictionaryVariables
280
     0
  1
Imperial24
  0
DICTIONARY
  5
1A
330
19
100
AcDbDictionary
280
     1
281
     1
  3
BUMPTILE
360
1C
  3
DIFFUSETILE
360
1B
  3
OPACITYTILE
360
1F
  3
REFLECTIONTILE
360
1E
  3
REFRACTIONTILE
360
20
  3
SPECULARTILE
360
1D
  0
DICTIONARY
  5
12
330
11
100
AcDbDictionary
280
     1
281
     1
  3
BUMPTILE
360
14
  3
DIFFUSETILE
360
13
  3
OPACITYTILE
360
17
  3
REFLECTIONTILE
360
16
  3
REFRACTIONTILE
360
18
  3
SPECULARTILE
360
15
  0
DICTIONARY
  5
22
330
21
100
AcDbDictionary
280
     1
281
     1
  3
BUMPTILE
360
24
  3
DIFFUSETILE
360
23
  3
OPACITYTILE
360
27
  3
REFLECTIONTILE
360
26
  3
REFRACTIONTILE
360
28
  3
SPECULARTILE
360
25
  0
DICTIONARY
  5
1B0
330
65
100
AcDbDictionary
280
     1
281
     1
  3
ACAD_ROUNDTRIP_2008_TABLESTYLE_CELLSTYLEMAP
360
1B1
  0
XRECORD
  5
1C
102
{ACAD_REACTORS
330
1A
102
}
330
1A
100
AcDbXrecord
280
     1
270
     1
271
     1
  0
XRECORD
  5
1B
102
{ACAD_REACTORS
330
1A
102
}
330
1A
100
AcDbXrecord
280
     1
270
     1
271
     1
  0
XRECORD
  5
1F
102
{ACAD_REACTORS
330
1A
102
}
330
1A
100
AcDbXrecord
280
     1
270
     1
271
     1
  0
XRECORD
  5
1E
102
{ACAD_REACTORS
330
1A
102
}
330
1A
100
AcDbXrecord
280
     1
270
     1
271
     1
  0
XRECORD
  5
20
102
{ACAD_REACTORS
330
1A
102
}
330
1A
100
AcDbXrecord
280
     1
270
     1
271
     1
  0
XRECORD
  5
1D
102
{ACAD_REACTORS
330
1A
102
}
330
1A
100
AcDbXrecord
280
     1
270
     1
271
     1
  0
XRECORD
  5
14
102
{ACAD_REACTORS
330
12
102
}
330
12
100
AcDbXrecord
280
     1
270
     1
271
     1
  0
XRECORD
  5
13
102
{ACAD_REACTORS
330
12
102
}
330
12
100
AcDbXrecord
280
     1
270
     1
271
     1
  0
XRECORD
  5
17
102
{ACAD_REACTORS
330
12
102
}
330
12
100
AcDbXrecord
280
     1
270
     1
271
     1
  0
XRECORD
  5
16
102
{ACAD_REACTORS
330
12
102
}
330
12
100
AcDbXrecord
280
     1
270
     1
271
     1
  0
XRECORD
  5
18
102
{ACAD_REACTORS
330
12
102
}
330
12
100
AcDbXrecord
280
     1
270
     1
271
     1
  0
XRECORD
  5
15
102
{ACAD_REACTORS
330
12
102
}
330
12
100
AcDbXrecord
280
     1
270
     1
271
     1
  0
XRECORD
  5
24
102
{ACAD_REACTORS
330
22
102
}
330
22
100
AcDbXrecord
280
     1
270
     1
271
     1
  0
XRECORD
  5
23
102
{ACAD_REACTORS
330
22
102
}
330
22
100
AcDbXrecord
280
     1
270
     1
271
     1
  0
XRECORD
  5
27
102
{ACAD_REACTORS
330
22
102
}
330
22
100
AcDbXrecord
280
     1
270
     1
271
     1
  0
XRECORD
  5
26
102
{ACAD_REACTORS
330
22
102
}
330
22
100
AcDbXrecord
280
     1
270
     1
271
     1
  0
XRECORD
  5
28
102
{ACAD_REACTORS
330
22
102
}
330
22
100
AcDbXrecord
280
     1
270
     1
271
     1
  0
XRECORD
  5
25
102
{ACAD_REACTORS
330
22
102
}
330
22
100
AcDbXrecord
280
     1
270
     1
271
     1
  0
CELLSTYLEMAP
  5
1B1
102
{ACAD_REACTORS
330
1B0
102
}
330
1B0
100
AcDbCellStyleMap
 90
        3
300
CELLSTYLE
  1
TABLEFORMAT_BEGIN
 90
        5
170
     1
 91
        0
 92
    32768
 62
   257
 93
        1
300
CONTENTFORMAT
  1
CONTENTFORMAT_BEGIN
 90
        0
 91
        0
 92
      512
 93
        0
300

 40
0.0
140
1.0
 94
        5
 62
     0
340
55
144
0.25
309
CONTENTFORMAT_END
171
     0
 94
        0
309
TABLEFORMAT_END
  1
CELLSTYLE_BEGIN
 90
        1
 91
        1
300
_TITLE
309
CELLSTYLE_END
300
CELLSTYLE
  1
TABLEFORMAT_BEGIN
 90
        5
170
     1
 91
        0
 92
        0
 62
   257
 93
        1
300
CONTENTFORMAT
  1
CONTENTFORMAT_BEGIN
 90
        0
 91
        0
 92
      512
 93
        0
300

 40
0.0
140
1.0
 94
        5
 62
     0
340
55
144
0.18
309
CONTENTFORMAT_END
171
     0
 94
        0
309
TABLEFORMAT_END
  1
CELLSTYLE_BEGIN
 90
        2
 91
        1
300
_HEADER
309
CELLSTYLE_END
300
CELLSTYLE
  1
TABLEFORMAT_BEGIN
 90
        5
170
     1
 91
        0
 92
        0
 62
   257
 93
        1
300
CONTENTFORMAT
  1
CONTENTFORMAT_BEGIN
 90
        0
 91
        0
 92
      512
 93
        0
300

 40
0.0
140
1.0
 94
        2
 62
     0
340
55
144
0.18
309
CONTENTFORMAT_END
171
     0
 94
        0
309
TABLEFORMAT_END
  1
CELLSTYLE_BEGIN
 90
        3
 91
        2
300
_DATA
309
CELLSTYLE_END
  0
ENDSEC
  0
EOF
