  0
SECTION
  2
HEADER
  9
$ACADVER
  1
AC1032
  9
$ACADMAINTVER
 90
      251
  9
$DWGCODEPAGE
  3
ANSI_1252
  9
$REQUIREDVERSIONS
160
                 0
  9
$INSBASE
 10
0.0
 20
0.0
 30
0.0
  9
$EXTMIN
 10
1.000000000000000E+20
 20
1.000000000000000E+20
 30
1.000000000000000E+20
  9
$EXTMAX
 10
-1.000000000000000E+20
 20
-1.000000000000000E+20
 30
-1.000000000000000E+20
  9
$LIMMIN
 10
0.0
 20
0.0
  9
$LIMMAX
 10
12.0
 20
9.0
  9
$ORTHOMODE
 70
     0
  9
$REGENMODE
 70
     1
  9
$FILLMODE
 70
     1
  9
$QTEXTMODE
 70
     0
  9
$MIRRTEXT
 70
     0
  9
$LTSCALE
 40
1.0
  9
$ATTMODE
 70
     1
  9
$TEXTSIZE
 40
0.2
  9
$TRACEWID
 40
0.05
  9
$TEXTSTYLE
  7
Standard
  9
$CLAYER
  8
0
  9
$CELTYPE
  6
ByLayer
  9
$CECOLOR
 62
   256
  9
$CELTSCALE
 40
1.0
  9
$DISPSILH
 70
     0
  9
$DIMSCALE
 40
1.0
  9
$DIMASZ
 40
0.18
  9
$DIMEXO
 40
0.0625
  9
$DIMDLI
 40
0.38
  9
$DIMRND
 40
0.0
  9
$DIMDLE
 40
0.0
  9
$DIMEXE
 40
0.18
  9
$DIMTP
 40
0.0
  9
$DIMTM
 40
0.0
  9
$DIMTXT
 40
0.18
  9
$DIMCEN
 40
0.09
  9
$DIMTSZ
 40
0.0
  9
$DIMTOL
 70
     0
  9
$DIMLIM
 70
     0
  9
$DIMTIH
 70
     1
  9
$DIMTOH
 70
     1
  9
$DIMSE1
 70
     0
  9
$DIMSE2
 70
     0
  9
$DIMTAD
 70
     0
  9
$DIMZIN
 70
     0
  9
$DIMBLK
  1

  9
$DIMASO
 70
     1
  9
$DIMSHO
 70
     1
  9
$DIMPOST
  1

  9
$DIMAPOST
  1

  9
$DIMALT
 70
     0
  9
$DIMALTD
 70
     2
  9
$DIMALTF
 40
25.4
  9
$DIMLFAC
 40
1.0
  9
$DIMTOFL
 70
     0
  9
$DIMTVP
 40
0.0
  9
$DIMTIX
 70
     0
  9
$DIMSOXD
 70
     0
  9
$DIMSAH
 70
     0
  9
$DIMBLK1
  1

  9
$DIMBLK2
  1

  9
$DIMSTYLE
  2
Standard
  9
$DIMCLRD
 70
     0
  9
$DIMCLRE
 70
     0
  9
$DIMCLRT
 70
     0
  9
$DIMTFAC
 40
1.0
  9
$DIMGAP
 40
0.09
  9
$DIMJUST
 70
     0
  9
$DIMSD1
 70
     0
  9
$DIMSD2
 70
     0
  9
$DIMTOLJ
 70
     1
  9
$DIMTZIN
 70
     0
  9
$DIMALTZ
 70
     0
  9
$DIMALTTZ
 70
     0
  9
$DIMUPT
 70
     0
  9
$DIMDEC
 70
     4
  9
$DIMTDEC
 70
     4
  9
$DIMALTU
 70
     2
  9
$DIMALTTD
 70
     2
  9
$DIMTXSTY
  7
Standard
  9
$DIMAUNIT
 70
     0
  9
$DIMADEC
 70
     0
  9
$DIMALTRND
 40
0.0
  9
$DIMAZIN
 70
     0
  9
$DIMDSEP
 70
    46
  9
$DIMATFIT
 70
     3
  9
$DIMFRAC
 70
     0
  9
$DIMLDRBLK
  1

  9
$DIMLUNIT
 70
     2
  9
$DIMLWD
 70
    -2
  9
$DIMLWE
 70
    -2
  9
$DIMTMOVE
 70
     0
  9
$DIMFXL
 40
1.0
  9
$DIMFXLON
 70
     0
  9
$DIMJOGANG
 40
0.7853981633974483
  9
$DIMTFILL
 70
     0
  9
$DIMTFILLCLR
 70
     0
  9
$DIMARCSYM
 70
     0
  9
$DIMLTYPE
  6

  9
$DIMLTEX1
  6

  9
$DIMLTEX2
  6

  9
$DIMTXTDIRECTION
 70
     0
  9
$LUNITS
 70
     2
  9
$LUPREC
 70
     4
  9
$SKETCHINC
 40
0.1
  9
$FILLETRAD
 40
0.0
  9
$AUNITS
 70
     0
  9
$AUPREC
 70
     0
  9
$MENU
  1
.
  9
$ELEVATION
 40
0.0
  9
$PELEVATION
 40
0.0
  9
$THICKNESS
 40
0.0
  9
$LIMCHECK
 70
     0
  9
$CHAMFERA
 40
0.0
  9
$CHAMFERB
 40
0.0
  9
$CHAMFERC
 40
0.0
  9
$CHAMFERD
 40
0.0
  9
$SKPOLY
 70
     0
  9
$TDCREATE
 40
2460473.567129630
  9
$TDUCREATE
 40
2460473.483796296
  9
$TDUPDATE
 40
2460473.567129630
  9
$TDUUPDATE
 40
2460473.483796296
  9
$TDINDWG
 40
0.0000000000
  9
$TDUSRTIMER
 40
0.0000000000
  9
$USRTIMER
 70
     1
  9
$ANGBASE
 50
0.0
  9
$ANGDIR
 70
     0
  9
$PDMODE
 70
     0
  9
$PDSIZE
 40
0.0
  9
$PLINEWID
 40
0.0
  9
$SPLFRAME
 70
     0
  9
$SPLINETYPE
 70
     6
  9
$SPLINESEGS
 70
     8
  9
$HANDSEED
  5
BF
  9
$SURFTAB1
 70
     6
  9
$SURFTAB2
 70
     6
  9
$SURFTYPE
 70
     6
  9
$SURFU
 70
     6
  9
$SURFV
 70
     6
  9
$UCSBASE
  2

  9
$UCSNAME
  2

  9
$UCSORG
 10
0.0
 20
0.0
 30
0.0
  9
$UCSXDIR
 10
1.0
 20
0.0
 30
0.0
  9
$UCSYDIR
 10
0.0
 20
1.0
 30
0.0
  9
$UCSORTHOREF
  2

  9
$UCSORTHOVIEW
 70
     0
  9
$UCSORGTOP
 10
0.0
 20
0.0
 30
0.0
  9
$UCSORGBOTTOM
 10
0.0
 20
0.0
 30
0.0
  9
$UCSORGLEFT
 10
0.0
 20
0.0
 30
0.0
  9
$UCSORGRIGHT
 10
0.0
 20
0.0
 30
0.0
  9
$UCSORGFRONT
 10
0.0
 20
0.0
 30
0.0
  9
$UCSORGBACK
 10
0.0
 20
0.0
 30
0.0
  9
$PUCSBASE
  2

  9
$PUCSNAME
  2

  9
$PUCSORG
 10
0.0
 20
0.0
 30
0.0
  9
$PUCSXDIR
 10
1.0
 20
0.0
 30
0.0
  9
$PUCSYDIR
 10
0.0
 20
1.0
 30
0.0
  9
$PUCSORTHOREF
  2

  9
$PUCSORTHOVIEW
 70
     0
  9
$PUCSORGTOP
 10
0.0
 20
0.0
 30
0.0
  9
$PUCSORGBOTTOM
 10
0.0
 20
0.0
 30
0.0
  9
$PUCSORGLEFT
 10
0.0
 20
0.0
 30
0.0
  9
$PUCSORGRIGHT
 10
0.0
 20
0.0
 30
0.0
  9
$PUCSORGFRONT
 10
0.0
 20
0.0
 30
0.0
  9
$PUCSORGBACK
 10
0.0
 20
0.0
 30
0.0
  9
$USERI1
 70
     0
  9
$USERI2
 70
     0
  9
$USERI3
 70
     0
  9
$USERI4
 70
     0
  9
$USERI5
 70
     0
  9
$USERR1
 40
0.0
  9
$USERR2
 40
0.0
  9
$USERR3
 40
0.0
  9
$USERR4
 40
0.0
  9
$USERR5
 40
0.0
  9
$WORLDVIEW
 70
     1
  9
$SHADEDGE
 70
     3
  9
$SHADEDIF
 70
    70
  9
$TILEMODE
 70
     1
  9
$MAXACTVP
 70
    64
  9
$PINSBASE
 10
0.0
 20
0.0
 30
0.0
  9
$PLIMCHECK
 70
     0
  9
$PEXTMIN
 10
1.000000000000000E+20
 20
1.000000000000000E+20
 30
1.000000000000000E+20
  9
$PEXTMAX
 10
-1.000000000000000E+20
 20
-1.000000000000000E+20
 30
-1.000000000000000E+20
  9
$PLIMMIN
 10
0.0
 20
0.0
  9
$PLIMMAX
 10
12.0
 20
9.0
  9
$UNITMODE
 70
     0
  9
$VISRETAIN
 70
     1
  9
$PLINEGEN
 70
     0
  9
$PSLTSCALE
 70
     1
  9
$TREEDEPTH
 70
  3020
  9
$CMLSTYLE
  2
Standard
  9
$CMLJUST
 70
     0
  9
$CMLSCALE
 40
1.0
  9
$PROXYGRAPHICS
 70
     1
  9
$MEASUREMENT
 70
     0
  9
$CELWEIGHT
370
    -1
  9
$ENDCAPS
280
     0
  9
$JOINSTYLE
280
     0
  9
$LWDISPLAY
290
     1
  9
$INSUNITS
 70
     4
  9
$HYPERLINKBASE
  1

  9
$STYLESHEET
  1

  9
$XEDIT
290
     1
  9
$CEPSNTYPE
380
     0
  9
$PSTYLEMODE
290
     1
  9
$FINGERPRINTGUID
  2
{62D0158E-ABD0-5A4E-9B00-BDB985973F28}
  9
$VERSIONGUID
  2
{F112FE18-214C-E64F-99D5-9F0487E33ACF}
  9
$EXTNAMES
290
     1
  9
$PSVPSCALE
 40
0.0
  9
$OLESTARTUP
290
     0
  9
$SORTENTS
280
   127
  9
$INDEXCTL
280
     0
  9
$HIDETEXT
280
     1
  9
$XCLIPFRAME
280
     2
  9
$HALOGAP
280
     0
  9
$OBSCOLOR
 70
   257
  9
$OBSLTYPE
280
     0
  9
$INTERSECTIONDISPLAY
280
     0
  9
$INTERSECTIONCOLOR
 70
   257
  9
$DIMASSOC
280
     2
  9
$PROJECTNAME
  1

  9
$CAMERADISPLAY
290
     0
  9
$LENSLENGTH
 40
50.0
  9
$CAMERAHEIGHT
 40
0.0
  9
$STEPSPERSEC
 40
2.0
  9
$STEPSIZE
 40
6.0
  9
$3DDWFPREC
 40
2.0
  9
$PSOLWIDTH
 40
0.25
  9
$PSOLHEIGHT
 40
4.0
  9
$LOFTANG1
 40
1.570796326794896
  9
$LOFTANG2
 40
1.570796326794896
  9
$LOFTMAG1
 40
0.0
  9
$LOFTMAG2
 40
0.0
  9
$LOFTPARAM
 70
     7
  9
$LOFTNORMALS
280
     1
  9
$LATITUDE
 40
37.795
  9
$LONGITUDE
 40
-122.394
  9
$NORTHDIRECTION
 40
0.0
  9
$TIMEZONE
 70
 -8000
  9
$LIGHTGLYPHDISPLAY
280
     1
  9
$TILEMODELIGHTSYNCH
280
     1
  9
$CMATERIAL
347
11
  9
$SOLIDHIST
280
     0
  9
$SHOWHIST
280
     1
  9
$DWFFRAME
280
     2
  9
$DGNFRAME
280
     0
  9
$REALWORLDSCALE
290
     1
  9
$INTERFERECOLOR
 62
     1
  9
$INTERFEREOBJVS
345
33
  9
$INTERFEREVPVS
346
30
  9
$CSHADOW
280
     0
  9
$SHADOWPLANELOCATION
 40
0.0
  0
ENDSEC
  0
SECTION
  2
CLASSES
  0
CLASS
  1
ACDBDICTIONARYWDFLT
  2
AcDbDictionaryWithDefault
  3
ObjectDBX Classes
 90
        0
 91
        1
280
     0
281
     0
  0
CLASS
  1
MATERIAL
  2
AcDbMaterial
  3
ObjectDBX Classes
 90
     1153
 91
        3
280
     0
281
     0
  0
CLASS
  1
VISUALSTYLE
  2
AcDbVisualStyle
  3
ObjectDBX Classes
 90
     4095
 91
       24
280
     0
281
     0
  0
CLASS
  1
SCALE
  2
AcDbScale
  3
ObjectDBX Classes
 90
     1153
 91
       17
280
     0
281
     0
  0
CLASS
  1
TABLESTYLE
  2
AcDbTableStyle
  3
ObjectDBX Classes
 90
     4095
 91
        1
280
     0
281
     0
  0
CLASS
  1
MLEADERSTYLE
  2
AcDbMLeaderStyle
  3
ACDB_MLEADERSTYLE_CLASS
 90
     4095
 91
        1
280
     0
281
     0
  0
CLASS
  1
ACDBSECTIONVIEWSTYLE
  2
AcDbSectionViewStyle
  3
ObjectDBX Classes
 90
     1025
 91
        1
280
     0
281
     0
  0
CLASS
  1
ACDBDETAILVIEWSTYLE
  2
AcDbDetailViewStyle
  3
ObjectDBX Classes
 90
     1025
 91
        1
280
     0
281
     0
  0
CLASS
  1
DICTIONARYVAR
  2
AcDbDictionaryVar
  3
ObjectDBX Classes
 90
        0
 91
        5
280
     0
281
     0
  0
CLASS
  1
CELLSTYLEMAP
  2
AcDbCellStyleMap
  3
ObjectDBX Classes
 90
     1152
 91
        1
280
     0
281
     0
  0
ENDSEC
  0
SECTION
  2
TABLES
  0
TABLE
  2
VPORT
  5
8
330
0
100
AcDbSymbolTable
 70
     1
  0
VPORT
  5
57
330
8
100
AcDbSymbolTableRecord
100
AcDbViewportTableRecord
  2
*Active
 70
     0
 10
0.0
 20
0.0
 11
1.0
 21
1.0
 12
0.0
 22
0.0
 13
0.0
 23
0.0
 14
1.0
 24
1.0
 15
0.0
 25
0.0
 16
0.0
 26
0.0
 36
1.0
 17
104.9999970067632
 27
-148.5000119155931
 37
0.0
 40
302.9400243078099
 41
0.7070706301791066
 42
50.0
 43
0.0
 44
0.0
 50
0.0
 51
0.0
 71
     0
 72
   100
 73
     1
 74
     1
 75
     0
 76
     0
 77
     0
 78
     0
281
     0
 65
     1
110
0.0
120
0.0
130
0.0
111
1.0
121
0.0
131
0.0
112
0.0
122
1.0
132
0.0
 79
     0
146
0.0
 60
     3
 61
     5
292
     1
282
     1
141
0.0
142
0.0
 63
   250
421
  3355443
  0
ENDTAB
  0
TABLE
  2
LTYPE
  5
5
330
0
100
AcDbSymbolTable
 70
     1
  0
LTYPE
  5
5B
330
5
100
AcDbSymbolTableRecord
100
AcDbLinetypeTableRecord
  2
ByBlock
 70
     0
  3

 72
    65
 73
     0
 40
0.0
  0
LTYPE
  5
5C
330
5
100
AcDbSymbolTableRecord
100
AcDbLinetypeTableRecord
  2
ByLayer
 70
     0
  3

 72
    65
 73
     0
 40
0.0
  0
LTYPE
  5
5D
330
5
100
AcDbSymbolTableRecord
100
AcDbLinetypeTableRecord
  2
Continuous
 70
     0
  3
Solid line
 72
    65
 73
     0
 40
0.0
  0
ENDTAB
  0
TABLE
  2
LAYER
  5
2
330
0
100
AcDbSymbolTable
 70
     3
  0
LAYER
  5
54
330
2
100
AcDbSymbolTableRecord
100
AcDbLayerTableRecord
  2
0
 70
     0
 62
     7
  6
Continuous
370
    -3
390
F
347
21
348
0
  0
LAYER
  5
78
330
2
100
AcDbSymbolTableRecord
100
AcDbLayerTableRecord
  2
Capa 1
 70
     0
 62
     7
  6
Continuous
370
     0
390
F
347
21
348
0
  0
LAYER
  5
79
330
2
100
AcDbSymbolTableRecord
100
AcDbLayerTableRecord
  2
Capa 2
 70
     0
 62
     7
  6
Continuous
370
     0
390
F
347
21
348
0
  0
ENDTAB
  0
TABLE
  2
STYLE
  5
3
330
0
100
AcDbSymbolTable
 70
     2
  0
STYLE
  5
55
330
3
100
AcDbSymbolTableRecord
100
AcDbTextStyleTableRecord
  2
Standard
 70
     0
 40
0.0
 41
1.0
 50
0.0
 71
     0
 42
0.2
  3
txt
  4

  0
STYLE
  5
5A
330
3
100
AcDbSymbolTableRecord
100
AcDbTextStyleTableRecord
  2
Annotative
 70
     0
 40
0.0
 41
1.0
 50
0.0
 71
     0
 42
0.2
  3
txt
  4

1001
AcadAnnotative
1000
AnnotativeData
1002
{
1070
     1
1070
     1
1002
}
  0
ENDTAB
  0
TABLE
  2
VIEW
  5
6
330
0
100
AcDbSymbolTable
 70
     0
  0
ENDTAB
  0
TABLE
  2
UCS
  5
7
330
0
100
AcDbSymbolTable
 70
     0
  0
ENDTAB
  0
TABLE
  2
APPID
  5
9
330
0
100
AcDbSymbolTable
 70
     2
  0
APPID
  5
56
330
9
100
AcDbSymbolTableRecord
100
AcDbRegAppTableRecord
  2
ACAD
 70
     0
  0
APPID
  5
5E
330
9
100
AcDbSymbolTableRecord
100
AcDbRegAppTableRecord
  2
AcadAnnotative
 70
     0
  0
ENDTAB
  0
TABLE
  2
DIMSTYLE
  5
A
330
0
100
AcDbSymbolTable
 70
     2
100
AcDbDimStyleTable
 71
     0
  0
DIMSTYLE
105
58
330
A
100
AcDbSymbolTableRecord
100
AcDbDimStyleTableRecord
  2
Standard
 70
     0
340
55
  0
DIMSTYLE
105
59
330
A
100
AcDbSymbolTableRecord
100
AcDbDimStyleTableRecord
  2
Annotative
 70
     0
340
55
1001
AcadAnnotative
1000
AnnotativeData
1002
{
1070
     1
1070
     1
1002
}
  0
ENDTAB
  0
TABLE
  2
BLOCK_RECORD
  5
1
330
0
100
AcDbSymbolTable
 70
     1
  0
BLOCK_RECORD
  5
70
330
1
100
AcDbSymbolTableRecord
100
AcDbBlockTableRecord
  2
*Model_Space
340
73
 70
     0
280
     1
281
     0
  0
BLOCK_RECORD
  5
6C
330
1
100
AcDbSymbolTableRecord
100
AcDbBlockTableRecord
  2
*Paper_Space
340
6F
 70
     0
280
     1
281
     0
  0
BLOCK_RECORD
  5
74
330
1
100
AcDbSymbolTableRecord
100
AcDbBlockTableRecord
  2
*Paper_Space0
340
77
 70
     0
280
     1
281
     0
  0
ENDTAB
  0
ENDSEC
  0
SECTION
  2
BLOCKS
  0
BLOCK
  5
71
330
70
100
AcDbEntity
  8
0
100
AcDbBlockBegin
  2
*Model_Space
 70
     0
 10
0.0
 20
0.0
 30
0.0
  3
*Model_Space
  1

  0
ENDBLK
  5
72
330
70
100
AcDbEntity
  8
0
100
AcDbBlockEnd
  0
BLOCK
  5
6D
330
6C
100
AcDbEntity
 67
     1
  8
0
100
AcDbBlockBegin
  2
*Paper_Space
 70
     0
 10
0.0
 20
0.0
 30
0.0
  3
*Paper_Space
  1

  0
ENDBLK
  5
6E
330
6C
100
AcDbEntity
 67
     1
  8
0
100
AcDbBlockEnd
  0
BLOCK
  5
75
330
74
100
AcDbEntity
 67
     1
  8
0
100
AcDbBlockBegin
  2
*Paper_Space0
 70
     0
 10
0.0
 20
0.0
 30
0.0
  3
*Paper_Space0
  1

  0
ENDBLK
  5
76
330
74
100
AcDbEntity
 67
     1
  8
0
100
AcDbBlockEnd
  0
ENDSEC
  0
SECTION
  2
ENTITIES
  0
LWPOLYLINE
  5
7A
330
70
100
AcDbEntity
  8
Capa 2
 62
   250
420
  4078912
370
     9
100
AcDbPolyline
 90
        4
 70
     1
 43
0.0
 10
139.2002454893879
 20
-147.2144099144482
 10
99.17473671658166
 20
-147.2144099144482
 10
99.17473671658166
 20
-125.0982122406692
 10
139.2002454893879
 20
-125.0982122406692
  0
LWPOLYLINE
  5
7B
330
70
100
AcDbEntity
  8
Capa 2
 62
   250
420
  4078912
370
     9
100
AcDbPolyline
 90
        4
 70
     1
 43
0.0
 10
139.1603040772455
 20
-169.6254918797053
 10
99.13479530443986
 20
-169.6254918797053
 10
99.13479530443986
 20
-147.5092942059247
 10
139.1603040772455
 20
-147.5092942059247
  0
LWPOLYLINE
  5
7C
330
70
100
AcDbEntity
  8
Capa 2
 62
   250
420
  4078912
370
     9
100
AcDbPolyline
 90
        4
 70
     1
 43
0.0
 10
94.97591959432249
 20
-192.3978559603214
 10
50.6181695768738
 20
-192.3978559603214
 10
50.6181695768738
 20
-125.3887142903751
 10
94.97591959432249
 20
-125.3887142903751
  0
LWPOLYLINE
  5
7D
330
70
100
AcDbEntity
  8
Capa 2
 62
   250
420
  4078912
370
     9
100
AcDbPolyline
 90
        4
 70
     1
 43
0.0
 10
159.7152710054328
 20
-147.2144099144482
 10
139.7025166190314
 20
-147.2144099144482
 10
139.7025166190314
 20
-125.0982122406692
 10
159.7152710054328
 20
-125.0982122406692
  0
LWPOLYLINE
  5
7E
330
70
100
AcDbEntity
  8
Capa 2
 62
   250
420
  4078912
370
     9
100
AcDbPolyline
 90
        4
 70
     1
 43
0.0
 10
159.6953002993622
 20
-169.6254918797053
 10
139.6825459129577
 20
-169.6254918797053
 10
139.6825459129577
 20
-147.5092942059247
 10
159.6953002993622
 20
-147.5092942059247
  0
LWPOLYLINE
  5
7F
330
70
100
AcDbEntity
  8
Capa 2
 62
   250
420
  4078912
370
     9
100
AcDbPolyline
 90
        4
 70
     1
 43
0.0
 10
139.1603040772455
 20
-192.2314193512016
 10
99.13479530443986
 20
-192.2314193512016
 10
99.13479530443986
 20
-170.1152216774216
 10
139.1603040772455
 20
-170.1152216774216
  0
LWPOLYLINE
  5
80
330
70
100
AcDbEntity
  8
Capa 2
 62
   250
420
  4078912
370
     9
100
AcDbPolyline
 90
        4
 70
     1
 43
0.0
 10
159.6953002993622
 20
-192.2314193512016
 10
139.6825459129577
 20
-192.2314193512016
 10
139.6825459129577
 20
-170.1152216774216
 10
159.6953002993622
 20
-170.1152216774216
  0
LINE
  5
81
330
70
100
AcDbEntity
  8
Capa 2
 62
   250
420
  4078912
370
     9
100
AcDbLine
 10
161.2039489528929
 20
-192.0921199985252
 30
0.0
 11
161.2039489528929
 21
-125.2295176180404
 31
0.0
  0
LINE
  5
82
330
70
100
AcDbEntity
  8
Capa 2
 62
   250
420
  4078912
370
     9
100
AcDbLine
 10
99.11724674244299
 20
-123.3191575500272
 30
0.0
 11
159.6119822295466
 21
-123.3191575500272
 31
0.0
  0
LINE
  5
83
330
70
100
AcDbEntity
  8
Capa 2
 62
   250
420
  4078912
370
     9
100
AcDbLine
 10
50.72145835275971
 20
-123.3191575500272
 30
0.0
 11
94.34134657240912
 21
-123.3191575500272
 31
0.0
  0
MTEXT
  5
84
330
70
100
AcDbEntity
  8
Capa 2
100
AcDbMText
 10
118.5385009469279
 20
-122.1386257290139
 30
0.0
 40
0.2
 41
0.0
 46
0.0
 71
     7
 72
     1
  1
\C251;\c5920856;\FArial Bold|b1|i0|c1;\H2.747433;\W1.000000;795 / 995 
 73
     1
 44
1.0
  0
MTEXT
  5
85
330
70
100
AcDbEntity
  8
Capa 2
100
AcDbMText
 10
67.71576332942522
 20
-122.1386257290139
 30
0.0
 40
0.2
 41
0.0
 46
0.0
 71
     7
 72
     1
  1
\C251;\c5920856;\FArial Bold|b1|i0|c1;\H2.747433;\W1.000000;450
 73
     1
 44
1.0
  0
MTEXT
  5
86
330
70
100
AcDbEntity
  8
Capa 2
100
AcDbMText
 10
162.9151204019795
 20
-150.4762586429365
 30
0.0
 40
0.2
 41
0.0
 46
0.0
 71
     7
 72
     1
  1
\C251;\c5920856;\FArial Bold|b1|i0|c1;\H2.747433;\W1.000000;740
 73
     1
 44
1.0
  0
LINE
  5
87
330
70
100
AcDbEntity
  8
Capa 2
 62
   250
420
  4078912
370
     9
100
AcDbLine
 10
161.8180197955271
 20
-113.2808547611475
 30
0.0
 11
161.8180197955271
 21
-80.44519205732822
 31
0.0
  0
MTEXT
  5
88
330
70
100
AcDbEntity
  8
Capa 2
100
AcDbMText
 10
164.5732448590303
 20
-98.43137340204147
 30
0.0
 40
0.2
 41
0.0
 46
0.0
 71
     7
 72
     1
  1
\C251;\c5920856;\FArial Bold|b1|i0|c1;\H2.747433;\W0.955998;460
 73
     1
 44
1.0
  0
LINE
  5
89
330
70
100
AcDbEntity
  8
Capa 2
 62
   178
420
      519
370
     9
100
AcDbLine
 10
159.093081395132
 20
-112.0339657781188
 30
0.0
 11
99.78798690299655
 21
-112.0339657781188
 31
0.0
  0
LINE
  5
8A
330
70
100
AcDbEntity
  8
Capa 2
 62
   178
420
      519
370
     9
100
AcDbLine
 10
99.78751138377397
 20
-112.0339657781188
 30
0.0
 11
99.78751138377397
 21
-81.43313262093442
 31
0.0
  0
LINE
  5
8B
330
70
100
AcDbEntity
  8
Capa 2
 62
   178
420
      519
370
     9
100
AcDbLine
 10
159.093081395132
 20
-81.43290447561414
 30
0.0
 11
159.093081395132
 21
-112.0337392470345
 31
0.0
  0
SPLINE
  5
8C
330
70
100
AcDbEntity
  8
Capa 2
 62
   178
420
      519
370
     9
100
AcDbSpline
210
0.0
220
0.0
230
1.0
 70
     8
 71
     3
 72
    14
 73
    10
 74
     0
 42
0.0000000001
 43
0.0000000001
 40
0.0
 40
0.0
 40
0.0
 40
0.0
 40
1.0
 40
1.0
 40
1.0
 40
2.0
 40
2.0
 40
2.0
 40
3.0
 40
3.0
 40
3.0
 40
3.0
 10
129.440415696372
 20
-84.8988860269141
 30
0.0
 10
129.9073835452926
 20
-84.8988860269141
 30
0.0
 10
130.3385217326825
 20
-84.66304403068798
 30
0.0
 10
130.5726070323507
 20
-84.28050674592425
 30
0.0
 10
130.805494137477
 20
-83.89909512155957
 30
0.0
 10
130.805494137477
 20
-83.42741112910674
 30
0.0
 10
130.5726070323507
 20
-83.04487169202827
 30
0.0
 10
130.3385217326825
 20
-82.66346221997929
 30
0.0
 10
129.9073835452926
 20
-82.42874803646731
 30
0.0
 10
129.440415696372
 20
-82.42874803646731
 30
0.0
  0
SPLINE
  5
8D
330
70
100
AcDbEntity
  8
Capa 2
 62
   178
420
      519
370
     9
100
AcDbSpline
210
0.0
220
0.0
230
1.0
 70
     8
 71
     3
 72
    17
 73
    13
 74
     0
 42
0.0000000001
 43
0.0000000001
 40
0.0
 40
0.0
 40
0.0
 40
0.0
 40
1.0
 40
1.0
 40
1.0
 40
2.0
 40
2.0
 40
2.0
 40
3.0
 40
3.0
 40
3.0
 40
4.0
 40
4.0
 40
4.0
 40
4.0
 10
129.440415696372
 20
-82.42795813710435
 30
0.0
 10
129.0940691353583
 20
-82.42795813710435
 30
0.0
 10
128.7620553501325
 20
-82.55772977797837
 30
0.0
 10
128.5160313858255
 20
-82.79018618374676
 30
0.0
 10
128.2700051435819
 20
-83.02151477680039
 30
0.0
 10
128.1326615246084
 20
-83.33634670934054
 30
0.0
 10
128.1326615246084
 20
-83.66359319099904
 30
0.0
 10
128.1326615246084
 20
-83.99083752034346
 30
0.0
 10
128.2700051435819
 20
-84.30567160519769
 30
0.0
 10
128.5160313858255
 20
-84.53700019825197
 30
0.0
 10
128.7620553501325
 20
-84.76832879130466
 30
0.0
 10
129.0940691353583
 20
-84.89809827986523
 30
0.0
 10
129.440415696372
 20
-84.89809827986523
 30
0.0
  0
SPLINE
  5
8E
330
70
100
AcDbEntity
  8
Capa 2
 62
   178
420
      519
370
     9
100
AcDbSpline
210
0.0
220
0.0
230
1.0
 70
     8
 71
     3
 72
    89
 73
    85
 74
     0
 42
0.0000000001
 43
0.0000000001
 40
0.0
 40
0.0
 40
0.0
 40
0.0
 40
1.0
 40
1.0
 40
1.0
 40
2.0
 40
2.0
 40
2.0
 40
3.0
 40
3.0
 40
3.0
 40
4.0
 40
4.0
 40
4.0
 40
5.0
 40
5.0
 40
5.0
 40
6.0
 40
6.0
 40
6.0
 40
7.0
 40
7.0
 40
7.0
 40
8.0
 40
8.0
 40
8.0
 40
9.0
 40
9.0
 40
9.0
 40
10.0
 40
10.0
 40
10.0
 40
11.0
 40
11.0
 40
11.0
 40
12.0
 40
12.0
 40
12.0
 40
13.0
 40
13.0
 40
13.0
 40
14.0
 40
14.0
 40
14.0
 40
15.0
 40
15.0
 40
15.0
 40
16.0
 40
16.0
 40
16.0
 40
17.0
 40
17.0
 40
17.0
 40
18.0
 40
18.0
 40
18.0
 40
19.0
 40
19.0
 40
19.0
 40
20.0
 40
20.0
 40
20.0
 40
21.0
 40
21.0
 40
21.0
 40
22.0
 40
22.0
 40
22.0
 40
23.0
 40
23.0
 40
23.0
 40
24.0
 40
24.0
 40
24.0
 40
25.0
 40
25.0
 40
25.0
 40
26.0
 40
26.0
 40
26.0
 40
27.0
 40
27.0
 40
27.0
 40
28.0
 40
28.0
 40
28.0
 40
28.0
 10
129.440415696372
 20
-87.76747551436324
 30
0.0
 10
128.2568682843993
 20
-87.76747551436324
 30
0.0
 10
127.0721272337591
 20
-87.77199106985012
 30
0.0
 10
125.8885820997236
 20
-87.77989006348157
 30
0.0
 10
124.7050369656901
 20
-87.78778905711273
 30
0.0
 10
123.520295915048
 20
-87.7979436761734
 30
0.0
 10
122.3367507810138
 20
-87.80697263483402
 30
0.0
 10
121.1532033690436
 20
-87.81712725389404
 30
0.0
 10
119.9696582350088
 20
-87.82615406024026
 30
0.0
 10
118.784917184368
 20
-87.83631083161598
 30
0.0
 10
118.1937425756539
 20
-87.84082423478812
 30
0.0
 10
117.6013720503325
 20
-87.8453376379622
 30
0.0
 10
117.0090015250124
 20
-87.8498531934494
 30
0.0
 10
116.8621042408049
 20
-87.85098100616416
 30
0.0
 10
116.7140110399907
 20
-87.85210881887859
 30
0.0
 10
116.5659178391752
 20
-87.85323663159303
 30
0.0
 10
116.4178246383617
 20
-87.8543665966225
 30
0.0
 10
116.2697337154829
 20
-87.8543665966225
 30
0.0
 10
116.1216405146693
 20
-87.8588799997953
 30
0.0
 10
115.9747432304618
 20
-87.86339340296875
 30
0.0
 10
115.8254563909782
 20
-87.87242020931463
 30
0.0
 10
115.6785568288334
 20
-87.8848326061186
 30
0.0
 10
115.530463628018
 20
-87.89724715523725
 30
0.0
 10
115.3823727051417
 20
-87.91530076792874
 30
0.0
 10
115.2366690596029
 20
-87.93674212339364
 30
0.0
 10
114.9440658519219
 20
-87.97849271698018
 30
0.0
 10
114.6562417547935
 20
-88.03830122788669
 30
0.0
 10
114.3755817676238
 20
-88.11164779599943
 30
0.0
 10
114.0949217804535
 20
-88.18499651642495
 30
0.0
 10
113.8178449872292
 20
-88.27414322411344
 30
0.0
 10
113.5467409432301
 20
-88.37908791906485
 30
0.0
 10
113.2744409826238
 20
-88.48290264898741
 30
0.0
 10
113.0093074099115
 20
-88.60138755345849
 30
0.0
 10
112.7477570311465
 20
-88.73567259750595
 30
0.0
 10
112.6820727352397
 20
-88.76839638474626
 30
0.0
 10
112.6175798000669
 20
-88.80337794972986
 30
0.0
 10
112.5542827815009
 20
-88.83835951471409
 30
0.0
 10
112.4897898463288
 20
-88.87334107969799
 30
0.0
 10
112.426492827762
 20
-88.90832264468127
 30
0.0
 10
112.363195809196
 20
-88.94555983509404
 30
0.0
 10
112.2377931327965
 20
-89.01890855552055
 30
0.0
 10
112.1147822896116
 20
-89.09451290137623
 30
0.0
 10
111.9941587237662
 20
-89.17350283768964
 30
0.0
 10
111.7517156754699
 20
-89.33035489760266
 30
0.0
 10
111.5200222090136
 20
-89.49962150663372
 30
0.0
 10
111.2966887691233
 20
-89.67904058241197
 30
0.0
 10
111.0733576071683
 20
-89.85846181050431
 30
0.0
 10
110.859578971479
 20
-90.04916762268585
 30
0.0
 10
110.6529655847148
 20
-90.2489002412136
 30
0.0
 10
110.6028054253301
 20
-90.29854982843129
 30
0.0
 10
110.5514504883077
 20
-90.34932938067814
 30
0.0
 10
110.5012903289216
 20
-90.40123889795287
 30
0.0
 10
110.4511301695363
 20
-90.45314626291512
 30
0.0
 10
110.4009688711839
 20
-90.50505362787609
 30
0.0
 10
110.3520034894368
 20
-90.55696099283737
 30
0.0
 10
110.2540704480087
 20
-90.66190568778878
 30
0.0
 10
110.1597228784632
 20
-90.76797819545495
 30
0.0
 10
110.0665666696504
 20
-90.87630848086504
 30
0.0
 10
109.8826460852382
 20
-91.0918390866554
 30
0.0
 10
109.709472804732
 20
-91.31526868607693
 30
0.0
 10
109.5482427447371
 20
-91.54321168867253
 30
0.0
 10
109.2221994307987
 20
-91.99909769386245
 30
0.0
 10
108.939152166287
 20
-92.47981064497626
 30
0.0
 10
108.6955154793214
 20
-92.98083498652482
 30
0.0
 10
108.5736982748059
 20
-93.23247497001419
 30
0.0
 10
108.4602410968551
 20
-93.48863050899108
 30
0.0
 10
108.3587248614789
 20
-93.75042511154077
 30
0.0
 10
108.3324511431149
 20
-93.81587483833516
 30
0.0
 10
108.3073710634222
 20
-93.88132456513019
 30
0.0
 10
108.2834846224015
 20
-93.94790210463902
 30
0.0
 10
108.2584045427088
 20
-94.01334967911964
 30
0.0
 10
108.2357140182928
 20
-94.0799272186291
 30
0.0
 10
108.2118275772708
 20
-94.14537694542381
 30
0.0
 10
108.1652506118321
 20
-94.27853202444179
 30
0.0
 10
108.1222545624047
 20
-94.41055929074597
 30
0.0
 10
108.0816480682553
 20
-94.5437143697649
 30
0.0
 10
107.9192243695891
 20
-95.07633468583966
 30
0.0
 10
107.7997944424143
 20
-95.61572403051675
 30
0.0
 10
107.7185837320508
 20
-96.16188670842429
 30
0.0
 10
107.6779772378988
 20
-96.43383808235036
 30
0.0
 10
107.6481203255894
 20
-96.70804723401905
 30
0.0
 10
107.6290107171834
 20
-96.98451416343132
 30
0.0
 10
107.6075138314374
 20
-97.26097894052921
 30
0.0
 10
107.5979601662046
 20
-97.53857368265659
 30
0.0
 10
107.5979601662046
 20
-97.81729623749775
 30
0.0
  0
SPLINE
  5
8F
330
70
100
AcDbEntity
  8
Capa 2
 62
   178
420
      519
370
     9
100
AcDbSpline
210
0.0
220
0.0
230
1.0
 70
     8
 71
     3
 72
    89
 73
    85
 74
     0
 42
0.0000000001
 43
0.0000000001
 40
0.0
 40
0.0
 40
0.0
 40
0.0
 40
1.0
 40
1.0
 40
1.0
 40
2.0
 40
2.0
 40
2.0
 40
3.0
 40
3.0
 40
3.0
 40
4.0
 40
4.0
 40
4.0
 40
5.0
 40
5.0
 40
5.0
 40
6.0
 40
6.0
 40
6.0
 40
7.0
 40
7.0
 40
7.0
 40
8.0
 40
8.0
 40
8.0
 40
9.0
 40
9.0
 40
9.0
 40
10.0
 40
10.0
 40
10.0
 40
11.0
 40
11.0
 40
11.0
 40
12.0
 40
12.0
 40
12.0
 40
13.0
 40
13.0
 40
13.0
 40
14.0
 40
14.0
 40
14.0
 40
15.0
 40
15.0
 40
15.0
 40
16.0
 40
16.0
 40
16.0
 40
17.0
 40
17.0
 40
17.0
 40
18.0
 40
18.0
 40
18.0
 40
19.0
 40
19.0
 40
19.0
 40
20.0
 40
20.0
 40
20.0
 40
21.0
 40
21.0
 40
21.0
 40
22.0
 40
22.0
 40
22.0
 40
23.0
 40
23.0
 40
23.0
 40
24.0
 40
24.0
 40
24.0
 40
25.0
 40
25.0
 40
25.0
 40
26.0
 40
26.0
 40
26.0
 40
27.0
 40
27.0
 40
27.0
 40
28.0
 40
28.0
 40
28.0
 40
28.0
 10
107.5972437552087
 20
-97.81774607119482
 30
0.0
 10
107.5972437552087
 20
-98.09759751490826
 30
0.0
 10
107.6079921980811
 20
-98.37406336816368
 30
0.0
 10
107.6282943061881
 20
-98.65165811029072
 30
0.0
 10
107.6485975532648
 20
-98.92699615083106
 30
0.0
 10
107.6796492432118
 20
-99.20120530249944
 30
0.0
 10
107.7190609597229
 20
-99.47428556529649
 30
0.0
 10
107.799079170386
 20
-100.0193182781761
 30
0.0
 10
107.9185079585931
 20
-100.559837587882
 30
0.0
 10
108.0821264348983
 20
-101.0913290150839
 30
0.0
 10
108.1215381514094
 20
-101.2244840941025
 30
0.0
 10
108.1657278395061
 20
-101.3576391731218
 30
0.0
 10
108.2111111662755
 20
-101.4907942521394
 30
0.0
 10
108.2349964683285
 20
-101.5562439789344
 30
0.0
 10
108.2588829093512
 20
-101.6216926295713
 30
0.0
 10
108.2827682114049
 20
-101.6871412802098
 30
0.0
 10
108.3066546524276
 20
-101.7537188197189
 30
0.0
 10
108.3317347321203
 20
-101.8191685465133
 30
0.0
 10
108.3580084504824
 20
-101.8846171971508
 30
0.0
 10
108.4607183245291
 20
-102.1464139520156
 30
0.0
 10
108.5729818638093
 20
-102.4025684148349
 30
0.0
 10
108.6948002072931
 20
-102.654208398324
 30
0.0
 10
108.9396305329294
 20
-103.1552327398729
 30
0.0
 10
109.2226777974411
 20
-103.6359446148291
 30
0.0
 10
109.5475263337412
 20
-104.0918316961766
 30
0.0
 10
109.709951171375
 20
-104.3197746987715
 30
0.0
 10
109.8831233129136
 20
-104.5432042981937
 30
0.0
 10
110.0670450362928
 20
-104.7587349039841
 30
0.0
 10
110.1590053284983
 20
-104.8670651893945
 30
0.0
 10
110.2545488146517
 20
-104.9731376970603
 30
0.0
 10
110.3524807171115
 20
-105.0780813158539
 30
0.0
 10
110.4002524601886
 20
-105.1311175696884
 30
0.0
 10
110.4504137585416
 20
-105.183026010806
 30
0.0
 10
110.5005739179251
 20
-105.2349333757679
 30
0.0
 10
110.5507340773117
 20
-105.2857129280141
 30
0.0
 10
110.6020890143348
 20
-105.3364924802609
 30
0.0
 10
110.6534439513585
 20
-105.3861431436349
 30
0.0
 10
110.8588625604838
 20
-105.5870046510346
 30
0.0
 10
111.0726400572041
 20
-105.7765815743454
 30
0.0
 10
111.2959734970944
 20
-105.9560017262809
 30
0.0
 10
111.519306936986
 20
-106.1365513051655
 30
0.0
 10
111.7521940421129
 20
-106.3046874110902
 30
0.0
 10
111.9934411738032
 20
-106.4626678217961
 30
0.0
 10
112.1152606562541
 20
-106.5416582961886
 30
0.0
 10
112.2382714994396
 20
-106.6172631801224
 30
0.0
 10
112.3636718979011
 20
-106.6906113624698
 30
0.0
 10
112.4257775557344
 20
-106.726721278246
 30
0.0
 10
112.4890745743005
 20
-106.7628311940237
 30
0.0
 10
112.5535652315366
 20
-106.796683870135
 30
0.0
 10
112.6180581667094
 20
-106.8327937859125
 30
0.0
 10
112.6825488239467
 20
-106.8666470001035
 30
0.0
 10
112.7482353977889
 20
-106.899371863501
 30
0.0
 10
113.0085921378851
 20
-107.0336547552337
 30
0.0
 10
113.2749193492662
 20
-107.1532685485761
 30
0.0
 10
113.5460256712031
 20
-107.2559565419418
 30
0.0
 10
113.8171297152022
 20
-107.3609001607347
 30
0.0
 10
114.0942065084252
 20
-107.4500468684232
 30
0.0
 10
114.3748664955955
 20
-107.5245234015654
 30
0.0
 10
114.6567178434999
 20
-107.5978710458341
 30
0.0
 10
114.9445442185643
 20
-107.6565495917111
 30
0.0
 10
115.2359515096399
 20
-107.6983012614548
 30
0.0
 10
115.3828510717841
 20
-107.7208704296345
 30
0.0
 10
115.5309419946617
 20
-107.7377973057688
 30
0.0
 10
115.6778415568052
 20
-107.7502097025733
 30
0.0
 10
115.8259324796834
 20
-107.7637509882492
 30
0.0
 10
115.9740256804969
 20
-107.7727777945951
 30
0.0
 10
116.1221188813117
 20
-107.7772922739264
 30
0.0
 10
116.2690161655199
 20
-107.7806778643848
 30
0.0
 10
116.4183030050041
 20
-107.7818056770979
 30
0.0
 10
116.5663962058183
 20
-107.7829345659705
 30
0.0
 10
116.7132934900245
 20
-107.7829345659705
 30
0.0
 10
116.86138669084
 20
-107.7840623786856
 30
0.0
 10
117.0094798916542
 20
-107.7851912675563
 30
0.0
 10
117.6018504169749
 20
-107.789704670731
 30
0.0
 10
118.193025025689
 20
-107.7942180739031
 30
0.0
 10
118.7853955510091
 20
-107.7998603659482
 30
0.0
 10
119.9689429629805
 20
-107.808888248451
 30
0.0
 10
121.152488097016
 20
-107.8190439436698
 30
0.0
 10
122.3372291476562
 20
-107.8291996388867
 30
0.0
 10
123.5207742816917
 20
-107.8393553341046
 30
0.0
 10
124.7043216936618
 20
-107.848383216608
 30
0.0
 10
125.8878668276966
 20
-107.8551543975247
 30
0.0
 10
127.0726056004027
 20
-107.8630533911559
 30
0.0
 10
128.2561530123723
 20
-107.8675667943296
 30
0.0
 10
129.4396981464084
 20
-107.8675667943296
 30
0.0
  0
SPLINE
  5
90
330
70
100
AcDbEntity
  8
Capa 2
 62
   178
420
      519
370
     9
100
AcDbSpline
210
0.0
220
0.0
230
1.0
 70
     8
 71
     3
 72
    89
 73
    85
 74
     0
 42
0.0000000001
 43
0.0000000001
 40
0.0
 40
0.0
 40
0.0
 40
0.0
 40
1.0
 40
1.0
 40
1.0
 40
2.0
 40
2.0
 40
2.0
 40
3.0
 40
3.0
 40
3.0
 40
4.0
 40
4.0
 40
4.0
 40
5.0
 40
5.0
 40
5.0
 40
6.0
 40
6.0
 40
6.0
 40
7.0
 40
7.0
 40
7.0
 40
8.0
 40
8.0
 40
8.0
 40
9.0
 40
9.0
 40
9.0
 40
10.0
 40
10.0
 40
10.0
 40
11.0
 40
11.0
 40
11.0
 40
12.0
 40
12.0
 40
12.0
 40
13.0
 40
13.0
 40
13.0
 40
14.0
 40
14.0
 40
14.0
 40
15.0
 40
15.0
 40
15.0
 40
16.0
 40
16.0
 40
16.0
 40
17.0
 40
17.0
 40
17.0
 40
18.0
 40
18.0
 40
18.0
 40
19.0
 40
19.0
 40
19.0
 40
20.0
 40
20.0
 40
20.0
 40
21.0
 40
21.0
 40
21.0
 40
22.0
 40
22.0
 40
22.0
 40
23.0
 40
23.0
 40
23.0
 40
24.0
 40
24.0
 40
24.0
 40
25.0
 40
25.0
 40
25.0
 40
26.0
 40
26.0
 40
26.0
 40
27.0
 40
27.0
 40
27.0
 40
28.0
 40
28.0
 40
28.0
 40
28.0
 10
129.440415696372
 20
-107.8680182422617
 30
0.0
 10
130.6239608304061
 20
-107.8680182422617
 30
0.0
 10
131.8087018810482
 20
-107.8635048390899
 30
0.0
 10
132.9922447371458
 20
-107.8556058454571
 30
0.0
 10
134.1757921491166
 20
-107.8477068518266
 30
0.0
 10
135.3605331997581
 20
-107.8375506185303
 30
0.0
 10
136.5440806117295
 20
-107.8285232741053
 30
0.0
 10
137.7276234678271
 20
-107.8183675788878
 30
0.0
 10
138.9111708797985
 20
-107.8093402344641
 30
0.0
 10
140.0959119304387
 20
-107.7991840011662
 30
0.0
 10
140.6870865391541
 20
-107.7946705979934
 30
0.0
 10
141.2794593424114
 20
-107.7901566567424
 30
0.0
 10
141.8718275897936
 20
-107.7856427154903
 30
0.0
 10
142.018727151939
 20
-107.7845143646974
 30
0.0
 10
142.1668203527545
 20
-107.7833860139045
 30
0.0
 10
142.3149089976955
 20
-107.782257663111
 30
0.0
 10
142.463002198509
 20
-107.7811293123181
 30
0.0
 10
142.6110953993231
 20
-107.7811293123181
 30
0.0
 10
142.7591886001373
 20
-107.7766153710653
 30
0.0
 10
142.9060881622821
 20
-107.7721019678928
 30
0.0
 10
143.0553750017651
 20
-107.7630740853894
 30
0.0
 10
143.2022700080379
 20
-107.7506616885851
 30
0.0
 10
143.3503632088527
 20
-107.7382487537027
 30
0.0
 10
143.498456409665
 20
-107.7201940648528
 30
0.0
 10
143.6441623331397
 20
-107.6987537855451
 30
0.0
 10
143.9367632628842
 20
-107.6570015777222
 30
0.0
 10
144.2245896379504
 20
-107.597194681052
 30
0.0
 10
144.5052496251195
 20
-107.5238464987046
 30
0.0
 10
144.7859050564172
 20
-107.4504983163572
 30
0.0
 10
145.0629841275782
 20
-107.3613521467465
 30
0.0
 10
145.3340858936393
 20
-107.2564079898745
 30
0.0
 10
145.6063858542463
 20
-107.1525921837944
 30
0.0
 10
145.8715194269586
 20
-107.0341067412449
 30
0.0
 10
146.1330720836608
 20
-106.8998233114328
 30
0.0
 10
146.1987586575042
 20
-106.8670989861146
 30
0.0
 10
146.263251592677
 20
-106.8321174211314
 30
0.0
 10
146.3265463333052
 20
-106.7971358561468
 30
0.0
 10
146.3910392684786
 20
-106.7621542911629
 30
0.0
 10
146.4543385649806
 20
-106.7271732642578
 30
0.0
 10
146.5176333056101
 20
-106.6899349976878
 30
0.0
 10
146.6430337040729
 20
-106.6165868153407
 30
0.0
 10
146.7660468251957
 20
-106.5409819314072
 30
0.0
 10
146.8866726689758
 20
-106.4619914570131
 30
0.0
 10
147.1291134393374
 20
-106.3051393971014
 30
0.0
 10
147.3608069057931
 20
-106.1358744023056
 30
0.0
 10
147.584140345684
 20
-105.956453712292
 30
0.0
 10
147.8074737855769
 20
-105.7770335603572
 30
0.0
 10
148.0212490043606
 20
-105.5863277481751
 30
0.0
 10
148.2278623911242
 20
-105.3865951296466
 30
0.0
 10
148.2780225505083
 20
-105.3369444662721
 30
0.0
 10
148.3293809044369
 20
-105.2861649140259
 30
0.0
 10
148.3795410638204
 20
-105.2342564729067
 30
0.0
 10
148.4297012232051
 20
-105.1823491079461
 30
0.0
 10
148.4798613825918
 20
-105.1304406668276
 30
0.0
 10
148.5288279033052
 20
-105.0785333018663
 30
0.0
 10
148.626760944734
 20
-104.9735886069146
 30
0.0
 10
148.7211085142814
 20
-104.8675160992481
 30
0.0
 10
148.8142624451569
 20
-104.7591868899952
 30
0.0
 10
148.9981830295685
 20
-104.5436562842048
 30
0.0
 10
149.171356310076
 20
-104.3202266847833
 30
0.0
 10
149.3325886480062
 20
-104.0922836821877
 30
0.0
 10
149.6586296840086
 20
-103.6363966008409
 30
0.0
 10
149.9416769485183
 20
-103.1556836497274
 30
0.0
 10
150.1853159134232
 20
-102.6546603843358
 30
0.0
 10
150.3071308400014
 20
-102.4030193246889
 30
0.0
 10
150.4205902958883
 20
-102.1468648618705
 30
0.0
 10
150.5221042533284
 20
-101.8850691831626
 30
0.0
 10
150.5483779716911
 20
-101.8196194563676
 30
0.0
 10
150.5734580513851
 20
-101.7541708057307
 30
0.0
 10
150.5973444924064
 20
-101.6875932662212
 30
0.0
 10
150.6224245720985
 20
-101.6221446155831
 30
0.0
 10
150.6451173744505
 20
-101.5555670760749
 30
0.0
 10
150.6690038154725
 20
-101.4901173492799
 30
0.0
 10
150.7143848643046
 20
-101.3569622702609
 30
0.0
 10
150.7585768303373
 20
-101.2249360801143
 30
0.0
 10
150.7991833244887
 20
-101.0917810010957
 30
0.0
 10
150.9616047452176
 20
-100.5591606850212
 30
0.0
 10
151.0810369503297
 20
-100.0197702641873
 30
0.0
 10
151.1622453827565
 20
-99.47473647515074
 30
0.0
 10
151.2016582382372
 20
-99.20165621235403
 30
0.0
 10
151.2327110671539
 20
-98.927447060685
 30
0.0
 10
151.2518183976233
 20
-98.65098120743056
 30
0.0
 10
151.273317561304
 20
-98.37451535417548
 30
0.0
 10
151.2828712265386
 20
-98.09692061204746
 30
0.0
 10
151.2828712265386
 20
-97.81819805720726
 30
0.0
  0
SPLINE
  5
91
330
70
100
AcDbEntity
  8
Capa 2
 62
   178
420
      519
370
     9
100
AcDbSpline
210
0.0
220
0.0
230
1.0
 70
     8
 71
     3
 72
    89
 73
    85
 74
     0
 42
0.0000000001
 43
0.0000000001
 40
0.0
 40
0.0
 40
0.0
 40
0.0
 40
1.0
 40
1.0
 40
1.0
 40
2.0
 40
2.0
 40
2.0
 40
3.0
 40
3.0
 40
3.0
 40
4.0
 40
4.0
 40
4.0
 40
5.0
 40
5.0
 40
5.0
 40
6.0
 40
6.0
 40
6.0
 40
7.0
 40
7.0
 40
7.0
 40
8.0
 40
8.0
 40
8.0
 40
9.0
 40
9.0
 40
9.0
 40
10.0
 40
10.0
 40
10.0
 40
11.0
 40
11.0
 40
11.0
 40
12.0
 40
12.0
 40
12.0
 40
13.0
 40
13.0
 40
13.0
 40
14.0
 40
14.0
 40
14.0
 40
15.0
 40
15.0
 40
15.0
 40
16.0
 40
16.0
 40
16.0
 40
17.0
 40
17.0
 40
17.0
 40
18.0
 40
18.0
 40
18.0
 40
19.0
 40
19.0
 40
19.0
 40
20.0
 40
20.0
 40
20.0
 40
21.0
 40
21.0
 40
21.0
 40
22.0
 40
22.0
 40
22.0
 40
23.0
 40
23.0
 40
23.0
 40
24.0
 40
24.0
 40
24.0
 40
25.0
 40
25.0
 40
25.0
 40
26.0
 40
26.0
 40
26.0
 40
27.0
 40
27.0
 40
27.0
 40
28.0
 40
28.0
 40
28.0
 40
28.0
 10
151.283468045873
 20
-97.81774607119482
 30
0.0
 10
151.283468045873
 20
-97.53789570363858
 30
0.0
 10
151.2727161860963
 20
-97.2614298503835
 30
0.0
 10
151.2524152169576
 20
-96.98383618441397
 30
0.0
 10
151.2321096919463
 20
-96.70849706771644
 30
0.0
 10
151.2010614189029
 20
-96.43428791604774
 30
0.0
 10
151.1616485634222
 20
-96.16120872940692
 30
0.0
 10
151.0816292137908
 20
-95.61617601652821
 30
0.0
 10
150.9622015645526
 20
-95.07565670682167
 30
0.0
 10
150.7985819492811
 20
-94.54416420346197
 30
0.0
 10
150.7591690938004
 20
-94.41100912444335
 30
0.0
 10
150.714981683639
 20
-94.27785404542506
 30
0.0
 10
150.6695960789356
 20
-94.1446989664058
 30
0.0
 10
150.6457141937849
 20
-94.07924923961143
 30
0.0
 10
150.6218277527641
 20
-94.01380166513112
 30
0.0
 10
150.5979413117408
 20
-93.94835193833641
 30
0.0
 10
150.5740548707194
 20
-93.88177439882694
 30
0.0
 10
150.5489747910254
 20
-93.81632467203255
 30
0.0
 10
150.5227010726634
 20
-93.75087494523784
 30
0.0
 10
150.4199889206806
 20
-93.48908034268847
 30
0.0
 10
150.3077276593358
 20
-93.23292480371092
 30
0.0
 10
150.1859081768843
 20
-92.98128482022255
 30
0.0
 10
149.941080129184
 20
-92.480260478673
 30
0.0
 10
149.6580328646742
 20
-91.99954752755983
 30
0.0
 10
149.3331809114692
 20
-91.54366152236994
 30
0.0
 10
149.1707594907397
 20
-91.31571851977465
 30
0.0
 10
148.9975862102328
 20
-91.09228892035281
 30
0.0
 10
148.8136656258225
 20
-90.87675831456179
 30
0.0
 10
148.7217053336171
 20
-90.76842802915169
 30
0.0
 10
148.6261595695277
 20
-90.66235552148617
 30
0.0
 10
148.5282265280982
 20
-90.55741082653476
 30
0.0
 10
148.4804582019261
 20
-90.50437564885871
 30
0.0
 10
148.4302980425414
 20
-90.45246828389776
 30
0.0
 10
148.3801333272828
 20
-90.40055876662174
 30
0.0
 10
148.3299731678987
 20
-90.34977921437521
 30
0.0
 10
148.2786193698439
 20
-90.29899966212868
 30
0.0
 10
148.2272655717885
 20
-90.24935007491068
 30
0.0
 10
148.0218458236956
 20
-90.04848749135375
 30
0.0
 10
147.8080660490368
 20
-89.85891164420138
 30
0.0
 10
147.5847371650184
 20
-89.67949041610935
 30
0.0
 10
147.3614037251281
 20
-89.50007134033111
 30
0.0
 10
147.1285166200024
 20
-89.33080473129974
 30
0.0
 10
146.8872649324396
 20
-89.17282485867227
 30
0.0
 10
146.76545000586
 20
-89.09383492235855
 30
0.0
 10
146.6424368847379
 20
-89.01823057650286
 30
0.0
 10
146.5170364862757
 20
-88.94488185607732
 30
0.0
 10
146.4549308284437
 20
-88.90877247837865
 30
0.0
 10
146.3916360878148
 20
-88.8726609483659
 30
0.0
 10
146.3271431526408
 20
-88.83880934841084
 30
0.0
 10
146.2626502174681
 20
-88.80269997071248
 30
0.0
 10
146.1981572822967
 20
-88.76884621844366
 30
0.0
 10
146.132470708452
 20
-88.73612027888894
 30
0.0
 10
145.8721162462943
 20
-88.60183738715525
 30
0.0
 10
145.6057890349106
 20
-88.48222466997038
 30
0.0
 10
145.3346827129762
 20
-88.37953560044814
 30
0.0
 10
145.0635809469125
 20
-88.27459305781051
 30
0.0
 10
144.7865018757529
 20
-88.18544635012235
 30
0.0
 10
144.5058418885819
 20
-88.11096981698174
 30
0.0
 10
144.2239882627415
 20
-88.03762109655492
 30
0.0
 10
143.9361664435498
 20
-87.97894255067756
 30
0.0
 10
143.6447591524754
 20
-87.93719195709135
 30
0.0
 10
143.4978595903306
 20
-87.914622788912
 30
0.0
 10
143.3497663895158
 20
-87.89769483661991
 30
0.0
 10
143.2028668273729
 20
-87.88528243981598
 30
0.0
 10
143.0547736265587
 20
-87.87174223029664
 30
0.0
 10
142.9066849816165
 20
-87.8627154239504
 30
0.0
 10
142.758591780803
 20
-87.85819986846354
 30
0.0
 10
142.6116922186588
 20
-87.85481427800485
 30
0.0
 10
142.4624053791733
 20
-87.85368646529041
 30
0.0
 10
142.3143121783598
 20
-87.85255865257598
 30
0.0
 10
142.1674126162157
 20
-87.85255865257598
 30
0.0
 10
142.0193239712734
 20
-87.85143083986122
 30
0.0
 10
141.8712307704592
 20
-87.85030087483205
 30
0.0
 10
141.2788579672038
 20
-87.84578747165863
 30
0.0
 10
140.6876833584897
 20
-87.84127406848583
 30
0.0
 10
140.0953151111043
 20
-87.83563285259797
 30
0.0
 10
138.9117676991335
 20
-87.82660389393766
 30
0.0
 10
137.7282202871621
 20
-87.81644927487699
 30
0.0
 10
136.5434792365206
 20
-87.80629250350193
 30
0.0
 10
135.3599363804237
 20
-87.79726569715602
 30
0.0
 10
134.1763889684523
 20
-87.78710892578063
 30
0.0
 10
132.9928415564802
 20
-87.78033774486457
 30
0.0
 10
131.808105061712
 20
-87.77243875123277
 30
0.0
 10
130.6245576497412
 20
-87.76792534806061
 30
0.0
 10
129.441012515707
 20
-87.76792534806061
 30
0.0
  0
SPLINE
  5
92
330
70
100
AcDbEntity
  8
Capa 2
 62
   178
420
      519
370
     9
100
AcDbSpline
210
0.0
220
0.0
230
1.0
 70
     8
 71
     3
 72
    29
 73
    25
 74
     0
 42
0.0000000001
 43
0.0000000001
 40
0.0
 40
0.0
 40
0.0
 40
0.0
 40
1.0
 40
1.0
 40
1.0
 40
2.0
 40
2.0
 40
2.0
 40
3.0
 40
3.0
 40
3.0
 40
4.0
 40
4.0
 40
4.0
 40
5.0
 40
5.0
 40
5.0
 40
6.0
 40
6.0
 40
6.0
 40
7.0
 40
7.0
 40
7.0
 40
8.0
 40
8.0
 40
8.0
 40
8.0
 10
99.79396022170371
 20
-81.1572295978792
 30
0.0
 10
99.759325337809
 20
-81.1572295978792
 30
0.0
 10
99.72230203760561
 20
-81.15497397245
 30
0.0
 10
99.68647351504056
 20
-81.14933060424741
 30
0.0
 10
99.64945021483686
 20
-81.14368938835985
 30
0.0
 10
99.61242691463283
 20
-81.13579039472902
 30
0.0
 10
99.5754041839136
 20
-81.12450581063889
 30
0.0
 10
99.53838088371021
 20
-81.1132212265497
 30
0.0
 10
99.5025517916607
 20
-81.09968101703037
 30
0.0
 10
99.46791747725013
 20
-81.08388302976742
 30
0.0
 10
99.43447737099312
 20
-81.06695507747597
 30
0.0
 10
99.4034256810454
 20
-81.0477736520694
 30
0.0
 10
99.37356819925152
 20
-81.02633229660483
 30
0.0
 10
99.34371071745799
 20
-81.00489309345402
 30
0.0
 10
99.3186306377656
 20
-80.98119611255993
 30
0.0
 10
99.29593897438191
 20
-80.9563691666367
 30
0.0
 10
99.27444151915207
 20
-80.93041656031372
 30
0.0
 10
99.25413884156087
 20
-80.90446180167475
 30
0.0
 10
99.23980720474119
 20
-80.87737923032262
 30
0.0
 10
99.22547556792117
 20
-80.85029665897051
 30
0.0
 10
99.21472712504881
 20
-80.82321408761806
 30
0.0
 10
99.20756130663866
 20
-80.79613151626563
 30
0.0
 10
99.19920128007463
 20
-80.76904894491383
 30
0.0
 10
99.19681286376661
 20
-80.74196852587547
 30
0.0
 10
99.19561808612797
 20
-80.71601376723746
 30
0.0
  0
SPLINE
  5
93
330
70
100
AcDbEntity
  8
Capa 2
 62
   178
420
      519
370
     9
100
AcDbSpline
210
0.0
220
0.0
230
1.0
 70
     8
 71
     3
 72
    29
 73
    25
 74
     0
 42
0.0000000001
 43
0.0000000001
 40
0.0
 40
0.0
 40
0.0
 40
0.0
 40
1.0
 40
1.0
 40
1.0
 40
2.0
 40
2.0
 40
2.0
 40
3.0
 40
3.0
 40
3.0
 40
4.0
 40
4.0
 40
4.0
 40
5.0
 40
5.0
 40
5.0
 40
6.0
 40
6.0
 40
6.0
 40
7.0
 40
7.0
 40
7.0
 40
8.0
 40
8.0
 40
8.0
 40
8.0
 10
159.6843790124113
 20
-80.71623760792864
 30
0.0
 10
159.6843790124113
 20
-80.74219236656601
 30
0.0
 10
159.680793540528
 20
-80.76927493791876
 30
0.0
 10
159.6736271526333
 20
-80.79635750927121
 30
0.0
 10
159.66646076474
 20
-80.82231226790922
 30
0.0
 10
159.6557134608366
 20
-80.85052265197608
 30
0.0
 10
159.6401870463767
 20
-80.87760522332885
 30
0.0
 10
159.6258542705906
 20
-80.9046877946813
 30
0.0
 10
159.6067469401206
 20
-80.93064040100458
 30
0.0
 10
159.5840541377692
 20
-80.95659515964291
 30
0.0
 10
159.5625595299598
 20
-80.98141995325111
 30
0.0
 10
159.5362858115971
 20
-81.00511693414519
 30
0.0
 10
159.5076202600211
 20
-81.02655828961008
 30
0.0
 10
159.4777656256477
 20
-81.04799749276057
 30
0.0
 10
159.4455191580617
 20
-81.06718107048122
 30
0.0
 10
159.412079051805
 20
-81.08410687045957
 30
0.0
 10
159.3786389455483
 20
-81.09990485772121
 30
0.0
 10
159.3416133674083
 20
-81.11344721955529
 30
0.0
 10
159.3045923451422
 20
-81.12473180364478
 30
0.0
 10
159.2687604056715
 20
-81.13601638773397
 30
0.0
 10
159.2317393834035
 20
-81.14391538136608
 30
0.0
 10
159.1947138052641
 20
-81.14955659725394
 30
0.0
 10
159.1588864216674
 20
-81.15519996545591
 30
0.0
 10
159.1218653994
 20
-81.15632777817033
 30
0.0
 10
159.0860334599299
 20
-81.15745559088479
 30
0.0
  0
LINE
  5
94
330
70
100
AcDbEntity
  8
Capa 2
 62
   178
420
      519
370
     9
100
AcDbLine
 10
159.0867532878308
 20
-81.1572295978792
 30
0.0
 11
99.79360429414301
 21
-81.1572295978792
 31
0.0
  0
SPLINE
  5
95
330
70
100
AcDbEntity
  8
Capa 2
 62
   178
420
      519
370
     9
100
AcDbSpline
210
0.0
220
0.0
230
1.0
 70
     8
 71
     3
 72
    68
 73
    64
 74
     0
 42
0.0000000001
 43
0.0000000001
 40
0.0
 40
0.0
 40
0.0
 40
0.0
 40
1.0
 40
1.0
 40
1.0
 40
2.0
 40
2.0
 40
2.0
 40
3.0
 40
3.0
 40
3.0
 40
4.0
 40
4.0
 40
4.0
 40
5.0
 40
5.0
 40
5.0
 40
6.0
 40
6.0
 40
6.0
 40
7.0
 40
7.0
 40
7.0
 40
8.0
 40
8.0
 40
8.0
 40
9.0
 40
9.0
 40
9.0
 40
10.0
 40
10.0
 40
10.0
 40
11.0
 40
11.0
 40
11.0
 40
12.0
 40
12.0
 40
12.0
 40
13.0
 40
13.0
 40
13.0
 40
14.0
 40
14.0
 40
14.0
 40
15.0
 40
15.0
 40
15.0
 40
16.0
 40
16.0
 40
16.0
 40
17.0
 40
17.0
 40
17.0
 40
18.0
 40
18.0
 40
18.0
 40
19.0
 40
19.0
 40
19.0
 40
20.0
 40
20.0
 40
20.0
 40
21.0
 40
21.0
 40
21.0
 40
21.0
 10
99.18057060779682
 20
-80.34543474095148
 30
0.0
 10
99.18057060779682
 20
-80.34543474095148
 30
0.0
 10
99.18057060779682
 20
-80.33302234414721
 30
0.0
 10
99.18057060779682
 20
-80.33302234414721
 30
0.0
 10
99.181764815951
 20
-80.32963675368886
 30
0.0
 10
99.181764815951
 20
-80.32399553780098
 30
0.0
 10
99.18295902410484
 20
-80.32060994734264
 30
0.0
 10
99.18295902410484
 20
-80.31609654416952
 30
0.0
 10
99.18295902410484
 20
-80.31271095371115
 30
0.0
 10
99.18415323225966
 20
-80.30819755053869
 30
0.0
 10
99.18415323225966
 20
-80.30481196008002
 30
0.0
 10
99.18534744041384
 20
-80.30029855690658
 30
0.0
 10
99.18654164856802
 20
-80.29578515373378
 30
0.0
 10
99.18773585672251
 20
-80.29239956327543
 30
0.0
 10
99.18773585672251
 20
-80.28901397281707
 30
0.0
 10
99.19012484251469
 20
-80.28450056964429
 30
0.0
 10
99.19131905066951
 20
-80.28111497918624
 30
0.0
 10
99.19251325882335
 20
-80.27772938872756
 30
0.0
 10
99.19370746697818
 20
-80.27321598555413
 30
0.0
 10
99.19490167513203
 20
-80.26983039509611
 30
0.0
 10
99.19729066092454
 20
-80.26644480463774
 30
0.0
 10
99.19848486907966
 20
-80.2630592141797
 30
0.0
 10
99.19967907723354
 20
-80.25854581100627
 30
0.0
 10
99.20206749354219
 20
-80.25516022054793
 30
0.0
 10
99.20326170169637
 20
-80.25177678240462
 30
0.0
 10
99.20565068748855
 20
-80.24839119194561
 30
0.0
 10
99.20803910379754
 20
-80.24500560148791
 30
0.0
 10
99.20923331195172
 20
-80.24049219831383
 30
0.0
 10
99.21162172826038
 20
-80.23823442057022
 30
0.0
 10
99.21281650589904
 20
-80.23484883011187
 30
0.0
 10
99.21639913036219
 20
-80.23033542693971
 30
0.0
 10
99.21759333851605
 20
-80.22807980150956
 30
0.0
 10
99.21998232430823
 20
-80.22469421105185
 30
0.0
 10
99.22237074061722
 20
-80.22130862059348
 30
0.0
 10
99.2247591569259
 20
-80.21905084284957
 30
0.0
 10
99.2283423508729
 20
-80.21566525239121
 30
0.0
 10
99.23073076718155
 20
-80.21228181424726
 30
0.0
 10
99.23311918348991
 20
-80.21002403650399
 30
0.0
 10
99.23550759979859
 20
-80.20663844604563
 30
0.0
 10
99.2378965855914
 20
-80.20325285558728
 30
0.0
 10
99.24028500189976
 20
-80.20099723015777
 30
0.0
 10
99.2426734182081
 20
-80.1976116396994
 30
0.0
 10
99.24625661215543
 20
-80.19535386195483
 30
0.0
 10
99.2522282224111
 20
-80.19084045878271
 30
0.0
 10
99.2570050550281
 20
-80.18519924289483
 30
0.0
 10
99.26417087343827
 20
-80.18068368740697
 30
0.0
 10
99.2701424836933
 20
-80.17617028423483
 30
0.0
 10
99.27730830210379
 20
-80.17165688106075
 30
0.0
 10
99.28327991235912
 20
-80.16714347788861
 30
0.0
 10
99.29044516128449
 20
-80.16263007471549
 30
0.0
 10
99.29761097969498
 20
-80.15924448425746
 30
0.0
 10
99.30597100625835
 20
-80.15473108108402
 30
0.0
 10
99.31194261651434
 20
-80.15247330334075
 30
0.0
 10
99.32030264307805
 20
-80.14908771288238
 30
0.0
 10
99.32866266964268
 20
-80.14570427473779
 30
0.0
 10
99.33702269620702
 20
-80.14344649699452
 30
0.0
 10
99.34418851461655
 20
-80.14118871925091
 30
0.0
 10
99.35254854118056
 20
-80.14006090653586
 30
0.0
 10
99.36210334538323
 20
-80.13667531607717
 30
0.0
 10
99.37046337194725
 20
-80.13667531607717
 30
0.0
 10
99.37762919035709
 20
-80.13554750336274
 30
0.0
 10
99.38718342507625
 20
-80.1344196906483
 30
0.0
 10
99.39673765979412
 20
-80.1344196906483
 30
0.0
 10
99.40509768635845
 20
-80.13328972561881
 30
0.0
  0
SPLINE
  5
96
330
70
100
AcDbEntity
  8
Capa 2
 62
   178
420
      519
370
     9
100
AcDbSpline
210
0.0
220
0.0
230
1.0
 70
     8
 71
     3
 72
    68
 73
    64
 74
     0
 42
0.0000000001
 43
0.0000000001
 40
0.0
 40
0.0
 40
0.0
 40
0.0
 40
1.0
 40
1.0
 40
1.0
 40
2.0
 40
2.0
 40
2.0
 40
3.0
 40
3.0
 40
3.0
 40
4.0
 40
4.0
 40
4.0
 40
5.0
 40
5.0
 40
5.0
 40
6.0
 40
6.0
 40
6.0
 40
7.0
 40
7.0
 40
7.0
 40
8.0
 40
8.0
 40
8.0
 40
9.0
 40
9.0
 40
9.0
 40
10.0
 40
10.0
 40
10.0
 40
11.0
 40
11.0
 40
11.0
 40
12.0
 40
12.0
 40
12.0
 40
13.0
 40
13.0
 40
13.0
 40
14.0
 40
14.0
 40
14.0
 40
15.0
 40
15.0
 40
15.0
 40
16.0
 40
16.0
 40
16.0
 40
17.0
 40
17.0
 40
17.0
 40
18.0
 40
18.0
 40
18.0
 40
19.0
 40
19.0
 40
19.0
 40
20.0
 40
20.0
 40
20.0
 40
21.0
 40
21.0
 40
21.0
 40
21.0
 10
159.4759706117701
 20
-80.13374171163029
 30
0.0
 10
159.4759706117701
 20
-80.13374171163029
 30
0.0
 10
159.4891051930142
 20
-80.13374171163029
 30
0.0
 10
159.4891051930142
 20
-80.13374171163029
 30
0.0
 10
159.4938843035681
 20
-80.13487167665976
 30
0.0
 10
159.4986588582489
 20
-80.13487167665976
 30
0.0
 10
159.5022443301315
 20
-80.1359994893742
 30
0.0
 10
159.5070188848142
 20
-80.1359994893742
 30
0.0
 10
159.5106043566975
 20
-80.1359994893742
 30
0.0
 10
159.5153789113782
 20
-80.13712730208895
 30
0.0
 10
159.5189643832608
 20
-80.13712730208895
 30
0.0
 10
159.5237389379416
 20
-80.13825726711845
 30
0.0
 10
159.5285180484942
 20
-80.13938507983288
 30
0.0
 10
159.5320989645049
 20
-80.14051289254764
 30
0.0
 10
159.5356844363889
 20
-80.14051289254764
 30
0.0
 10
159.5404589910709
 20
-80.14277067029061
 30
0.0
 10
159.5440444629529
 20
-80.143898483006
 30
0.0
 10
159.5476253789636
 20
-80.14502629572042
 30
0.0
 10
159.5524044895175
 20
-80.14615626074927
 30
0.0
 10
159.5559854055276
 20
-80.14728407346435
 30
0.0
 10
159.5595708774115
 20
-80.14954185120762
 30
0.0
 10
159.5631517934222
 20
-80.15066966392272
 30
0.0
 10
159.5679309039755
 20
-80.15179747663683
 30
0.0
 10
159.5715118199856
 20
-80.15405525438074
 30
0.0
 10
159.5750927359976
 20
-80.1551830670955
 30
0.0
 10
159.5786782078796
 20
-80.15744084483911
 30
0.0
 10
159.5822591238903
 20
-80.15969647026828
 30
0.0
 10
159.5870382344443
 20
-80.16082428298274
 30
0.0
 10
159.5894255117843
 20
-80.16308206072665
 30
0.0
 10
159.593010983667
 20
-80.1642098734414
 30
0.0
 10
159.597785538349
 20
-80.16759546390009
 30
0.0
 10
159.6001728156896
 20
-80.16872327661451
 30
0.0
 10
159.6037582875729
 20
-80.17098105435843
 30
0.0
 10
159.6073392035837
 20
-80.17323883210172
 30
0.0
 10
159.6097310367963
 20
-80.17549445753124
 30
0.0
 10
159.613311952807
 20
-80.17888004798926
 30
0.0
 10
159.6168928688183
 20
-80.18113782573319
 30
0.0
 10
159.6192847020309
 20
-80.183393451163
 30
0.0
 10
159.622865618041
 20
-80.18565122890629
 30
0.0
 10
159.626451089925
 20
-80.18790685433517
 30
0.0
 10
159.628838367265
 20
-80.19016463207909
 30
0.0
 10
159.6324192832757
 20
-80.19242025750925
 30
0.0
 10
159.6348111164877
 20
-80.19580584796697
 30
0.0
 10
159.639585671169
 20
-80.20144921616923
 30
0.0
 10
159.645558420393
 20
-80.20709043205711
 30
0.0
 10
159.6503375309457
 20
-80.21273380025874
 30
0.0
 10
159.6551120856277
 20
-80.2183750161466
 30
0.0
 10
159.6598911961804
 20
-80.22514619706363
 30
0.0
 10
159.6646657508624
 20
-80.23078741295119
 30
0.0
 10
159.6694448614151
 20
-80.23755859386822
 30
0.0
 10
159.6730257774258
 20
-80.24432977478429
 30
0.0
 10
159.6778048879784
 20
-80.25222876841608
 30
0.0
 10
159.6801921653197
 20
-80.25786998430364
 30
0.0
 10
159.6837776372037
 20
-80.26576897793445
 30
0.0
 10
159.6873585532131
 20
-80.27366797156593
 30
0.0
 10
159.6897458305544
 20
-80.28156696519772
 30
0.0
 10
159.6921376637671
 20
-80.28833814611475
 30
0.0
 10
159.6933313024384
 20
-80.29623713974558
 30
0.0
 10
159.6969122184471
 20
-80.30526394609148
 30
0.0
 10
159.6969122184471
 20
-80.31316293972231
 30
0.0
 10
159.6981058571191
 20
-80.31993412063966
 30
0.0
 10
159.6992994957885
 20
-80.32896092698591
 30
0.0
 10
159.6992994957885
 20
-80.33798988564589
 30
0.0
 10
159.7004976903311
 20
-80.34588887927702
 30
0.0
  0
LINE
  5
97
330
70
100
AcDbEntity
  8
Capa 2
 62
   178
420
      519
370
     9
100
AcDbLine
 10
159.6908255724044
 20
-112.0339657781188
 30
0.0
 11
159.7003792376385
 21
-112.0429933915829
 31
0.0
  0
LINE
  5
98
330
70
100
AcDbEntity
  8
Capa 2
 62
   178
420
      519
370
     9
100
AcDbLine
 10
159.8633194865002
 20
-112.3738897449189
 30
0.0
 11
159.8633194865002
 21
-80.67621998105941
 31
0.0
  0
LINE
  5
99
330
70
100
AcDbEntity
  8
Capa 2
 62
   178
420
      519
370
     9
100
AcDbLine
 10
99.18057060779682
 20
-80.34543474095148
 30
0.0
 11
99.18057060779682
 21
-112.0431061190469
 31
0.0
  0
LINE
  5
9A
330
70
100
AcDbEntity
  8
Capa 2
 62
   178
420
      519
370
     9
100
AcDbLine
 10
99.18057060779682
 20
-112.0426546711129
 30
0.0
 11
99.19012484251469
 21
-112.0336273266889
 31
0.0
  0
LINE
  5
9B
330
70
100
AcDbEntity
  8
Capa 2
 62
   178
420
      519
370
     9
100
AcDbLine
 10
159.4759706117701
 20
-80.13374171163029
 30
0.0
 11
99.40414095307302
 21
-80.13374171163029
 31
0.0
  0
SPLINE
  5
9C
330
70
100
AcDbEntity
  8
Capa 2
 62
   178
420
      519
370
     9
100
AcDbSpline
210
0.0
220
0.0
230
1.0
 70
     8
 71
     3
 72
    11
 73
     7
 74
     0
 42
0.0000000001
 43
0.0000000001
 40
0.0
 40
0.0
 40
0.0
 40
0.0
 40
1.0
 40
1.0
 40
1.0
 40
2.0
 40
2.0
 40
2.0
 40
2.0
 10
159.0867532878308
 20
-81.1572295978792
 30
0.0
 10
159.0891405651721
 20
-81.18995553743392
 30
0.0
 10
159.0903342038415
 20
-81.23283609604897
 30
0.0
 10
159.0915278425115
 20
-81.28023005783779
 30
0.0
 10
159.0927214811816
 20
-81.32762401962596
 30
0.0
 10
159.0939151198529
 20
-81.38066134961546
 30
0.0
 10
159.0939151198529
 20
-81.43256871457706
 30
0.0
  0
SPLINE
  5
9D
330
70
100
AcDbEntity
  8
Capa 2
 62
   178
420
      519
370
     9
100
AcDbSpline
210
0.0
220
0.0
230
1.0
 70
     8
 71
     3
 72
    11
 73
     7
 74
     0
 42
0.0000000001
 43
0.0000000001
 40
0.0
 40
0.0
 40
0.0
 40
0.0
 40
1.0
 40
1.0
 40
1.0
 40
2.0
 40
2.0
 40
2.0
 40
2.0
 10
99.78751138377397
 20
-81.43290447561414
 30
0.0
 10
99.78751138377397
 20
-81.37986929793841
 30
0.0
 10
99.78870559192813
 20
-81.32683196794827
 30
0.0
 10
99.78989980008295
 20
-81.2805679711883
 30
0.0
 10
99.78989980008295
 20
-81.23317400940015
 30
0.0
 10
99.7922882163913
 20
-81.19029345078541
 30
0.0
 10
99.79467663269996
 20
-81.157567511231
 30
0.0
  0
SPLINE
  5
9E
330
70
100
AcDbEntity
  8
Capa 2
 62
   178
420
      519
370
     9
100
AcDbSpline
210
0.0
220
0.0
230
1.0
 70
     8
 71
     3
 72
   110
 73
   106
 74
     0
 42
0.0000000001
 43
0.0000000001
 40
0.0
 40
0.0
 40
0.0
 40
0.0
 40
1.0
 40
1.0
 40
1.0
 40
2.0
 40
2.0
 40
2.0
 40
3.0
 40
3.0
 40
3.0
 40
4.0
 40
4.0
 40
4.0
 40
5.0
 40
5.0
 40
5.0
 40
6.0
 40
6.0
 40
6.0
 40
7.0
 40
7.0
 40
7.0
 40
8.0
 40
8.0
 40
8.0
 40
9.0
 40
9.0
 40
9.0
 40
10.0
 40
10.0
 40
10.0
 40
11.0
 40
11.0
 40
11.0
 40
12.0
 40
12.0
 40
12.0
 40
13.0
 40
13.0
 40
13.0
 40
14.0
 40
14.0
 40
14.0
 40
15.0
 40
15.0
 40
15.0
 40
16.0
 40
16.0
 40
16.0
 40
17.0
 40
17.0
 40
17.0
 40
18.0
 40
18.0
 40
18.0
 40
19.0
 40
19.0
 40
19.0
 40
20.0
 40
20.0
 40
20.0
 40
21.0
 40
21.0
 40
21.0
 40
22.0
 40
22.0
 40
22.0
 40
23.0
 40
23.0
 40
23.0
 40
24.0
 40
24.0
 40
24.0
 40
25.0
 40
25.0
 40
25.0
 40
26.0
 40
26.0
 40
26.0
 40
27.0
 40
27.0
 40
27.0
 40
28.0
 40
28.0
 40
28.0
 40
29.0
 40
29.0
 40
29.0
 40
30.0
 40
30.0
 40
30.0
 40
31.0
 40
31.0
 40
31.0
 40
32.0
 40
32.0
 40
32.0
 40
33.0
 40
33.0
 40
33.0
 40
34.0
 40
34.0
 40
34.0
 40
35.0
 40
35.0
 40
35.0
 40
35.0
 10
129.440415696372
 20
-107.5154960571404
 30
0.0
 10
128.2580619230705
 20
-107.5154960571404
 30
0.0
 10
127.0745167890364
 20
-107.5109826539673
 30
0.0
 10
125.8921652936715
 20
-107.5042120111287
 30
0.0
 10
124.7074242430301
 20
-107.4974413682908
 30
0.0
 10
123.5238791089959
 20
-107.4884140238671
 30
0.0
 10
122.3403316970251
 20
-107.4805150302346
 30
0.0
 10
121.1567865629897
 20
-107.4714876858109
 30
0.0
 10
119.9732414289542
 20
-107.464717042973
 30
0.0
 10
118.788500378314
 20
-107.4579464001337
 30
0.0
 10
118.1973257695999
 20
-107.4545608096751
 30
0.0
 10
117.6049552442798
 20
-107.4523041080893
 30
0.0
 10
117.0125847189591
 20
-107.4477901668374
 30
0.0
 10
116.9385381185523
 20
-107.4477901668374
 30
0.0
 10
116.8644915181449
 20
-107.4477901668374
 30
0.0
 10
116.7904449177375
 20
-107.4477901668374
 30
0.0
 10
116.7904449177375
 20
-107.4477901668374
 30
0.0
 10
116.6805709337334
 20
-107.4477901668374
 30
0.0
 10
116.6805709337334
 20
-107.4477901668374
 30
0.0
 10
116.6602676866574
 20
-107.4477901668374
 30
0.0
 10
116.64235399486
 20
-107.4477901668374
 30
0.0
 10
116.624438025124
 20
-107.4466618160446
 30
0.0
 10
116.624438025124
 20
-107.4466618160446
 30
0.0
 10
116.5683073944519
 20
-107.4466618160446
 30
0.0
 10
116.5683073944519
 20
-107.4466618160446
 30
0.0
 10
116.4190205549683
 20
-107.4466618160446
 30
0.0
 10
116.2745105481002
 20
-107.4466618160446
 30
0.0
 10
116.13358373518
 20
-107.4421484128718
 30
0.0
 10
116.0977540736467
 20
-107.4410195239992
 30
0.0
 10
116.0631203287199
 20
-107.4398911732063
 30
0.0
 10
116.0272906671872
 20
-107.4376344716199
 30
0.0
 10
116.0093769753879
 20
-107.4376344716199
 30
0.0
 10
115.9926569222605
 20
-107.4376344716199
 30
0.0
 10
115.9747432304618
 20
-107.436506120827
 30
0.0
 10
115.9580231773325
 20
-107.4353777700341
 30
0.0
 10
115.9401072075985
 20
-107.4342494192393
 30
0.0
 10
115.9221935158004
 20
-107.4331205303686
 30
0.0
 10
115.8517301093397
 20
-107.4286071271946
 30
0.0
 10
115.7812667028796
 20
-107.4240931859433
 30
0.0
 10
115.7108032964201
 20
-107.4184508938986
 30
0.0
 10
115.57107012217
 20
-107.4049101463011
 30
0.0
 10
115.4289496705791
 20
-107.3891116209598
 30
0.0
 10
115.2904124129362
 20
-107.3688002305247
 30
0.0
 10
115.0121397031059
 20
-107.328176373495
 30
0.0
 10
114.7386461038296
 20
-107.272883418076
 30
0.0
 10
114.4699316151059
 20
-107.2017919373147
 30
0.0
 10
114.2024084871176
 20
-107.1307009946321
 30
0.0
 10
113.9384708310113
 20
-107.0449398774023
 30
0.0
 10
113.680501368257
 20
-106.9445096617803
 30
0.0
 10
113.4225341834373
 20
-106.8452072588733
 30
0.0
 10
113.1681501925676
 20
-106.7312357575763
 30
0.0
 10
112.919736672984
 20
-106.6025940817311
 30
0.0
 10
112.8564396544172
 20
-106.5698697564124
 30
0.0
 10
112.7955299131912
 20
-106.5371454310936
 30
0.0
 10
112.7334265332944
 20
-106.5032922169041
 30
0.0
 10
112.6725167920697
 20
-106.4694395407906
 30
0.0
 10
112.612802967449
 20
-106.4355863266009
 30
0.0
 10
112.5530868648936
 20
-106.4006047616163
 30
0.0
 10
112.43246329905
 20
-106.3295138189337
 30
0.0
 10
112.3142292884806
 20
-106.2572939873801
 30
0.0
 10
112.1995761939231
 20
-106.1816891034457
 30
0.0
 10
111.9678827274681
 20
-106.0293504467061
 30
0.0
 10
111.7457452041825
 20
-105.8679849836203
 30
0.0
 10
111.5331590681956
 20
-105.694206047573
 30
0.0
 10
111.3193815714747
 20
-105.5215560003977
 30
0.0
 10
111.1139618233824
 20
-105.3387502580036
 30
0.0
 10
110.9157107411182
 20
-105.145787744236
 30
0.0
 10
110.8667442204047
 20
-105.097265969733
 30
0.0
 10
110.8177776996887
 20
-105.0487431190726
 30
0.0
 10
110.770005956613
 20
-104.9990913795405
 30
0.0
 10
110.7222342135366
 20
-104.9494407161656
 30
0.0
 10
110.6732688317908
 20
-104.899790052791
 30
0.0
 10
110.6278855050228
 20
-104.8490105005448
 30
0.0
 10
110.53353565754
 20
-104.7485802849231
 30
0.0
 10
110.4415753653339
 20
-104.6458922915587
 30
0.0
 10
110.3543919057464
 20
-104.5409486727639
 30
0.0
 10
110.1764429315899
 20
-104.3321881717327
 30
0.0
 10
110.0104360389783
 20
-104.1177864548143
 30
0.0
 10
109.8539828115995
 20
-103.8977413696932
 30
0.0
 10
109.5410763568431
 20
-103.4565244628933
 30
0.0
 10
109.2687786741721
 20
-102.9927383879157
 30
0.0
 10
109.0323083750998
 20
-102.5075120336291
 30
0.0
 10
108.9152657252657
 20
-102.2637710437706
 30
0.0
 10
108.8065853799309
 20
-102.015515574583
 30
0.0
 10
108.7074586998314
 20
-101.7627467022217
 30
0.0
 10
108.68237862014
 20
-101.6995547531712
 30
0.0
 10
108.6584944570533
 20
-101.6352339152485
 30
0.0
 10
108.6334120994246
 20
-101.5720419661974
 30
0.0
 10
108.6107215750086
 20
-101.5077211282743
 30
0.0
 10
108.5880310505926
 20
-101.4445291792241
 30
0.0
 10
108.5653382482419
 20
-101.3802083413008
 30
0.0
 10
108.5211485601445
 20
-101.251566665455
 30
0.0
 10
108.4793484273231
 20
-101.122926065766
 30
0.0
 10
108.4399378497784
 20
-100.9942843899211
 30
0.0
 10
108.361114416755
 20
-100.737002114387
 30
0.0
 10
108.2930382876355
 20
-100.477462061109
 30
0.0
 10
108.2345181016861
 20
-100.2156663824021
 30
0.0
 10
108.1759979157374
 20
-99.953869627538
 30
0.0
 10
108.127031395022
 20
-99.68981617108751
 30
0.0
 10
108.0888144561486
 20
-99.42576271463602
 30
0.0
 10
108.0494038786046
 20
-99.16058144547141
 30
0.0
 10
108.0207406049658
 20
-98.89427128743355
 30
0.0
 10
108.0004373578911
 20
-98.62683331668252
 30
0.0
 10
107.9801341108145
 20
-98.35826645705857
 30
0.0
 10
107.9705804455811
 20
-98.08857070856236
 30
0.0
 10
107.9705804455811
 20
-97.81774714735266
 30
0.0
  0
SPLINE
  5
9F
330
70
100
AcDbEntity
  8
Capa 2
 62
   178
420
      519
370
     9
100
AcDbSpline
210
0.0
220
0.0
230
1.0
 70
     8
 71
     3
 72
   110
 73
   106
 74
     0
 42
0.0000000001
 43
0.0000000001
 40
0.0
 40
0.0
 40
0.0
 40
0.0
 40
1.0
 40
1.0
 40
1.0
 40
2.0
 40
2.0
 40
2.0
 40
3.0
 40
3.0
 40
3.0
 40
4.0
 40
4.0
 40
4.0
 40
5.0
 40
5.0
 40
5.0
 40
6.0
 40
6.0
 40
6.0
 40
7.0
 40
7.0
 40
7.0
 40
8.0
 40
8.0
 40
8.0
 40
9.0
 40
9.0
 40
9.0
 40
10.0
 40
10.0
 40
10.0
 40
11.0
 40
11.0
 40
11.0
 40
12.0
 40
12.0
 40
12.0
 40
13.0
 40
13.0
 40
13.0
 40
14.0
 40
14.0
 40
14.0
 40
15.0
 40
15.0
 40
15.0
 40
16.0
 40
16.0
 40
16.0
 40
17.0
 40
17.0
 40
17.0
 40
18.0
 40
18.0
 40
18.0
 40
19.0
 40
19.0
 40
19.0
 40
20.0
 40
20.0
 40
20.0
 40
21.0
 40
21.0
 40
21.0
 40
22.0
 40
22.0
 40
22.0
 40
23.0
 40
23.0
 40
23.0
 40
24.0
 40
24.0
 40
24.0
 40
25.0
 40
25.0
 40
25.0
 40
26.0
 40
26.0
 40
26.0
 40
27.0
 40
27.0
 40
27.0
 40
28.0
 40
28.0
 40
28.0
 40
29.0
 40
29.0
 40
29.0
 40
30.0
 40
30.0
 40
30.0
 40
31.0
 40
31.0
 40
31.0
 40
32.0
 40
32.0
 40
32.0
 40
33.0
 40
33.0
 40
33.0
 40
34.0
 40
34.0
 40
34.0
 40
35.0
 40
35.0
 40
35.0
 40
35.0
 10
150.9106108611133
 20
-97.81774607119482
 30
0.0
 10
150.9106108611133
 20
-98.08857070856236
 30
0.0
 10
150.8998590013353
 20
-98.35826538090042
 30
0.0
 10
150.8807516708673
 20
-98.62683224052501
 30
0.0
 10
150.8604461458559
 20
-98.89427128743355
 30
0.0
 10
150.8317851501532
 20
-99.16058144547141
 30
0.0
 10
150.7923722946725
 20
-99.42576271463602
 30
0.0
 10
150.7541576337357
 20
-99.69094505995849
 30
0.0
 10
150.7039974743491
 20
-99.953869627538
 30
0.0
 10
150.6466709270703
 20
-100.2156653062446
 30
0.0
 10
150.5881507411215
 20
-100.476333172237
 30
0.0
 10
150.5200723340655
 20
-100.7370010382292
 30
0.0
 10
150.4412511789774
 20
-100.9942843899211
 30
0.0
 10
150.4018383234967
 20
-101.1240538784814
 30
0.0
 10
150.3600381906773
 20
-101.251566665455
 30
0.0
 10
150.3158507805152
 20
-101.3802083413008
 30
0.0
 10
150.2931579781639
 20
-101.4434002903519
 30
0.0
 10
150.2704651758106
 20
-101.5088489409891
 30
0.0
 10
150.2465787347898
 20
-101.5720419661974
 30
0.0
 10
150.2226968496391
 20
-101.6363628041204
 30
0.0
 10
150.1988104086177
 20
-101.6995547531712
 30
0.0
 10
150.1737303289257
 20
-101.7627467022217
 30
0.0
 10
150.0746036488243
 20
-102.016644463455
 30
0.0
 10
149.9659233034927
 20
-102.264898856486
 30
0.0
 10
149.8488783757207
 20
-102.5075120336291
 30
0.0
 10
149.6124103545831
 20
-102.9927383879157
 30
0.0
 10
149.3401103939787
 20
-103.4565244628933
 30
0.0
 10
149.0272039392204
 20
-103.8977413696932
 30
0.0
 10
148.8707552677154
 20
-104.1177853786571
 30
0.0
 10
148.7047483751032
 20
-104.3333159844474
 30
0.0
 10
148.526795984043
 20
-104.5409475966073
 30
0.0
 10
148.4384166078482
 20
-104.6447634026861
 30
0.0
 10
148.3476545101848
 20
-104.7474503198946
 30
0.0
 10
148.253302384766
 20
-104.8490094243876
 30
0.0
 10
148.2067276972652
 20
-104.8997889766338
 30
0.0
 10
148.1589548152198
 20
-104.9494407161656
 30
0.0
 10
148.1111819331758
 20
-105.0002191922553
 30
0.0
 10
148.0634090511305
 20
-105.0487420429157
 30
0.0
 10
148.0132488917464
 20
-105.0983937824478
 30
0.0
 10
147.9642823710323
 20
-105.145787744236
 30
0.0
 10
147.767227205376
 20
-105.338749181847
 30
0.0
 10
147.5618074572818
 20
-105.5226838131125
 30
0.0
 10
147.3480276826255
 20
-105.6953338602875
 30
0.0
 10
147.1342479079673
 20
-105.8679839074631
 30
0.0
 10
146.913306301289
 20
-106.0293504467061
 30
0.0
 10
146.6816128348334
 20
-106.1816885653676
 30
0.0
 10
146.5657661016052
 20
-106.2572934493017
 30
0.0
 10
146.4487257297077
 20
-106.3306416316488
 30
0.0
 10
146.3280998859263
 20
-106.4006042235379
 30
0.0
 10
146.2683860613068
 20
-106.4355857885221
 30
0.0
 10
146.2074740421455
 20
-106.4705673535054
 30
0.0
 10
146.147760217526
 20
-106.5044200296173
 30
0.0
 10
146.0856591155666
 20
-106.5371448930145
 30
0.0
 10
146.0235534577339
 20
-106.5698692183346
 30
0.0
 10
145.9614523557744
 20
-106.6025935436523
 30
0.0
 10
145.7130388361908
 20
-106.7312352194975
 30
0.0
 10
145.4586525673825
 20
-106.8452067207955
 30
0.0
 10
145.2006853825635
 20
-106.9456369364162
 30
0.0
 10
144.9415245590758
 20
-107.0449393393232
 30
0.0
 10
144.6787782637035
 20
-107.130700456553
 30
0.0
 10
144.4100637749811
 20
-107.2006625103643
 30
0.0
 10
144.1425429249288
 20
-107.2717545292034
 30
0.0
 10
143.8690493256512
 20
-107.328176373495
 30
0.0
 10
143.5907766158215
 20
-107.3687991543671
 30
0.0
 10
143.452237080242
 20
-107.3891116209598
 30
0.0
 10
143.3101166286499
 20
-107.4060374209371
 30
0.0
 10
143.1691898157303
 20
-107.4173220050266
 30
0.0
 10
143.0999223258775
 20
-107.4240921097858
 30
0.0
 10
143.0294566414802
 20
-107.4297344018309
 30
0.0
 10
142.958995512958
 20
-107.4331199922896
 30
0.0
 10
142.941081821158
 20
-107.4342488811615
 30
0.0
 10
142.9231635734874
 20
-107.435376693876
 30
0.0
 10
142.90524988169
 20
-107.435376693876
 30
0.0
 10
142.8885298285606
 20
-107.4365055827479
 30
0.0
 10
142.8706161367632
 20
-107.437633395463
 30
0.0
 10
142.8538960836339
 20
-107.4387622843343
 30
0.0
 10
142.8180687000359
 20
-107.4398911732063
 30
0.0
 10
142.7834349551105
 20
-107.4410189859217
 30
0.0
 10
142.7476030156411
 20
-107.442147874793
 30
0.0
 10
142.6066762027203
 20
-107.4455323890942
 30
0.0
 10
142.4621684737881
 20
-107.4466612779661
 30
0.0
 10
142.3128816343045
 20
-107.4466612779661
 30
0.0
 10
142.3128816343045
 20
-107.4466612779661
 30
0.0
 10
142.2567487256958
 20
-107.4466612779661
 30
0.0
 10
142.2567487256958
 20
-107.4466612779661
 30
0.0
 10
142.2567487256958
 20
-107.4466612779661
 30
0.0
 10
142.2006158170865
 20
-107.4466612779661
 30
0.0
 10
142.2006158170865
 20
-107.4466612779661
 30
0.0
 10
142.1647884334904
 20
-107.4477901668374
 30
0.0
 10
142.1265692166803
 20
-107.4477901668374
 30
0.0
 10
142.0895481944136
 20
-107.4477901668374
 30
0.0
 10
142.0155015940062
 20
-107.4477901668374
 30
0.0
 10
141.9414549935988
 20
-107.4489179795525
 30
0.0
 10
141.8686020318614
 20
-107.4489179795525
 30
0.0
 10
141.2762337844773
 20
-107.4511746811389
 30
0.0
 10
140.6838655370932
 20
-107.4545602715976
 30
0.0
 10
140.0914927338364
 20
-107.4579458620559
 30
0.0
 10
138.9079453218657
 20
-107.4635881541004
 30
0.0
 10
137.7244024657668
 20
-107.4726149604463
 30
0.0
 10
136.5396614151254
 20
-107.4805139540774
 30
0.0
 10
135.3561140031539
 20
-107.4884129477095
 30
0.0
 10
134.1725665911831
 20
-107.496311941341
 30
0.0
 10
132.9890237350849
 20
-107.5042109349715
 30
0.0
 10
131.8054763231141
 20
-107.5098532270162
 30
0.0
 10
130.6231271056853
 20
-107.5154955190626
 30
0.0
 10
129.4407756103211
 20
-107.5154955190626
 30
0.0
  0
SPLINE
  5
A0
330
70
100
AcDbEntity
  8
Capa 2
 62
   178
420
      519
370
     9
100
AcDbSpline
210
0.0
220
0.0
230
1.0
 70
     8
 71
     3
 72
   110
 73
   106
 74
     0
 42
0.0000000001
 43
0.0000000001
 40
0.0
 40
0.0
 40
0.0
 40
0.0
 40
1.0
 40
1.0
 40
1.0
 40
2.0
 40
2.0
 40
2.0
 40
3.0
 40
3.0
 40
3.0
 40
4.0
 40
4.0
 40
4.0
 40
5.0
 40
5.0
 40
5.0
 40
6.0
 40
6.0
 40
6.0
 40
7.0
 40
7.0
 40
7.0
 40
8.0
 40
8.0
 40
8.0
 40
9.0
 40
9.0
 40
9.0
 40
10.0
 40
10.0
 40
10.0
 40
11.0
 40
11.0
 40
11.0
 40
12.0
 40
12.0
 40
12.0
 40
13.0
 40
13.0
 40
13.0
 40
14.0
 40
14.0
 40
14.0
 40
15.0
 40
15.0
 40
15.0
 40
16.0
 40
16.0
 40
16.0
 40
17.0
 40
17.0
 40
17.0
 40
18.0
 40
18.0
 40
18.0
 40
19.0
 40
19.0
 40
19.0
 40
20.0
 40
20.0
 40
20.0
 40
21.0
 40
21.0
 40
21.0
 40
22.0
 40
22.0
 40
22.0
 40
23.0
 40
23.0
 40
23.0
 40
24.0
 40
24.0
 40
24.0
 40
25.0
 40
25.0
 40
25.0
 40
26.0
 40
26.0
 40
26.0
 40
27.0
 40
27.0
 40
27.0
 40
28.0
 40
28.0
 40
28.0
 40
29.0
 40
29.0
 40
29.0
 40
30.0
 40
30.0
 40
30.0
 40
31.0
 40
31.0
 40
31.0
 40
32.0
 40
32.0
 40
32.0
 40
33.0
 40
33.0
 40
33.0
 40
34.0
 40
34.0
 40
34.0
 40
35.0
 40
35.0
 40
35.0
 40
35.0
 10
107.9701020789368
 20
-97.81774607119482
 30
0.0
 10
107.9701020789368
 20
-97.54692250998417
 30
0.0
 10
107.9808505218098
 20
-97.27722783764642
 30
0.0
 10
107.9999589912475
 20
-97.00866097802281
 30
0.0
 10
108.0202622383221
 20
-96.74122300727018
 30
0.0
 10
108.0489255119609
 20
-96.47491284923328
 30
0.0
 10
108.0883372284739
 20
-96.20973050390986
 30
0.0
 10
108.1265541673479
 20
-95.94454815858737
 30
0.0
 10
108.176714326732
 20
-95.68162359100851
 30
0.0
 10
108.2340408740114
 20
-95.41982683614408
 30
0.0
 10
108.2925610599614
 20
-95.15916004630881
 30
0.0
 10
108.3606360501125
 20
-94.89849110415946
 30
0.0
 10
108.4394594831366
 20
-94.64120990478223
 30
0.0
 10
108.478871199649
 20
-94.51144041622262
 30
0.0
 10
108.5206713324698
 20
-94.38392655309092
 30
0.0
 10
108.5648598815995
 20
-94.25528487724509
 30
0.0
 10
108.5875515449825
 20
-94.19209292819463
 30
0.0
 10
108.6102432083662
 20
-94.12664320139928
 30
0.0
 10
108.6341296493876
 20
-94.06345125234816
 30
0.0
 10
108.6580149514432
 20
-93.99913149058326
 30
0.0
 10
108.6819013924659
 20
-93.93593954153182
 30
0.0
 10
108.7069814721567
 20
-93.87274759248136
 30
0.0
 10
108.8061081522568
 20
-93.61884983124808
 30
0.0
 10
108.9147884975909
 20
-93.37059328590266
 30
0.0
 10
109.0318300084574
 20
-93.12798010876017
 30
0.0
 10
109.2683003075303
 20
-92.64275590678797
 30
0.0
 10
109.5405991291684
 20
-92.17896875565186
 30
0.0
 10
109.8535044449564
 20
-91.73775292501012
 30
0.0
 10
110.0099565333663
 20
-91.51770676373223
 30
0.0
 10
110.1759634259798
 20
-91.30217615794121
 30
0.0
 10
110.353913539104
 20
-91.09454454578168
 30
0.0
 10
110.4422917763305
 20
-90.99072981585942
 30
0.0
 10
110.5330584298659
 20
-90.88804289865192
 30
0.0
 10
110.6274071383797
 20
-90.78648379415792
 30
0.0
 10
110.6739852427867
 20
-90.73570424191171
 30
0.0
 10
110.7217569858631
 20
-90.68605250238027
 30
0.0
 10
110.7695287289389
 20
-90.63640291516289
 30
0.0
 10
110.8173004720146
 20
-90.58675117563048
 30
0.0
 10
110.8674606314
 20
-90.53709943609902
 30
0.0
 10
110.9164271521147
 20
-90.48970547431085
 30
0.0
 10
111.1134857346747
 20
-90.29674403669885
 30
0.0
 10
111.318903204831
 20
-90.11280940543434
 30
0.0
 10
111.5326829794892
 20
-89.94015935825904
 30
0.0
 10
111.7464604762095
 20
-89.76750931108243
 30
0.0
 10
111.9674043608245
 20
-89.60614384799695
 30
0.0
 10
112.1990978272807
 20
-89.45380519125768
 30
0.0
 10
112.3149445605095
 20
-89.37819869308823
 30
0.0
 10
112.4319872103423
 20
-89.30485212497549
 30
0.0
 10
112.5526107761872
 20
-89.23488899500894
 30
0.0
 10
112.6123246008085
 20
-89.19990743002472
 30
0.0
 10
112.6732343420333
 20
-89.16492586504048
 30
0.0
 10
112.732948166652
 20
-89.13107211277198
 30
0.0
 10
112.7950515465481
 20
-89.09834832553135
 30
0.0
 10
112.8571549264442
 20
-89.06562453829135
 30
0.0
 10
112.9192583063396
 20
-89.03289859873694
 30
0.0
 10
113.1676718259239
 20
-88.90425692289145
 30
0.0
 10
113.4220558167969
 20
-88.79028542159382
 30
0.0
 10
113.6800252795505
 20
-88.68985628212929
 30
0.0
 10
113.9391861030389
 20
-88.59055280306542
 30
0.0
 10
114.2019301204739
 20
-88.50592165086446
 30
0.0
 10
114.4706468871329
 20
-88.43483070818285
 30
0.0
 10
114.7381700151219
 20
-88.36373761318522
 30
0.0
 10
115.0116636144002
 20
-88.30731684505082
 30
0.0
 10
115.2899340462919
 20
-88.26669406418
 30
0.0
 10
115.4284713039354
 20
-88.24638052142955
 30
0.0
 10
115.5705917555269
 20
-88.22945472145184
 30
0.0
 10
115.7115185684471
 20
-88.21817013736202
 30
0.0
 10
115.7807883362365
 20
-88.21140110876005
 30
0.0
 10
115.8512517426973
 20
-88.20575774055745
 30
0.0
 10
115.9217151491567
 20
-88.20237215009909
 30
0.0
 10
115.939628840956
 20
-88.20124433738529
 30
0.0
 10
115.9575448106901
 20
-88.20011652466989
 30
0.0
 10
115.9754585024894
 20
-88.20011652466989
 30
0.0
 10
115.9921785556168
 20
-88.19898655964136
 30
0.0
 10
116.0100922474168
 20
-88.19785874692694
 30
0.0
 10
116.0268123005435
 20
-88.19673093421153
 30
0.0
 10
116.0626419620775
 20
-88.19560096918301
 30
0.0
 10
116.0972757070043
 20
-88.19447315646858
 30
0.0
 10
116.1331053685376
 20
-88.19334534375382
 30
0.0
 10
116.2740321814578
 20
-88.18995975329514
 30
0.0
 10
116.4185421883266
 20
-88.18883194058072
 30
0.0
 10
116.5678290278101
 20
-88.18883194058072
 30
0.0
 10
116.5678290278101
 20
-88.18883194058072
 30
0.0
 10
116.6239596584829
 20
-88.18883194058072
 30
0.0
 10
116.6239596584829
 20
-88.18883194058072
 30
0.0
 10
116.6239596584829
 20
-88.18883194058072
 30
0.0
 10
116.680092567091
 20
-88.18883194058072
 30
0.0
 10
116.680092567091
 20
-88.18883194058072
 30
0.0
 10
116.715922228625
 20
-88.18770197555123
 30
0.0
 10
116.7541391674971
 20
-88.18770197555123
 30
0.0
 10
116.7911624677018
 20
-88.18770197555123
 30
0.0
 10
116.8652090681092
 20
-88.18770197555123
 30
0.0
 10
116.9392556685153
 20
-88.18657416283743
 30
0.0
 10
117.0121063523167
 20
-88.18657416283743
 30
0.0
 10
117.6044768776374
 20
-88.1843185374076
 30
0.0
 10
118.1968474029575
 20
-88.18093294694923
 30
0.0
 10
118.7892179282789
 20
-88.17754735649121
 30
0.0
 10
119.9727630623137
 20
-88.17190398828893
 30
0.0
 10
121.1563104742832
 20
-88.16287718194271
 30
0.0
 10
122.3410492469894
 20
-88.15497818831124
 30
0.0
 10
123.5245966589595
 20
-88.14707919468039
 30
0.0
 10
124.708141792995
 20
-88.13918020104893
 30
0.0
 10
125.8916869270279
 20
-88.13128120741748
 30
0.0
 10
127.075234339
 20
-88.12563999152992
 30
0.0
 10
128.2575858343654
 20
-88.11999662332764
 30
0.0
 10
129.4399373297283
 20
-88.11999662332764
 30
0.0
  0
SPLINE
  5
A1
330
70
100
AcDbEntity
  8
Capa 2
 62
   178
420
      519
370
     9
100
AcDbSpline
210
0.0
220
0.0
230
1.0
 70
     8
 71
     3
 72
   110
 73
   106
 74
     0
 42
0.0000000001
 43
0.0000000001
 40
0.0
 40
0.0
 40
0.0
 40
0.0
 40
1.0
 40
1.0
 40
1.0
 40
2.0
 40
2.0
 40
2.0
 40
3.0
 40
3.0
 40
3.0
 40
4.0
 40
4.0
 40
4.0
 40
5.0
 40
5.0
 40
5.0
 40
6.0
 40
6.0
 40
6.0
 40
7.0
 40
7.0
 40
7.0
 40
8.0
 40
8.0
 40
8.0
 40
9.0
 40
9.0
 40
9.0
 40
10.0
 40
10.0
 40
10.0
 40
11.0
 40
11.0
 40
11.0
 40
12.0
 40
12.0
 40
12.0
 40
13.0
 40
13.0
 40
13.0
 40
14.0
 40
14.0
 40
14.0
 40
15.0
 40
15.0
 40
15.0
 40
16.0
 40
16.0
 40
16.0
 40
17.0
 40
17.0
 40
17.0
 40
18.0
 40
18.0
 40
18.0
 40
19.0
 40
19.0
 40
19.0
 40
20.0
 40
20.0
 40
20.0
 40
21.0
 40
21.0
 40
21.0
 40
22.0
 40
22.0
 40
22.0
 40
23.0
 40
23.0
 40
23.0
 40
24.0
 40
24.0
 40
24.0
 40
25.0
 40
25.0
 40
25.0
 40
26.0
 40
26.0
 40
26.0
 40
27.0
 40
27.0
 40
27.0
 40
28.0
 40
28.0
 40
28.0
 40
29.0
 40
29.0
 40
29.0
 40
30.0
 40
30.0
 40
30.0
 40
31.0
 40
31.0
 40
31.0
 40
32.0
 40
32.0
 40
32.0
 40
33.0
 40
33.0
 40
33.0
 40
34.0
 40
34.0
 40
34.0
 40
35.0
 40
35.0
 40
35.0
 40
35.0
 10
129.440415696372
 20
-88.11999662332764
 30
0.0
 10
130.6227671917367
 20
-88.11999662332764
 30
0.0
 10
131.8063100478343
 20
-88.12451217881484
 30
0.0
 10
132.9886638211351
 20
-88.13128120741748
 30
0.0
 10
134.1722112331065
 20
-88.13805238833417
 30
0.0
 10
135.3569477278748
 20
-88.14707919468039
 30
0.0
 10
136.5404951398456
 20
-88.15497818831124
 30
0.0
 10
137.7240425518183
 20
-88.16400714697154
 30
0.0
 10
138.9075899637885
 20
-88.17077617557449
 30
0.0
 10
140.092326458556
 20
-88.17754735649121
 30
0.0
 10
140.6835056231434
 20
-88.18093294694923
 30
0.0
 10
141.2758738705275
 20
-88.18319072469316
 30
0.0
 10
141.8682466737848
 20
-88.18770412786596
 30
0.0
 10
141.9422932741922
 20
-88.18770412786596
 30
0.0
 10
142.0163353187245
 20
-88.18770412786596
 30
0.0
 10
142.0903819191345
 20
-88.18770412786596
 30
0.0
 10
142.0903819191345
 20
-88.18770412786596
 30
0.0
 10
142.2002604590099
 20
-88.18770412786596
 30
0.0
 10
142.2002604590099
 20
-88.18770412786596
 30
0.0
 10
142.220561428148
 20
-88.18770412786596
 30
0.0
 10
142.238475119948
 20
-88.18770412786596
 30
0.0
 10
142.256388811746
 20
-88.18883194058072
 30
0.0
 10
142.256388811746
 20
-88.18883194058072
 30
0.0
 10
142.3125217203535
 20
-88.18883194058072
 30
0.0
 10
142.3125217203535
 20
-88.18883194058072
 30
0.0
 10
142.461808559839
 20
-88.18883194058072
 30
0.0
 10
142.6063208446424
 20
-88.18883194058072
 30
0.0
 10
142.7472476575633
 20
-88.19334534375382
 30
0.0
 10
142.7830750411594
 20
-88.19447530878266
 30
0.0
 10
142.8177087860874
 20
-88.19560312149773
 30
0.0
 10
142.8535361696835
 20
-88.19785874692694
 30
0.0
 10
142.8714544173554
 20
-88.19785874692694
 30
0.0
 10
142.8881744704835
 20
-88.19785874692694
 30
0.0
 10
142.9060881622821
 20
-88.1989887119561
 30
0.0
 10
142.9228082154102
 20
-88.20011652466989
 30
0.0
 10
142.9407219072088
 20
-88.20124433738529
 30
0.0
 10
142.9586355990069
 20
-88.20237430241382
 30
0.0
 10
143.0291012834043
 20
-88.20688770558692
 30
0.0
 10
143.0995624119265
 20
-88.21140110876005
 30
0.0
 10
143.1700280963238
 20
-88.21704232464695
 30
0.0
 10
143.3097567147014
 20
-88.23058468648133
 30
0.0
 10
143.4518817221642
 20
-88.24638267374426
 30
0.0
 10
143.5904167018717
 20
-88.26669406418
 30
0.0
 10
143.8686894117007
 20
-88.30731684505082
 30
0.0
 10
144.1421830109777
 20
-88.36260980047111
 30
0.0
 10
144.4108974997014
 20
-88.43370289546745
 30
0.0
 10
144.6784183497537
 20
-88.50479383814938
 30
0.0
 10
144.9423582837954
 20
-88.59055495537981
 30
0.0
 10
145.2003254686138
 20
-88.69098409484468
 30
0.0
 10
145.4582926534327
 20
-88.79028757390853
 30
0.0
 10
145.7126789222404
 20
-88.90425907520555
 30
0.0
 10
145.9610924418234
 20
-89.03289859873694
 30
0.0
 10
146.0243917383267
 20
-89.06562453829135
 30
0.0
 10
146.0852992016162
 20
-89.09834832553135
 30
0.0
 10
146.1474048594482
 20
-89.13220207780081
 30
0.0
 10
146.208312322737
 20
-89.16605367775588
 30
0.0
 10
146.2680261473564
 20
-89.19990743002472
 30
0.0
 10
146.3277399719771
 20
-89.23488899500894
 30
0.0
 10
146.4483658157579
 20
-89.30597993769088
 30
0.0
 10
146.5665998263261
 20
-89.37820084540263
 30
0.0
 10
146.6812529208829
 20
-89.45380519125768
 30
0.0
 10
146.9129463873392
 20
-89.60614384799695
 30
0.0
 10
147.1350861885614
 20
-89.76750931108243
 30
0.0
 10
147.3476677686738
 20
-89.94128717097316
 30
0.0
 10
147.5614475433327
 20
-90.11393721814879
 30
0.0
 10
147.7668672914249
 20
-90.29674403669885
 30
0.0
 10
147.9639270129538
 20
-90.48970547431085
 30
0.0
 10
148.0140871723385
 20
-90.53822940112786
 30
0.0
 10
148.0630536930539
 20
-90.58675117563048
 30
0.0
 10
148.1108220192247
 20
-90.63640291516289
 30
0.0
 10
148.1585949012701
 20
-90.68605250238027
 30
0.0
 10
148.2075614219855
 20
-90.73570424191171
 30
0.0
 10
148.2529424708156
 20
-90.78648379415792
 30
0.0
 10
148.3472945962349
 20
-90.88691508593717
 30
0.0
 10
148.4392548884411
 20
-90.98960200314435
 30
0.0
 10
148.5264360700926
 20
-91.09454669809608
 30
0.0
 10
148.7043884611527
 20
-91.30330612297006
 30
0.0
 10
148.8703953537656
 20
-91.51770891604664
 30
0.0
 10
149.0268485811438
 20
-91.73775292501012
 30
0.0
 10
149.3397550359008
 20
-92.17896875565186
 30
0.0
 10
149.6120504406352
 20
-92.64275590678797
 30
0.0
 10
149.8485230176441
 20
-93.12798226107425
 30
0.0
 10
149.9655633895416
 20
-93.37172325093183
 30
0.0
 10
150.0742437348764
 20
-93.61997764396315
 30
0.0
 10
150.1733704149746
 20
-93.87274759248136
 30
0.0
 10
150.1984504946666
 20
-93.93593954153182
 30
0.0
 10
150.22233693569
 20
-94.00025930329833
 30
0.0
 10
150.2474170153814
 20
-94.06345125234816
 30
0.0
 10
150.2701098177334
 20
-94.12777316642875
 30
0.0
 10
150.2927980642128
 20
-94.19096511548017
 30
0.0
 10
150.3154908665661
 20
-94.25528487724509
 30
0.0
 10
150.3596828326007
 20
-94.38392655309092
 30
0.0
 10
150.4014829654202
 20
-94.51256822893641
 30
0.0
 10
150.440891265027
 20
-94.64120990478223
 30
0.0
 10
150.5197169759883
 20
-94.89849110415946
 30
0.0
 10
150.5877908271718
 20
-95.15803223359375
 30
0.0
 10
150.6463110131218
 20
-95.41982683614408
 30
0.0
 10
150.7048311990699
 20
-95.68162359100851
 30
0.0
 10
150.753797719784
 20
-95.94454815858737
 30
0.0
 10
150.792016936594
 20
-96.20973050390986
 30
0.0
 10
150.8314252362021
 20
-96.47491284923328
 30
0.0
 10
150.8600907877775
 20
-96.74122300727018
 30
0.0
 10
150.8803917569162
 20
-97.00866097802281
 30
0.0
 10
150.9006972819288
 20
-97.27722676148987
 30
0.0
 10
150.9102509471622
 20
-97.54692250998417
 30
0.0
 10
150.9102509471622
 20
-97.81774607119482
 30
0.0
  0
LWPOLYLINE
  5
A2
330
70
100
AcDbEntity
  8
Capa 2
 62
   178
420
      519
370
     9
100
AcDbPolyline
 90
        3
 70
     0
 43
0.0
 10
159.093081395132
 20
-112.5986335166522
 10
159.093081395132
 20
-112.4293687908949
 10
159.093081395132
 20
-112.0332888752593
  0
LWPOLYLINE
  5
A3
330
70
100
AcDbEntity
  8
Capa 2
 62
   178
420
      519
370
     9
100
AcDbPolyline
 90
        3
 70
     0
 43
0.0
 10
159.093081395132
 20
-112.0339657781188
 10
159.5122763620092
 20
-112.0339657781188
 10
159.6914223917394
 20
-112.0339657781188
  0
SPLINE
  5
A4
330
70
100
AcDbEntity
  8
Capa 2
 62
   178
420
      519
370
     9
100
AcDbSpline
210
0.0
220
0.0
230
1.0
 70
     8
 71
     3
 72
    98
 73
    94
 74
     0
 42
0.0000000001
 43
0.0000000001
 40
0.0
 40
0.0
 40
0.0
 40
0.0
 40
1.0
 40
1.0
 40
1.0
 40
2.0
 40
2.0
 40
2.0
 40
3.0
 40
3.0
 40
3.0
 40
4.0
 40
4.0
 40
4.0
 40
5.0
 40
5.0
 40
5.0
 40
6.0
 40
6.0
 40
6.0
 40
7.0
 40
7.0
 40
7.0
 40
8.0
 40
8.0
 40
8.0
 40
9.0
 40
9.0
 40
9.0
 40
10.0
 40
10.0
 40
10.0
 40
11.0
 40
11.0
 40
11.0
 40
12.0
 40
12.0
 40
12.0
 40
13.0
 40
13.0
 40
13.0
 40
14.0
 40
14.0
 40
14.0
 40
15.0
 40
15.0
 40
15.0
 40
16.0
 40
16.0
 40
16.0
 40
17.0
 40
17.0
 40
17.0
 40
18.0
 40
18.0
 40
18.0
 40
19.0
 40
19.0
 40
19.0
 40
20.0
 40
20.0
 40
20.0
 40
21.0
 40
21.0
 40
21.0
 40
22.0
 40
22.0
 40
22.0
 40
23.0
 40
23.0
 40
23.0
 40
24.0
 40
24.0
 40
24.0
 40
25.0
 40
25.0
 40
25.0
 40
26.0
 40
26.0
 40
26.0
 40
27.0
 40
27.0
 40
27.0
 40
28.0
 40
28.0
 40
28.0
 40
29.0
 40
29.0
 40
29.0
 40
30.0
 40
30.0
 40
30.0
 40
31.0
 40
31.0
 40
31.0
 40
31.0
 10
159.6908255724044
 20
-112.0339657781188
 30
0.0
 10
159.6908255724044
 20
-112.0339657781188
 30
0.0
 10
159.6908255724044
 20
-112.0542777066339
 30
0.0
 10
159.6908255724044
 20
-112.0542777066339
 30
0.0
 10
159.6896273778624
 20
-112.0599197296396
 30
0.0
 10
159.6896273778624
 20
-112.0666903724773
 30
0.0
 10
159.6896273778624
 20
-112.0734610153155
 30
0.0
 10
159.6884337391911
 20
-112.0791033073596
 30
0.0
 10
159.6884337391911
 20
-112.0847453303653
 30
0.0
 10
159.6884337391911
 20
-112.0915159732033
 30
0.0
 10
159.6872401005211
 20
-112.0971582652493
 30
0.0
 10
159.6860464618524
 20
-112.1028002882537
 30
0.0
 10
159.6860464618524
 20
-112.1084425802997
 30
0.0
 10
159.6848528231805
 20
-112.1140846033042
 30
0.0
 10
159.6836591845104
 20
-112.1197268953499
 30
0.0
 10
159.6836591845104
 20
-112.1253689183549
 30
0.0
 10
159.6824609899685
 20
-112.1298825905674
 30
0.0
 10
159.6812673512971
 20
-112.1355248826115
 30
0.0
 10
159.6800737126271
 20
-112.1411669056179
 30
0.0
 10
159.6788800739578
 20
-112.1456808468691
 30
0.0
 10
159.6776864352877
 20
-112.1513228698751
 30
0.0
 10
159.6764927966177
 20
-112.1569651619205
 30
0.0
 10
159.6752991579464
 20
-112.1614788341321
 30
0.0
 10
159.6741009634057
 20
-112.1659925063452
 30
0.0
 10
159.6729073247338
 20
-112.1705061785567
 30
0.0
 10
159.6717136860638
 20
-112.1750198507692
 30
0.0
 10
159.6705200473938
 20
-112.1795337920204
 30
0.0
 10
159.6693264087237
 20
-112.1840474642332
 30
0.0
 10
159.6681327700524
 20
-112.1885611364464
 30
0.0
 10
159.6669391313824
 20
-112.193074808657
 30
0.0
 10
159.6645472981698
 20
-112.1964601300769
 30
0.0
 10
159.6633536594991
 20
-112.20097380229
 30
0.0
 10
159.6633536594991
 20
-112.2054877435413
 30
0.0
 10
159.6609663821578
 20
-112.2100014157528
 30
0.0
 10
159.6597727434884
 20
-112.2133867371724
 30
0.0
 10
159.6585791048197
 20
-112.2167720585917
 30
0.0
 10
159.6573809102751
 20
-112.22015738001
 30
0.0
 10
159.6561872716045
 20
-112.2246710522228
 30
0.0
 10
159.6537999942644
 20
-112.2280563736425
 30
0.0
 10
159.6537999942644
 20
-112.2314416950598
 30
0.0
 10
159.6526063555944
 20
-112.2336983966466
 30
0.0
 10
159.6502190782537
 20
-112.2382120688591
 30
0.0
 10
159.6490208837105
 20
-112.2404690394858
 30
0.0
 10
159.6478272450417
 20
-112.2438543609041
 30
0.0
 10
159.6466336063704
 20
-112.2472396823237
 30
0.0
 10
159.6454399676998
 20
-112.2494966529489
 30
0.0
 10
159.6287199145724
 20
-112.287863270313
 30
0.0
 10
159.6072207508897
 20
-112.3239731860895
 30
0.0
 10
159.5833388657416
 20
-112.3578261312408
 30
0.0
 10
159.5630333407303
 20
-112.3849084335539
 30
0.0
 10
159.5403405383776
 20
-112.4097340342802
 30
0.0
 10
159.5152604586849
 20
-112.4334310151743
 30
0.0
 10
159.5009322387696
 20
-112.4469723008515
 30
0.0
 10
159.4854058243109
 20
-112.460513317488
 30
0.0
 10
159.4698794098535
 20
-112.472926252371
 30
0.0
 10
159.4543529953955
 20
-112.4830819475889
 30
0.0
 10
159.4400202196075
 20
-112.4932379118465
 30
0.0
 10
159.4244938051488
 20
-112.5033938761034
 30
0.0
 10
159.392251893436
 20
-112.5237055355782
 30
0.0
 10
159.3576135926361
 20
-112.5417604934663
 30
0.0
 10
159.3217862090393
 20
-112.5553017791435
 30
0.0
 10
159.3038725172419
 20
-112.5632007727743
 30
0.0
 10
159.2859588254426
 20
-112.5688430648194
 30
0.0
 10
159.2668469391013
 20
-112.5744850878247
 30
0.0
 10
159.2477396086332
 20
-112.5801273798691
 30
0.0
 10
159.2286322781645
 20
-112.5846410520823
 30
0.0
 10
159.2095203918213
 20
-112.5880263735019
 30
0.0
 10
159.2011603652585
 20
-112.5902830750877
 30
0.0
 10
159.1904130613545
 20
-112.5914116949202
 30
0.0
 10
159.1808593961185
 20
-112.5925400457128
 30
0.0
 10
159.1713057308851
 20
-112.5936683965076
 30
0.0
 10
159.1605584269798
 20
-112.5959253671324
 30
0.0
 10
159.1510002058738
 20
-112.5959253671324
 30
0.0
 10
159.1462256511918
 20
-112.5959253671324
 30
0.0
 10
159.1414465406391
 20
-112.5959253671324
 30
0.0
 10
159.1366719859584
 20
-112.5970537179259
 30
0.0
 10
159.1318928754044
 20
-112.5970537179259
 30
0.0
 10
159.1271183207218
 20
-112.5981820687188
 30
0.0
 10
159.1223392101698
 20
-112.5981820687188
 30
0.0
 10
159.1223392101698
 20
-112.5981820687188
 30
0.0
 10
159.1151728222751
 20
-112.5981820687188
 30
0.0
 10
159.1151728222751
 20
-112.5981820687188
 30
0.0
 10
159.1151728222751
 20
-112.5981820687188
 30
0.0
 10
159.1080064343811
 20
-112.5981820687188
 30
0.0
 10
159.1080064343811
 20
-112.5981820687188
 30
0.0
 10
159.1080064343811
 20
-112.5981820687188
 30
0.0
 10
159.1008400464871
 20
-112.5981820687188
 30
0.0
 10
159.1008400464871
 20
-112.5981820687188
 30
0.0
 10
159.1008400464871
 20
-112.5993106885517
 30
0.0
 10
159.0984527691484
 20
-112.5993106885517
 30
0.0
 10
159.0972591304777
 20
-112.5993106885517
 30
0.0
 10
159.0972591304777
 20
-112.5993106885517
 30
0.0
 10
159.0924800199237
 20
-112.5993106885517
 30
0.0
 10
159.0924800199237
 20
-112.5993106885517
 30
0.0
  0
LWPOLYLINE
  5
A5
330
70
100
AcDbEntity
  8
Capa 2
 62
   178
420
      519
370
     9
100
AcDbPolyline
 90
        3
 70
     0
 43
0.0
 10
99.78751138377397
 20
-112.0339657781188
 10
99.78751138377397
 20
-112.430045693756
 10
99.78751138377397
 20
-112.5993106885517
  0
LINE
  5
A6
330
70
100
AcDbEntity
  8
Capa 2
 62
   178
420
      519
370
     9
100
AcDbLine
 10
159.093081395132
 20
-112.5986335166522
 30
0.0
 11
99.78798690299655
 21
-112.5986335166522
 31
0.0
  0
LWPOLYLINE
  5
A7
330
70
100
AcDbEntity
  8
Capa 2
 62
   178
420
      519
370
     9
100
AcDbPolyline
 90
        3
 70
     0
 43
0.0
 10
99.78751138377397
 20
-112.0339657781188
 10
99.36831356947594
 20
-112.0339657781188
 10
99.18916924819756
 20
-112.0339657781188
  0
SPLINE
  5
A8
330
70
100
AcDbEntity
  8
Capa 2
 62
   178
420
      519
370
     9
100
AcDbSpline
210
0.0
220
0.0
230
1.0
 70
     8
 71
     3
 72
    74
 73
    70
 74
     0
 42
0.0000000001
 43
0.0000000001
 40
0.0
 40
0.0
 40
0.0
 40
0.0
 40
1.0
 40
1.0
 40
1.0
 40
2.0
 40
2.0
 40
2.0
 40
3.0
 40
3.0
 40
3.0
 40
4.0
 40
4.0
 40
4.0
 40
5.0
 40
5.0
 40
5.0
 40
6.0
 40
6.0
 40
6.0
 40
7.0
 40
7.0
 40
7.0
 40
8.0
 40
8.0
 40
8.0
 40
9.0
 40
9.0
 40
9.0
 40
10.0
 40
10.0
 40
10.0
 40
11.0
 40
11.0
 40
11.0
 40
12.0
 40
12.0
 40
12.0
 40
13.0
 40
13.0
 40
13.0
 40
14.0
 40
14.0
 40
14.0
 40
15.0
 40
15.0
 40
15.0
 40
16.0
 40
16.0
 40
16.0
 40
17.0
 40
17.0
 40
17.0
 40
18.0
 40
18.0
 40
18.0
 40
19.0
 40
19.0
 40
19.0
 40
20.0
 40
20.0
 40
20.0
 40
21.0
 40
21.0
 40
21.0
 40
22.0
 40
22.0
 40
22.0
 40
23.0
 40
23.0
 40
23.0
 40
23.0
 10
99.78751138377397
 20
-112.5986335166522
 30
0.0
 10
99.78751138377397
 20
-112.5986335166522
 30
0.0
 10
99.7827339816731
 20
-112.5986335166522
 30
0.0
 10
99.7827339816731
 20
-112.5986335166522
 30
0.0
 10
99.7827339816731
 20
-112.5986335166522
 30
0.0
 10
99.7791507877261
 20
-112.5986335166522
 30
0.0
 10
99.7791507877261
 20
-112.5986335166522
 30
0.0
 10
99.7791507877261
 20
-112.5986335166522
 30
0.0
 10
99.77317974695427
 20
-112.5986335166522
 30
0.0
 10
99.77317974695427
 20
-112.5986335166522
 30
0.0
 10
99.77317974695427
 20
-112.5986335166522
 30
0.0
 10
99.76481972039058
 20
-112.5986335166522
 30
0.0
 10
99.76481972039058
 20
-112.5986335166522
 30
0.0
 10
99.76362494275193
 20
-112.5975051658593
 30
0.0
 10
99.76004231828877
 20
-112.5975051658593
 30
0.0
 10
99.75884811013459
 20
-112.5975051658593
 30
0.0
 10
99.75287649987956
 20
-112.5975051658593
 30
0.0
 10
99.74809909777775
 20
-112.5975051658593
 30
0.0
 10
99.74332226516041
 20
-112.5963768150661
 30
0.0
 10
99.73854486305988
 20
-112.5963768150661
 30
0.0
 10
99.73376803044223
 20
-112.5963768150661
 30
0.0
 10
99.72899062834073
 20
-112.5963768150661
 30
0.0
 10
99.71943639362255
 20
-112.5952484642726
 30
0.0
 10
99.70988215890372
 20
-112.5941198444393
 30
0.0
 10
99.70032735470169
 20
-112.5918631428529
 30
0.0
 10
99.69077311998285
 20
-112.5918631428529
 30
0.0
 10
99.68002467711048
 20
-112.5896061722281
 30
0.0
 10
99.67047044239198
 20
-112.5873492016024
 30
0.0
 10
99.65136140347112
 20
-112.5839641492228
 30
0.0
 10
99.63225293403411
 20
-112.5794502079706
 30
0.0
 10
99.61433810326742
 20
-112.5738081849652
 30
0.0
 10
99.59522963383072
 20
-112.5681658929208
 30
0.0
 10
99.57612116439369
 20
-112.5625238699147
 30
0.0
 10
99.55940054178119
 20
-112.5557532270771
 30
0.0
 10
99.52237781106196
 20
-112.5410835906067
 30
0.0
 10
99.48774292716628
 20
-112.5241569835115
 30
0.0
 10
99.4554970290644
 20
-112.5027169732426
 30
0.0
 10
99.44116539224438
 20
-112.4936893597798
 30
0.0
 10
99.42563954727052
 20
-112.4835333955223
 30
0.0
 10
99.4125026880898
 20
-112.4733777003044
 30
0.0
 10
99.39578263496144
 20
-112.4598364146288
 30
0.0
 10
99.38025678998727
 20
-112.4474237487848
 30
0.0
 10
99.36473094501309
 20
-112.4327541123148
 30
0.0
 10
99.34084507347492
 20
-112.4101854822136
 30
0.0
 10
99.31815341009119
 20
-112.3853598814866
 30
0.0
 10
99.29785016301618
 20
-112.3582775791742
 30
0.0
 10
99.27277008332348
 20
-112.3244246340229
 30
0.0
 10
99.25246683624813
 20
-112.2883147182461
 30
0.0
 10
99.23574678312009
 20
-112.2499481008822
 30
0.0
 10
99.23335836681111
 20
-112.2431774580446
 30
0.0
 10
99.22977574234858
 20
-112.2364068152051
 30
0.0
 10
99.22738675655608
 20
-112.2296361723681
 30
0.0
 10
99.22380413209292
 20
-112.2217371787363
 30
0.0
 10
99.22141514630041
 20
-112.2138381851051
 30
0.0
 10
99.21783252183757
 20
-112.2059391914733
 30
0.0
 10
99.2154441055289
 20
-112.1969115780096
 30
0.0
 10
99.2130551197364
 20
-112.1878842335856
 30
0.0
 10
99.20947249527323
 20
-112.177728269328
 30
0.0
 10
99.20708407896457
 20
-112.168700924904
 30
0.0
 10
99.20469509317173
 20
-112.1585449606467
 30
0.0
 10
99.20230667686308
 20
-112.1483889963892
 30
0.0
 10
99.19991826055472
 20
-112.1359763305455
 30
0.0
 10
99.1975292747619
 20
-112.1246920154951
 30
0.0
 10
99.19633506660773
 20
-112.1134077004443
 30
0.0
 10
99.19394665029905
 20
-112.1009947655623
 30
0.0
 10
99.19275244214489
 20
-112.0885820997189
 30
0.0
 10
99.19155823399071
 20
-112.0750408140418
 30
0.0
 10
99.19036402583621
 20
-112.0614997974046
 30
0.0
 10
99.19036402583621
 20
-112.0479585117281
 30
0.0
 10
99.18916924819756
 20
-112.0332888752593
 30
0.0
  0
SPLINE
  5
A9
330
70
100
AcDbEntity
  8
Capa 2
 62
   178
420
      519
370
     9
100
AcDbSpline
210
0.0
220
0.0
230
1.0
 70
     8
 71
     3
 72
     8
 73
     4
 74
     0
 42
0.0000000001
 43
0.0000000001
 40
0.0
 40
0.0
 40
0.0
 40
0.0
 40
1.0
 40
1.0
 40
1.0
 40
1.0
 10
131.8773725515654
 20
-98.89314239856222
 30
0.0
 10
132.0445730828489
 20
-98.55687018671471
 30
0.0
 10
132.1293669871598
 20
-98.19012981305574
 30
0.0
 10
132.1293669871598
 20
-97.81774714735266
 30
0.0
  0
SPLINE
  5
AA
330
70
100
AcDbEntity
  8
Capa 2
 62
   178
420
      519
370
     9
100
AcDbSpline
210
0.0
220
0.0
230
1.0
 70
     8
 71
     3
 72
     8
 73
     4
 74
     0
 42
0.0000000001
 43
0.0000000001
 40
0.0
 40
0.0
 40
0.0
 40
0.0
 40
1.0
 40
1.0
 40
1.0
 40
1.0
 10
129.440415696372
 20
-100.3592020734869
 30
0.0
 10
129.9229099597519
 20
-100.3592020734869
 30
0.0
 10
130.3970419186299
 20
-100.2362037658441
 30
0.0
 10
130.8114623308271
 20
-100.0048751727901
 30
0.0
  0
SPLINE
  5
AB
330
70
100
AcDbEntity
  8
Capa 2
 62
   178
420
      519
370
     9
100
AcDbSpline
210
0.0
220
0.0
230
1.0
 70
     8
 71
     3
 72
     8
 73
     4
 74
     0
 42
0.0000000001
 43
0.0000000001
 40
0.0
 40
0.0
 40
0.0
 40
0.0
 40
1.0
 40
1.0
 40
1.0
 40
1.0
 10
130.8117037920869
 20
-100.0040841972699
 30
0.0
 10
131.2762843636681
 20
-99.74341633127748
 30
0.0
 10
131.6489000871701
 20
-99.35636456718343
 30
0.0
 10
131.8782062762863
 20
-98.8925784922042
 30
0.0
  0
SPLINE
  5
AC
330
70
100
AcDbEntity
  8
Capa 2
 62
   178
420
      519
370
     9
100
AcDbSpline
210
0.0
220
0.0
230
1.0
 70
     8
 71
     3
 72
     8
 73
     4
 74
     0
 42
0.0000000001
 43
0.0000000001
 40
0.0
 40
0.0
 40
0.0
 40
0.0
 40
1.0
 40
1.0
 40
1.0
 40
1.0
 10
132.1300868150606
 20
-97.81774607119482
 30
0.0
 10
132.1300868150606
 20
-97.36186006600458
 30
0.0
 10
131.9999073060452
 20
-96.91387305444582
 30
0.0
 10
131.7550747024709
 20
-96.52230681102146
 30
0.0
  0
SPLINE
  5
AD
330
70
100
AcDbEntity
  8
Capa 2
 62
   178
420
      519
370
     9
100
AcDbSpline
210
0.0
220
0.0
230
1.0
 70
     8
 71
     3
 72
     8
 73
     4
 74
     0
 42
0.0000000001
 43
0.0000000001
 40
0.0
 40
0.0
 40
0.0
 40
0.0
 40
1.0
 40
1.0
 40
1.0
 40
1.0
 10
131.7542409777519
 20
-96.52208081801589
 30
0.0
 10
131.4783555452611
 20
-96.08312061280207
 30
0.0
 10
131.0687142436191
 20
-95.73105148984879
 30
0.0
 10
130.5778599536752
 20
-95.51439091902862
 30
0.0
  0
SPLINE
  5
AE
330
70
100
AcDbEntity
  8
Capa 2
 62
   178
420
      519
370
     9
100
AcDbSpline
210
0.0
220
0.0
230
1.0
 70
     8
 71
     3
 72
     8
 73
     4
 74
     0
 42
0.0000000001
 43
0.0000000001
 40
0.0
 40
0.0
 40
0.0
 40
0.0
 40
1.0
 40
1.0
 40
1.0
 40
1.0
 10
130.5784613288821
 20
-95.51506674573223
 30
0.0
 10
130.222561102635
 20
-95.3582146858192
 30
0.0
 10
129.8344144088012
 20
-95.27696912407629
 30
0.0
 10
129.4402972436794
 20
-95.27696912407629
 30
0.0
  0
SPLINE
  5
AF
330
70
100
AcDbEntity
  8
Capa 2
 62
   178
420
      519
370
     9
100
AcDbSpline
210
0.0
220
0.0
230
1.0
 70
     8
 71
     3
 72
    11
 73
     7
 74
     0
 42
0.0000000001
 43
0.0000000001
 40
0.0
 40
0.0
 40
0.0
 40
0.0
 40
1.0
 40
1.0
 40
1.0
 40
2.0
 40
2.0
 40
2.0
 40
2.0
 10
129.440415696372
 20
-95.27640306540449
 30
0.0
 10
128.7262256885991
 20
-95.27640306540449
 30
0.0
 10
128.0430907876809
 20
-95.54384318847089
 30
0.0
 10
127.5379037219476
 20
-96.0211705491257
 30
0.0
 10
127.0339102948857
 20
-96.49736794475263
 30
0.0
 10
126.7508630303746
 20
-97.14395976212502
 30
0.0
 10
126.7508630303746
 20
-97.81763415084988
 30
0.0
  0
SPLINE
  5
B0
330
70
100
AcDbEntity
  8
Capa 2
 62
   178
420
      519
370
     9
100
AcDbSpline
210
0.0
220
0.0
230
1.0
 70
     8
 71
     3
 72
    11
 73
     7
 74
     0
 42
0.0000000001
 43
0.0000000001
 40
0.0
 40
0.0
 40
0.0
 40
0.0
 40
1.0
 40
1.0
 40
1.0
 40
2.0
 40
2.0
 40
2.0
 40
2.0
 10
126.7506261249901
 20
-97.81774607119482
 30
0.0
 10
126.7506261249901
 20
-98.49254934879226
 30
0.0
 10
127.0336733895004
 20
-99.13801227729145
 30
0.0
 10
127.5388604552324
 20
-99.61533963794657
 30
0.0
 10
128.042851604359
 20
-100.09153810973
 30
0.0
 10
128.7271824218839
 20
-100.3589771566392
 30
0.0
 10
129.4401765130508
 20
-100.3589771566392
 30
0.0
  0
LINE
  5
B1
330
70
100
AcDbEntity
  8
Capa 2
 62
   178
420
      519
370
     9
100
AcDbLine
 10
159.1023981549808
 20
-112.6074354061491
 30
0.0
 11
159.0928399338748
 21
-112.598408061725
 31
0.0
  0
LINE
  5
B2
330
70
100
AcDbEntity
  8
Capa 2
 62
   178
420
      519
370
     9
100
AcDbLine
 10
99.78751138377397
 20
-112.5986335166522
 30
0.0
 11
99.7779565795713
 21
-112.6076611301165
 31
0.0
  0
LINE
  5
B3
330
70
100
AcDbEntity
  8
Capa 2
 62
   178
420
      519
370
     9
100
AcDbLine
 10
99.77831535455342
 20
-112.6074354061491
 30
0.0
 11
159.1025166076741
 21
-112.6074354061491
 31
0.0
  0
SPLINE
  5
B4
330
70
100
AcDbEntity
  8
Capa 2
 62
   178
420
      519
370
     9
100
AcDbSpline
210
0.0
220
0.0
230
1.0
 70
     8
 71
     3
 72
    14
 73
    10
 74
     0
 42
0.0000000001
 43
0.0000000001
 40
0.0
 40
0.0
 40
0.0
 40
0.0
 40
1.0
 40
1.0
 40
1.0
 40
2.0
 40
2.0
 40
2.0
 40
3.0
 40
3.0
 40
3.0
 40
3.0
 10
129.440415696372
 20
-99.44156070189897
 30
0.0
 10
130.0542831074374
 20
-99.44156070189897
 30
0.0
 10
130.6215689971922
 20
-99.13237106140389
 30
0.0
 10
130.9285027027266
 20
-98.63021783098336
 30
0.0
 10
131.2354364082583
 20
-98.1280656767197
 30
0.0
 10
131.2354364082583
 20
-97.50742754182715
 30
0.0
 10
130.9285027027266
 20
-97.00527538756446
 30
0.0
 10
130.6215689971922
 20
-96.5031232333008
 30
0.0
 10
130.0542831074374
 20
-96.19393251664725
 30
0.0
 10
129.440415696372
 20
-96.19393251664725
 30
0.0
  0
SPLINE
  5
B5
330
70
100
AcDbEntity
  8
Capa 2
 62
   178
420
      519
370
     9
100
AcDbSpline
210
0.0
220
0.0
230
1.0
 70
     8
 71
     3
 72
    17
 73
    13
 74
     0
 42
0.0000000001
 43
0.0000000001
 40
0.0
 40
0.0
 40
0.0
 40
0.0
 40
1.0
 40
1.0
 40
1.0
 40
2.0
 40
2.0
 40
2.0
 40
3.0
 40
3.0
 40
3.0
 40
4.0
 40
4.0
 40
4.0
 40
4.0
 10
129.440415696372
 20
-96.19393251664725
 30
0.0
 10
128.9853887900241
 20
-96.19393251664725
 30
0.0
 10
128.5470819368055
 20
-96.36545475110779
 30
0.0
 10
128.2246218168145
 20
-96.67013206458857
 30
0.0
 10
127.9021639747587
 20
-96.97367941303859
 30
0.0
 10
127.7218243063585
 20
-97.38668593577095
 30
0.0
 10
127.7218243063585
 20
-97.81774714735266
 30
0.0
 10
127.7218243063585
 20
-98.2488083589331
 30
0.0
 10
127.9021639747587
 20
-98.6618148816658
 30
0.0
 10
128.2246218168145
 20
-98.96536330627332
 30
0.0
 10
128.5470819368055
 20
-99.27004061975249
 30
0.0
 10
128.9853887900241
 20
-99.4415617780565
 30
0.0
 10
129.440415696372
 20
-99.4415617780565
 30
0.0
  0
ENDSEC
  0
SECTION
  2
OBJECTS
  0
DICTIONARY
  5
C
330
0
100
AcDbDictionary
281
     1
  3
ACAD_COLOR
350
63
  3
ACAD_DETAILVIEWSTYLE
350
6A
  3
ACAD_GROUP
350
D
  3
ACAD_LAYOUT
350
62
  3
ACAD_MATERIAL
350
10
  3
ACAD_MLEADERSTYLE
350
66
  3
ACAD_MLINESTYLE
350
5F
  3
ACAD_PLOTSETTINGS
350
61
  3
ACAD_PLOTSTYLENAME
350
E
  3
ACAD_SCALELIST
350
42
  3
ACAD_SECTIONVIEWSTYLE
350
68
  3
ACAD_TABLESTYLE
350
64
  3
ACAD_VISUALSTYLE
350
29
  3
ACDB_RECOMPOSE_DATA
350
BE
  3
AcDbVariableDictionary
350
B6
  0
DICTIONARY
  5
63
102
{ACAD_REACTORS
330
C
102
}
330
C
100
AcDbDictionary
281
     1
  0
DICTIONARY
  5
6A
102
{ACAD_REACTORS
330
C
102
}
330
C
100
AcDbDictionary
281
     1
  3
Imperial24
350
6B
  0
DICTIONARY
  5
D
102
{ACAD_REACTORS
330
C
102
}
330
C
100
AcDbDictionary
281
     1
  0
DICTIONARY
  5
62
102
{ACAD_REACTORS
330
C
102
}
330
C
100
AcDbDictionary
281
     1
  3
Layout1
350
6F
  3
Layout2
350
77
  3
Model
350
73
  0
DICTIONARY
  5
10
102
{ACAD_REACTORS
330
C
102
}
330
C
100
AcDbDictionary
281
     1
  3
ByBlock
350
19
  3
ByLayer
350
11
  3
Global
350
21
  0
DICTIONARY
  5
66
102
{ACAD_REACTORS
330
C
102
}
330
C
100
AcDbDictionary
281
     1
  3
Standard
350
67
  0
DICTIONARY
  5
5F
102
{ACAD_REACTORS
330
C
102
}
330
C
100
AcDbDictionary
281
     1
  3
Standard
350
60
  0
DICTIONARY
  5
61
102
{ACAD_REACTORS
330
C
102
}
330
C
100
AcDbDictionary
281
     1
  0
ACDBDICTIONARYWDFLT
  5
E
102
{ACAD_REACTORS
330
C
102
}
330
C
100
AcDbDictionary
281
     1
  3
Normal
350
F
100
AcDbDictionaryWithDefault
340
F
  0
DICTIONARY
  5
42
102
{ACAD_REACTORS
330
C
102
}
330
C
100
AcDbDictionary
281
     1
  3
A0
350
43
  3
A1
350
44
  3
A2
350
45
  3
A3
350
46
  3
A4
350
47
  3
A5
350
48
  3
A6
350
49
  3
A7
350
4A
  3
A8
350
4B
  3
A9
350
4C
  3
B0
350
4D
  3
B1
350
4E
  3
B2
350
4F
  3
B3
350
50
  3
B4
350
51
  3
B5
350
52
  3
B6
350
53
  0
DICTIONARY
  5
68
102
{ACAD_REACTORS
330
C
102
}
330
C
100
AcDbDictionary
281
     1
  3
Imperial24
350
69
  0
DICTIONARY
  5
64
102
{ACAD_REACTORS
330
C
102
}
330
C
100
AcDbDictionary
281
     1
  3
Standard
350
65
  0
DICTIONARY
  5
29
102
{ACAD_REACTORS
330
C
102
}
330
C
100
AcDbDictionary
281
     1
  3
2dWireframe
350
2F
  3
Basic
350
2E
  3
Brighten
350
35
  3
ColorChange
350
39
  3
Conceptual
350
32
  3
Dim
350
34
  3
EdgeColorOff
350
41
  3
Facepattern
350
38
  3
Flat
350
2A
  3
FlatWithEdges
350
2B
  3
Gouraud
350
2C
  3
GouraudWithEdges
350
2D
  3
Hidden
350
31
  3
JitterOff
350
3F
  3
Linepattern
350
37
  3
OverhangOff
350
40
  3
Realistic
350
33
  3
Shaded
350
3E
  3
Shaded with edges
350
3D
  3
Shades of Gray
350
3A
  3
Sketchy
350
3B
  3
Thicken
350
36
  3
Wireframe
350
30
  3
X-Ray
350
3C
  0
XRECORD
  5
BE
102
{ACAD_REACTORS
330
C
102
}
330
C
100
AcDbXrecord
280
     1
 90
        1
330
65
  0
DICTIONARY
  5
B6
102
{ACAD_REACTORS
330
C
102
}
330
C
100
AcDbDictionary
281
     1
  3
CANNOSCALE
350
BB
  3
CMLEADERSTYLE
350
B8
  3
CTABLESTYLE
350
B7
  3
CVIEWDETAILSTYLE
350
B9
  3
CVIEWSECTIONSTYLE
350
BA
  0
ACDBDETAILVIEWSTYLE
  5
6B
102
{ACAD_REACTORS
330
6A
102
}
330
6A
100
AcDbModelDocViewStyle
 70
     0
  3
Imperial24
290
     1
300
Imperial24
 90
        0
100
AcDbDetailViewStyle
 70
     0
 71
     0
 90
        3
 71
     1
340
55
 62
   256
 40
0.24
340
0
 62
   256
 40
0.24
300

 40
0.36
280
     3
 71
     2
340
5D
 90
       25
 62
   256
 71
     3
340
55
 62
   256
 40
0.24
 90
        1
 40
0.75
 90
        1
300
%<\AcVar ViewType \f "%tc1">% %<\AcVar ViewDetailId>%\PSCALE %<\AcVar ViewScale \f "%sn">%
 71
     4
340
5D
 90
       25
 62
   256
340
5D
 90
       25
 62
   256
280
     0
  0
LAYOUT
  5
6F
102
{ACAD_REACTORS
330
62
102
}
330
62
100
AcDbPlotSettings
  1

  2

  4

  6

 40
0.0
 41
0.0
 42
0.0
 43
0.0
 44
0.0
 45
0.0
 46
0.0
 47
0.0
 48
0.0
 49
0.0
140
0.0
141
0.0
142
1.0
143
1.0
 70
   688
 72
     0
 73
     0
 74
     5
  7

 75
    16
147
1.0
 76
     0
 77
     2
 78
   300
148
0.0
149
0.0
100
AcDbLayout
  1
Layout1
 70
     1
 71
     1
 10
0.0
 20
0.0
 11
12.0
 21
9.0
 12
0.0
 22
0.0
 32
0.0
 14
0.0
 24
0.0
 34
0.0
 15
0.0
 25
0.0
 35
0.0
146
0.0
 13
0.0
 23
0.0
 33
0.0
 16
1.0
 26
0.0
 36
0.0
 17
0.0
 27
1.0
 37
0.0
 76
     0
330
6C
  0
LAYOUT
  5
77
102
{ACAD_REACTORS
330
62
102
}
330
62
100
AcDbPlotSettings
  1

  2

  4

  6

 40
0.0
 41
0.0
 42
0.0
 43
0.0
 44
0.0
 45
0.0
 46
0.0
 47
0.0
 48
0.0
 49
0.0
140
0.0
141
0.0
142
1.0
143
1.0
 70
   688
 72
     0
 73
     0
 74
     5
  7

 75
    16
147
1.0
 76
     0
 77
     2
 78
   300
148
0.0
149
0.0
100
AcDbLayout
  1
Layout2
 70
     1
 71
     2
 10
0.0
 20
0.0
 11
12.0
 21
9.0
 12
0.0
 22
0.0
 32
0.0
 14
0.0
 24
0.0
 34
0.0
 15
0.0
 25
0.0
 35
0.0
146
0.0
 13
0.0
 23
0.0
 33
0.0
 16
1.0
 26
0.0
 36
0.0
 17
0.0
 27
1.0
 37
0.0
 76
     0
330
74
  0
LAYOUT
  5
73
102
{ACAD_REACTORS
330
62
102
}
330
62
100
AcDbPlotSettings
  1

  2

  4

  6

 40
0.0
 41
0.0
 42
0.0
 43
0.0
 44
0.0
 45
0.0
 46
0.0
 47
0.0
 48
0.0
 49
0.0
140
0.0
141
0.0
142
1.0
143
1.0
 70
  1712
 72
     0
 73
     0
 74
     0
  7

 75
     0
147
1.0
 76
     0
 77
     2
 78
   300
148
0.0
149
0.0
100
AcDbLayout
  1
Model
 70
     1
 71
     0
 10
0.0
 20
0.0
 11
12.0
 21
9.0
 12
0.0
 22
0.0
 32
0.0
 14
0.0
 24
0.0
 34
0.0
 15
0.0
 25
0.0
 35
0.0
146
0.0
 13
0.0
 23
0.0
 33
0.0
 16
1.0
 26
0.0
 36
0.0
 17
0.0
 27
1.0
 37
0.0
 76
     0
330
70
  0
MATERIAL
  5
19
102
{ACAD_XDICTIONARY
360
1A
102
}
102
{ACAD_REACTORS
330
10
102
}
330
10
100
AcDbMaterial
  1
ByBlock
 72
     0
 43
0.0208333333333333
 43
0.0
 43
0.0
 43
0.0
 43
0.0
 43
0.0208333333333333
 43
0.0
 43
0.0
 43
0.0
 43
0.0
 43
1.0
 43
0.0
 43
0.0
 43
0.0
 43
0.0
 43
1.0
 77
     0
 47
0.0208333333333333
 47
0.0
 47
0.0
 47
0.0
 47
0.0
 47
0.0208333333333333
 47
0.0
 47
0.0
 47
0.0
 47
0.0
 47
1.0
 47
0.0
 47
0.0
 47
0.0
 47
0.0
 47
1.0
171
     0
 49
0.0208333333333333
 49
0.0
 49
0.0
 49
0.0
 49
0.0
 49
0.0208333333333333
 49
0.0
 49
0.0
 49
0.0
 49
0.0
 49
1.0
 49
0.0
 49
0.0
 49
0.0
 49
0.0
 49
1.0
175
     0
142
0.0208333333333333
142
0.0
142
0.0
142
0.0
142
0.0
142
0.0208333333333333
142
0.0
142
0.0
142
0.0
142
0.0
142
1.0
142
0.0
142
0.0
142
0.0
142
0.0
142
1.0
179
     0
144
0.0208333333333333
144
0.0
144
0.0
144
0.0
144
0.0
144
0.0208333333333333
144
0.0
144
0.0
144
0.0
144
0.0
144
1.0
144
0.0
144
0.0
144
0.0
144
0.0
144
1.0
147
0.0208333333333333
147
0.0
147
0.0
147
0.0
147
0.0
147
0.0208333333333333
147
0.0
147
0.0
147
0.0
147
0.0
147
1.0
147
0.0
147
0.0
147
0.0
147
0.0
147
1.0
  0
MATERIAL
  5
11
102
{ACAD_XDICTIONARY
360
12
102
}
102
{ACAD_REACTORS
330
10
102
}
330
10
100
AcDbMaterial
  1
ByLayer
 72
     0
 43
0.0208333333333333
 43
0.0
 43
0.0
 43
0.0
 43
0.0
 43
0.0208333333333333
 43
0.0
 43
0.0
 43
0.0
 43
0.0
 43
1.0
 43
0.0
 43
0.0
 43
0.0
 43
0.0
 43
1.0
 77
     0
 47
0.0208333333333333
 47
0.0
 47
0.0
 47
0.0
 47
0.0
 47
0.0208333333333333
 47
0.0
 47
0.0
 47
0.0
 47
0.0
 47
1.0
 47
0.0
 47
0.0
 47
0.0
 47
0.0
 47
1.0
171
     0
 49
0.0208333333333333
 49
0.0
 49
0.0
 49
0.0
 49
0.0
 49
0.0208333333333333
 49
0.0
 49
0.0
 49
0.0
 49
0.0
 49
1.0
 49
0.0
 49
0.0
 49
0.0
 49
0.0
 49
1.0
175
     0
142
0.0208333333333333
142
0.0
142
0.0
142
0.0
142
0.0
142
0.0208333333333333
142
0.0
142
0.0
142
0.0
142
0.0
142
1.0
142
0.0
142
0.0
142
0.0
142
0.0
142
1.0
179
     0
144
0.0208333333333333
144
0.0
144
0.0
144
0.0
144
0.0
144
0.0208333333333333
144
0.0
144
0.0
144
0.0
144
0.0
144
1.0
144
0.0
144
0.0
144
0.0
144
0.0
144
1.0
147
0.0208333333333333
147
0.0
147
0.0
147
0.0
147
0.0
147
0.0208333333333333
147
0.0
147
0.0
147
0.0
147
0.0
147
1.0
147
0.0
147
0.0
147
0.0
147
0.0
147
1.0
  0
MATERIAL
  5
21
102
{ACAD_XDICTIONARY
360
22
102
}
102
{ACAD_REACTORS
330
10
102
}
330
10
100
AcDbMaterial
  1
Global
 72
     0
 43
0.0208333333333333
 43
0.0
 43
0.0
 43
0.0
 43
0.0
 43
0.0208333333333333
 43
0.0
 43
0.0
 43
0.0
 43
0.0
 43
1.0
 43
0.0
 43
0.0
 43
0.0
 43
0.0
 43
1.0
 77
     0
 47
0.0208333333333333
 47
0.0
 47
0.0
 47
0.0
 47
0.0
 47
0.0208333333333333
 47
0.0
 47
0.0
 47
0.0
 47
0.0
 47
1.0
 47
0.0
 47
0.0
 47
0.0
 47
0.0
 47
1.0
171
     0
 49
0.0208333333333333
 49
0.0
 49
0.0
 49
0.0
 49
0.0
 49
0.0208333333333333
 49
0.0
 49
0.0
 49
0.0
 49
0.0
 49
1.0
 49
0.0
 49
0.0
 49
0.0
 49
0.0
 49
1.0
175
     0
142
0.0208333333333333
142
0.0
142
0.0
142
0.0
142
0.0
142
0.0208333333333333
142
0.0
142
0.0
142
0.0
142
0.0
142
1.0
142
0.0
142
0.0
142
0.0
142
0.0
142
1.0
179
     0
144
0.0208333333333333
144
0.0
144
0.0
144
0.0
144
0.0
144
0.0208333333333333
144
0.0
144
0.0
144
0.0
144
0.0
144
1.0
144
0.0
144
0.0
144
0.0
144
0.0
144
1.0
147
0.0208333333333333
147
0.0
147
0.0
147
0.0
147
0.0
147
0.0208333333333333
147
0.0
147
0.0
147
0.0
147
0.0
147
1.0
147
0.0
147
0.0
147
0.0
147
0.0
147
1.0
  0
MLEADERSTYLE
  5
67
102
{ACAD_REACTORS
330
66
102
}
330
66
100
AcDbMLeaderStyle
179
     2
170
     2
171
     1
172
     0
 90
        2
 40
0.0
 41
0.0
173
     1
 91
-1056964608
340
5B
 92
       -2
290
     1
 42
0.09
291
     1
 43
0.36
  3
Standard
 44
0.18
300

342
55
174
     1
178
     6
175
     1
176
     0
 93
-1056964608
 45
0.18
292
     0
297
     0
 46
0.18
 94
-1056964608
 47
1.0
 49
1.0
140
1.0
293
     1
141
0.0
294
     1
177
     0
142
1.0
295
     1
296
     0
143
0.125
271
     0
272
     9
273
     9
298
     1
  0
MLINESTYLE
  5
60
102
{ACAD_REACTORS
330
5F
102
}
330
5F
100
AcDbMlineStyle
  2
STANDARD
 70
     0
  3

 62
   256
 51
90.0
 52
90.0
 71
     2
 49
0.5
 62
   256
  6
BYLAYER
 49
-0.5
 62
   256
  6
BYLAYER
  0
ACDBPLACEHOLDER
  5
F
102
{ACAD_REACTORS
330
E
102
}
330
E
  0
SCALE
  5
43
102
{ACAD_REACTORS
330
42
102
}
330
42
100
AcDbScale
 70
     0
300
1:1
140
1.0
141
1.0
290
     1
  0
SCALE
  5
44
102
{ACAD_REACTORS
330
42
102
}
330
42
100
AcDbScale
 70
     0
300
1/128" = 1'-0"
140
0.0078125
141
12.0
290
     0
  0
SCALE
  5
45
102
{ACAD_REACTORS
330
42
102
}
330
42
100
AcDbScale
 70
     0
300
1/64" = 1'-0"
140
0.015625
141
12.0
290
     0
  0
SCALE
  5
46
102
{ACAD_REACTORS
330
42
102
}
330
42
100
AcDbScale
 70
     0
300
1/32" = 1'-0"
140
0.03125
141
12.0
290
     0
  0
SCALE
  5
47
102
{ACAD_REACTORS
330
42
102
}
330
42
100
AcDbScale
 70
     0
300
1/16" = 1'-0"
140
0.0625
141
12.0
290
     0
  0
SCALE
  5
48
102
{ACAD_REACTORS
330
42
102
}
330
42
100
AcDbScale
 70
     0
300
3/32" = 1'-0"
140
0.09375
141
12.0
290
     0
  0
SCALE
  5
49
102
{ACAD_REACTORS
330
42
102
}
330
42
100
AcDbScale
 70
     0
300
1/8" = 1'-0"
140
0.125
141
12.0
290
     0
  0
SCALE
  5
4A
102
{ACAD_REACTORS
330
42
102
}
330
42
100
AcDbScale
 70
     0
300
3/16" = 1'-0"
140
0.1875
141
12.0
290
     0
  0
SCALE
  5
4B
102
{ACAD_REACTORS
330
42
102
}
330
42
100
AcDbScale
 70
     0
300
1/4" = 1'-0"
140
0.25
141
12.0
290
     0
  0
SCALE
  5
4C
102
{ACAD_REACTORS
330
42
102
}
330
42
100
AcDbScale
 70
     0
300
3/8" = 1'-0"
140
0.375
141
12.0
290
     0
  0
SCALE
  5
4D
102
{ACAD_REACTORS
330
42
102
}
330
42
100
AcDbScale
 70
     0
300
1/2" = 1'-0"
140
0.5
141
12.0
290
     0
  0
SCALE
  5
4E
102
{ACAD_REACTORS
330
42
102
}
330
42
100
AcDbScale
 70
     0
300
3/4" = 1'-0"
140
0.75
141
12.0
290
     0
  0
SCALE
  5
4F
102
{ACAD_REACTORS
330
42
102
}
330
42
100
AcDbScale
 70
     0
300
1" = 1'-0"
140
1.0
141
12.0
290
     0
  0
SCALE
  5
50
102
{ACAD_REACTORS
330
42
102
}
330
42
100
AcDbScale
 70
     0
300
1-1/2" = 1'-0"
140
1.5
141
12.0
290
     0
  0
SCALE
  5
51
102
{ACAD_REACTORS
330
42
102
}
330
42
100
AcDbScale
 70
     0
300
3" = 1'-0"
140
3.0
141
12.0
290
     0
  0
SCALE
  5
52
102
{ACAD_REACTORS
330
42
102
}
330
42
100
AcDbScale
 70
     0
300
6" = 1'-0"
140
6.0
141
12.0
290
     0
  0
SCALE
  5
53
102
{ACAD_REACTORS
330
42
102
}
330
42
100
AcDbScale
 70
     0
300
1'-0" = 1'-0"
140
12.0
141
12.0
290
     0
  0
ACDBSECTIONVIEWSTYLE
  5
69
102
{ACAD_REACTORS
330
68
102
}
330
68
100
AcDbModelDocViewStyle
 70
     0
  3
Imperial24
290
     1
300
Imperial24
 90
        0
100
AcDbSectionViewStyle
 70
     0
 71
     0
 90
       78
 71
     1
340
55
 62
   256
 40
0.24
340
0
340
0
 62
   256
 40
0.24
300
I, O, Q, S, X, Z
 40
0.48
 90
        3
 40
0.18
 90
        1
 71
     2
340
5D
 90
       25
 62
   256
340
5D
 90
       50
 62
   256
 40
0.24
 40
0.0
 40
0.24
 71
     3
340
55
 62
   256
 40
0.24
 90
        1
 40
0.75
 90
        1
300
%<\AcVar ViewType \f "%tc1">% %<\AcVar ViewSectionStartId>%-%<\AcVar ViewSectionEndId>%\PSCALE %<\AcVar ViewScale \f "%sn">%
 71
     4
 62
   256
 62
   257
300
ANSI31
 40
1.0
 90
        0
290
     0
290
     0
 90
        6
 40
0.0
 40
1.570796326794896
 40
0.2617993877991494
 40
1.308996938995747
 40
-0.2617993877991494
 40
1.832595714594046
  0
TABLESTYLE
  5
65
102
{ACAD_XDICTIONARY
360
BC
102
}
102
{ACAD_REACTORS
330
64
102
}
330
64
100
AcDbTableStyle
280
     0
  3
Standard
 70
     0
 71
     0
 40
0.06
 41
0.06
280
     0
281
     0
  7
Standard
140
0.18
170
     2
 62
     0
 63
     7
283
     0
 90
      512
 91
        0
  1

274
    -2
284
     1
 64
     0
275
    -2
285
     1
 65
     0
276
    -2
286
     1
 66
     0
277
    -2
287
     1
 67
     0
278
    -2
288
     1
 68
     0
279
    -2
289
     1
 69
     0
  7
Standard
140
0.25
170
     5
 62
     0
 63
     7
283
     0
 90
      512
 91
        0
  1

274
    -2
284
     1
 64
     0
275
    -2
285
     1
 65
     0
276
    -2
286
     1
 66
     0
277
    -2
287
     1
 67
     0
278
    -2
288
     1
 68
     0
279
    -2
289
     1
 69
     0
  7
Standard
140
0.18
170
     5
 62
     0
 63
     7
283
     0
 90
      512
 91
        0
  1

274
    -2
284
     1
 64
     0
275
    -2
285
     1
 65
     0
276
    -2
286
     1
 66
     0
277
    -2
287
     1
 67
     0
278
    -2
288
     1
 68
     0
279
    -2
289
     1
 69
     0
  0
VISUALSTYLE
  5
2F
102
{ACAD_REACTORS
330
29
102
}
330
29
100
AcDbVisualStyle
  2
2dWireframe
 70
     4
177
     3
291
     0
 70
    58
 90
        0
176
     1
 90
        2
176
     1
 90
        0
176
     1
 90
        0
176
     1
 40
0.6
176
     1
 40
30.0
176
     1
 62
     7
420
 16777215
176
     1
 90
        1
176
     1
 90
        4
176
     1
 62
     7
176
     1
 62
   257
176
     1
 90
        1
176
     1
 90
        1
176
     1
 40
1.0
176
     1
 90
        0
176
     1
 62
   257
176
     1
 40
1.0
176
     1
 90
        1
176
     1
 90
        6
176
     1
 90
        2
176
     1
 62
     7
176
     1
 90
        5
176
     1
 90
        0
176
     1
 90
        0
176
     1
290
     0
176
     1
 90
        1
176
     1
 40
0.0
176
     1
 90
        0
176
     1
290
     1
176
     1
290
     1
176
     1
290
     0
176
     1
290
     0
176
     1
290
     0
176
     1
290
     0
176
     1
290
     0
176
     1
290
     0
176
     1
290
     0
176
     1
 90
       50
176
     1
 40
0.0
176
     1
 40
1.0
176
     1
 90
        0
176
     1
 62
    18
420
        0
176
     1
 90
       50
176
     1
 90
        3
176
     1
 62
     5
420
      255
176
     1
290
     0
176
     1
 90
       50
176
     1
 90
       50
176
     1
 90
       50
176
     1
290
     0
176
     1
 90
       50
176
     1
 62
   256
176
     0
 40
1.0
176
     0
 90
        2
176
     1
  1
strokes_ogs.tif
176
     1
290
     0
176
     1
 40
1.0
176
     1
 40
1.0
176
     1
  0
VISUALSTYLE
  5
2E
102
{ACAD_REACTORS
330
29
102
}
330
29
100
AcDbVisualStyle
  2
Basic
 70
     7
177
     3
291
     1
 70
    58
 90
        1
176
     1
 90
        0
176
     1
 90
        1
176
     1
 90
        0
176
     1
 40
0.6
176
     1
 40
30.0
176
     1
 62
     7
420
 16777215
176
     1
 90
        0
176
     1
 90
        4
176
     1
 62
     7
176
     1
 62
   257
176
     1
 90
        1
176
     1
 90
        1
176
     1
 40
1.0
176
     1
 90
        8
176
     1
 62
     7
176
     1
 40
1.0
176
     1
 90
        1
176
     1
 90
        6
176
     1
 90
        2
176
     1
 62
     7
176
     1
 90
        5
176
     1
 90
        0
176
     1
 90
        0
176
     1
290
     0
176
     1
 90
        1
176
     1
 40
0.0
176
     1
 90
        0
176
     1
290
     0
176
     1
290
     1
176
     1
290
     1
176
     1
290
     0
176
     1
290
     0
176
     1
290
     0
176
     1
290
     0
176
     1
290
     0
176
     1
290
     0
176
     1
 90
       50
176
     1
 40
0.0
176
     1
 40
1.0
176
     1
 90
        0
176
     1
 62
    18
420
        0
176
     1
 90
       50
176
     1
 90
        3
176
     1
 62
     5
420
      255
176
     1
290
     0
176
     1
 90
       50
176
     1
 90
       50
176
     1
 90
       50
176
     1
290
     0
176
     1
 90
       50
176
     1
 62
   256
176
     0
 40
1.0
176
     0
 90
        2
176
     1
  1
strokes_ogs.tif
176
     1
290
     0
176
     1
 40
1.0
176
     1
 40
1.0
176
     1
  0
VISUALSTYLE
  5
35
102
{ACAD_REACTORS
330
29
102
}
330
29
100
AcDbVisualStyle
  2
Brighten
 70
    12
177
     3
291
     1
 70
    58
 90
        2
176
     1
 90
        2
176
     1
 90
        0
176
     1
 90
        0
176
     1
 40
0.6
176
     1
 40
30.0
176
     1
 62
     7
420
 16777215
176
     1
 90
        1
176
     1
 90
        4
176
     1
 62
     7
176
     1
 62
   257
176
     1
 90
        1
176
     1
 90
        1
176
     1
 40
1.0
176
     1
 90
        8
176
     1
 62
     7
176
     1
 40
1.0
176
     1
 90
        1
176
     1
 90
        6
176
     1
 90
        2
176
     1
 62
     7
176
     1
 90
        5
176
     1
 90
        0
176
     1
 90
        0
176
     1
290
     0
176
     1
 90
        1
176
     1
 40
50.0
176
     1
 90
        0
176
     1
290
     0
176
     1
290
     1
176
     1
290
     1
176
     1
290
     0
176
     1
290
     0
176
     1
290
     0
176
     1
290
     0
176
     1
290
     0
176
     1
290
     0
176
     1
 90
       50
176
     1
 40
0.0
176
     1
 40
1.0
176
     1
 90
        0
176
     1
 62
    18
420
        0
176
     1
 90
       50
176
     1
 90
        3
176
     1
 62
     5
420
      255
176
     1
290
     0
176
     1
 90
       50
176
     1
 90
       50
176
     1
 90
       50
176
     1
290
     0
176
     1
 90
       50
176
     1
 62
   256
176
     0
 40
1.0
176
     0
 90
        2
176
     1
  1
strokes_ogs.tif
176
     1
290
     0
176
     1
 40
1.0
176
     1
 40
1.0
176
     1
  0
VISUALSTYLE
  5
39
102
{ACAD_REACTORS
330
29
102
}
330
29
100
AcDbVisualStyle
  2
ColorChange
 70
    16
177
     3
291
     1
 70
    58
 90
        2
176
     1
 90
        2
176
     1
 90
        3
176
     1
 90
        0
176
     1
 40
0.6
176
     1
 40
30.0
176
     1
 62
     8
420
  8421504
176
     1
 90
        1
176
     1
 90
        4
176
     1
 62
     7
176
     1
 62
   257
176
     1
 90
        1
176
     1
 90
        1
176
     1
 40
1.0
176
     1
 90
        8
176
     1
 62
     8
420
  8421504
176
     1
 40
1.0
176
     1
 90
        1
176
     1
 90
        6
176
     1
 90
        2
176
     1
 62
     7
176
     1
 90
        5
176
     1
 90
        0
176
     1
 90
        0
176
     1
290
     0
176
     1
 90
        1
176
     1
 40
0.0
176
     1
 90
        0
176
     1
290
     0
176
     1
290
     1
176
     1
290
     1
176
     1
290
     0
176
     1
290
     0
176
     1
290
     0
176
     1
290
     0
176
     1
290
     0
176
     1
290
     0
176
     1
 90
       50
176
     1
 40
0.0
176
     1
 40
1.0
176
     1
 90
        0
176
     1
 62
    18
420
        0
176
     1
 90
       50
176
     1
 90
        3
176
     1
 62
     5
420
      255
176
     1
290
     0
176
     1
 90
       50
176
     1
 90
       50
176
     1
 90
       50
176
     1
290
     0
176
     1
 90
       50
176
     1
 62
   256
176
     0
 40
1.0
176
     0
 90
        2
176
     1
  1
strokes_ogs.tif
176
     1
290
     0
176
     1
 40
1.0
176
     1
 40
1.0
176
     1
  0
VISUALSTYLE
  5
32
102
{ACAD_REACTORS
330
29
102
}
330
29
100
AcDbVisualStyle
  2
Conceptual
 70
     9
177
     3
291
     0
 70
    58
 90
        3
176
     1
 90
        2
176
     1
 90
        0
176
     1
 90
        0
176
     1
 40
0.6
176
     1
 40
30.0
176
     1
 62
     7
420
 16777215
176
     1
 90
        2
176
     1
 90
        2
176
     1
 62
     7
176
     1
 62
   257
176
     1
 90
        1
176
     1
 90
        1
176
     1
 40
179.0
176
     1
 90
        8
176
     1
 62
     7
176
     1
 40
1.0
176
     1
 90
        1
176
     1
 90
        6
176
     1
 90
        2
176
     1
 62
     7
176
     1
 90
        3
176
     1
 90
        0
176
     1
 90
        0
176
     1
290
     0
176
     1
 90
        1
176
     1
 40
0.0
176
     1
 90
        0
176
     1
290
     0
176
     1
290
     1
176
     1
290
     1
176
     1
290
     0
176
     1
290
     0
176
     1
290
     0
176
     1
290
     0
176
     1
290
     0
176
     1
290
     0
176
     1
 90
       50
176
     1
 40
0.0
176
     1
 40
1.0
176
     1
 90
        0
176
     1
 62
    18
420
        0
176
     1
 90
       50
176
     1
 90
        3
176
     1
 62
     5
420
      255
176
     1
290
     0
176
     1
 90
       50
176
     1
 90
       50
176
     1
 90
       50
176
     1
290
     0
176
     1
 90
       50
176
     1
 62
   256
176
     0
 40
1.0
176
     0
 90
        2
176
     1
  1
strokes_ogs.tif
176
     1
290
     0
176
     1
 40
1.0
176
     1
 40
1.0
176
     1
  0
VISUALSTYLE
  5
34
102
{ACAD_REACTORS
330
29
102
}
330
29
100
AcDbVisualStyle
  2
Dim
 70
    11
177
     3
291
     1
 70
    58
 90
        2
176
     1
 90
        2
176
     1
 90
        0
176
     1
 90
        0
176
     1
 40
0.6
176
     1
 40
30.0
176
     1
 62
     7
420
 16777215
176
     1
 90
        1
176
     1
 90
        4
176
     1
 62
     7
176
     1
 62
   257
176
     1
 90
        1
176
     1
 90
        1
176
     1
 40
1.0
176
     1
 90
        8
176
     1
 62
     7
176
     1
 40
1.0
176
     1
 90
        1
176
     1
 90
        6
176
     1
 90
        2
176
     1
 62
     7
176
     1
 90
        5
176
     1
 90
        0
176
     1
 90
        0
176
     1
290
     0
176
     1
 90
        1
176
     1
 40
-50.0
176
     1
 90
        0
176
     1
290
     0
176
     1
290
     1
176
     1
290
     1
176
     1
290
     0
176
     1
290
     0
176
     1
290
     0
176
     1
290
     0
176
     1
290
     0
176
     1
290
     0
176
     1
 90
       50
176
     1
 40
0.0
176
     1
 40
1.0
176
     1
 90
        0
176
     1
 62
    18
420
        0
176
     1
 90
       50
176
     1
 90
        3
176
     1
 62
     5
420
      255
176
     1
290
     0
176
     1
 90
       50
176
     1
 90
       50
176
     1
 90
       50
176
     1
290
     0
176
     1
 90
       50
176
     1
 62
   256
176
     0
 40
1.0
176
     0
 90
        2
176
     1
  1
strokes_ogs.tif
176
     1
290
     0
176
     1
 40
1.0
176
     1
 40
1.0
176
     1
  0
VISUALSTYLE
  5
41
102
{ACAD_REACTORS
330
29
102
}
330
29
100
AcDbVisualStyle
  2
EdgeColorOff
 70
    22
177
     3
291
     1
 70
    58
 90
        2
176
     0
 90
        2
176
     0
 90
        0
176
     0
 90
        0
176
     0
 40
0.6
176
     0
 40
30.0
176
     0
 62
     7
420
 16777215
176
     0
 90
        1
176
     0
 90
        4
176
     0
 62
     7
176
     0
 62
   257
176
     0
 90
        1
176
     0
 90
        1
176
     0
 40
1.0
176
     0
 90
        8
176
     2
 62
     7
176
     0
 40
1.0
176
     0
 90
        1
176
     0
 90
        6
176
     0
 90
        2
176
     0
 62
     7
176
     0
 90
        5
176
     0
 90
        0
176
     0
 90
        0
176
     0
290
     0
176
     0
 90
        1
176
     0
 40
0.0
176
     0
 90
        0
176
     0
290
     0
176
     0
290
     1
176
     0
290
     1
176
     0
290
     0
176
     0
290
     0
176
     0
290
     0
176
     0
290
     0
176
     0
290
     0
176
     0
290
     0
176
     0
 90
       50
176
     0
 40
0.0
176
     0
 40
1.0
176
     0
 90
        0
176
     0
 62
    18
420
        0
176
     0
 90
       50
176
     0
 90
        3
176
     0
 62
     5
420
      255
176
     0
290
     0
176
     0
 90
       50
176
     0
 90
       50
176
     0
 90
       50
176
     0
290
     0
176
     0
 90
       50
176
     0
 62
   256
176
     0
 40
1.0
176
     0
 90
        2
176
     0
  1
strokes_ogs.tif
176
     0
290
     0
176
     0
 40
1.0
176
     0
 40
1.0
176
     0
  0
VISUALSTYLE
  5
38
102
{ACAD_REACTORS
330
29
102
}
330
29
100
AcDbVisualStyle
  2
Facepattern
 70
    15
177
     3
291
     1
 70
    58
 90
        2
176
     1
 90
        2
176
     1
 90
        0
176
     1
 90
        0
176
     1
 40
0.6
176
     1
 40
30.0
176
     1
 62
     7
420
 16777215
176
     1
 90
        1
176
     1
 90
        4
176
     1
 62
     7
176
     1
 62
   257
176
     1
 90
        1
176
     1
 90
        1
176
     1
 40
1.0
176
     1
 90
        8
176
     1
 62
     7
176
     1
 40
1.0
176
     1
 90
        1
176
     1
 90
        6
176
     1
 90
        2
176
     1
 62
     7
176
     1
 90
        5
176
     1
 90
        0
176
     1
 90
        0
176
     1
290
     0
176
     1
 90
        1
176
     1
 40
0.0
176
     1
 90
        0
176
     1
290
     0
176
     1
290
     1
176
     1
290
     1
176
     1
290
     0
176
     1
290
     0
176
     1
290
     0
176
     1
290
     0
176
     1
290
     0
176
     1
290
     0
176
     1
 90
       50
176
     1
 40
0.0
176
     1
 40
1.0
176
     1
 90
        0
176
     1
 62
    18
420
        0
176
     1
 90
       50
176
     1
 90
        3
176
     1
 62
     5
420
      255
176
     1
290
     0
176
     1
 90
       50
176
     1
 90
       50
176
     1
 90
       50
176
     1
290
     0
176
     1
 90
       50
176
     1
 62
   256
176
     0
 40
1.0
176
     0
 90
        2
176
     1
  1
strokes_ogs.tif
176
     1
290
     0
176
     1
 40
1.0
176
     1
 40
1.0
176
     1
  0
VISUALSTYLE
  5
2A
102
{ACAD_REACTORS
330
29
102
}
330
29
100
AcDbVisualStyle
  2
Flat
 70
     0
177
     3
291
     1
 70
    58
 90
        2
176
     1
 90
        1
176
     1
 90
        1
176
     1
 90
        2
176
     1
 40
0.6
176
     1
 40
30.0
176
     1
 62
     7
420
 16777215
176
     1
 90
        0
176
     1
 90
        0
176
     1
 62
     7
176
     1
 62
   257
176
     1
 90
        1
176
     1
 90
        1
176
     1
 40
1.0
176
     1
 90
        8
176
     1
 62
     7
176
     1
 40
1.0
176
     1
 90
        1
176
     1
 90
        6
176
     1
 90
        2
176
     1
 62
     7
176
     1
 90
        5
176
     1
 90
        0
176
     1
 90
        0
176
     1
290
     0
176
     1
 90
       13
176
     1
 40
0.0
176
     1
 90
        0
176
     1
290
     0
176
     1
290
     1
176
     1
290
     1
176
     1
290
     0
176
     1
290
     0
176
     1
290
     0
176
     1
290
     0
176
     1
290
     0
176
     1
290
     0
176
     1
 90
       50
176
     1
 40
0.0
176
     1
 40
1.0
176
     1
 90
        0
176
     1
 62
    18
420
        0
176
     1
 90
       50
176
     1
 90
        3
176
     1
 62
     5
420
      255
176
     1
290
     0
176
     1
 90
       50
176
     1
 90
       50
176
     1
 90
       50
176
     1
290
     0
176
     1
 90
       50
176
     1
 62
   256
176
     0
 40
1.0
176
     0
 90
        2
176
     1
  1
strokes_ogs.tif
176
     1
290
     0
176
     1
 40
1.0
176
     1
 40
1.0
176
     1
  0
VISUALSTYLE
  5
2B
102
{ACAD_REACTORS
330
29
102
}
330
29
100
AcDbVisualStyle
  2
FlatWithEdges
 70
     1
177
     3
291
     1
 70
    58
 90
        2
176
     1
 90
        1
176
     1
 90
        1
176
     1
 90
        2
176
     1
 40
0.6
176
     1
 40
30.0
176
     1
 62
     7
420
 16777215
176
     1
 90
        1
176
     1
 90
        0
176
     1
 62
     7
176
     1
 62
   257
176
     1
 90
        1
176
     1
 90
        1
176
     1
 40
1.0
176
     1
 90
        0
176
     1
 62
   257
176
     1
 40
1.0
176
     1
 90
        1
176
     1
 90
        6
176
     1
 90
        2
176
     1
 62
     7
176
     1
 90
        5
176
     1
 90
        0
176
     1
 90
        0
176
     1
290
     0
176
     1
 90
       13
176
     1
 40
0.0
176
     1
 90
        0
176
     1
290
     0
176
     1
290
     1
176
     1
290
     1
176
     1
290
     0
176
     1
290
     0
176
     1
290
     0
176
     1
290
     0
176
     1
290
     0
176
     1
290
     0
176
     1
 90
       50
176
     1
 40
0.0
176
     1
 40
1.0
176
     1
 90
        0
176
     1
 62
    18
420
        0
176
     1
 90
       50
176
     1
 90
        3
176
     1
 62
     5
420
      255
176
     1
290
     0
176
     1
 90
       50
176
     1
 90
       50
176
     1
 90
       50
176
     1
290
     0
176
     1
 90
       50
176
     1
 62
   256
176
     0
 40
1.0
176
     0
 90
        2
176
     1
  1
strokes_ogs.tif
176
     1
290
     0
176
     1
 40
1.0
176
     1
 40
1.0
176
     1
  0
VISUALSTYLE
  5
2C
102
{ACAD_REACTORS
330
29
102
}
330
29
100
AcDbVisualStyle
  2
Gouraud
 70
     2
177
     3
291
     1
 70
    58
 90
        2
176
     1
 90
        2
176
     1
 90
        1
176
     1
 90
        2
176
     1
 40
0.6
176
     1
 40
30.0
176
     1
 62
     7
420
 16777215
176
     1
 90
        0
176
     1
 90
        0
176
     1
 62
     7
176
     1
 62
   257
176
     1
 90
        1
176
     1
 90
        1
176
     1
 40
1.0
176
     1
 90
        0
176
     1
 62
     7
176
     1
 40
1.0
176
     1
 90
        1
176
     1
 90
        6
176
     1
 90
        2
176
     1
 62
     7
176
     1
 90
        5
176
     1
 90
        0
176
     1
 90
        0
176
     1
290
     0
176
     1
 90
       13
176
     1
 40
0.0
176
     1
 90
        0
176
     1
290
     0
176
     1
290
     1
176
     1
290
     1
176
     1
290
     0
176
     1
290
     0
176
     1
290
     0
176
     1
290
     0
176
     1
290
     0
176
     1
290
     0
176
     1
 90
       50
176
     1
 40
0.0
176
     1
 40
1.0
176
     1
 90
        0
176
     1
 62
    18
420
        0
176
     1
 90
       50
176
     1
 90
        3
176
     1
 62
     5
420
      255
176
     1
290
     0
176
     1
 90
       50
176
     1
 90
       50
176
     1
 90
       50
176
     1
290
     0
176
     1
 90
       50
176
     1
 62
   256
176
     0
 40
1.0
176
     0
 90
        2
176
     1
  1
strokes_ogs.tif
176
     1
290
     0
176
     1
 40
1.0
176
     1
 40
1.0
176
     1
  0
VISUALSTYLE
  5
2D
102
{ACAD_REACTORS
330
29
102
}
330
29
100
AcDbVisualStyle
  2
GouraudWithEdges
 70
     3
177
     3
291
     1
 70
    58
 90
        2
176
     1
 90
        2
176
     1
 90
        1
176
     1
 90
        2
176
     1
 40
0.6
176
     1
 40
30.0
176
     1
 62
     7
420
 16777215
176
     1
 90
        1
176
     1
 90
        0
176
     1
 62
     7
176
     1
 62
   257
176
     1
 90
        1
176
     1
 90
        1
176
     1
 40
1.0
176
     1
 90
        0
176
     1
 62
   257
176
     1
 40
1.0
176
     1
 90
        1
176
     1
 90
        6
176
     1
 90
        2
176
     1
 62
     7
176
     1
 90
        5
176
     1
 90
        0
176
     1
 90
        0
176
     1
290
     0
176
     1
 90
       13
176
     1
 40
0.0
176
     1
 90
        0
176
     1
290
     0
176
     1
290
     1
176
     1
290
     1
176
     1
290
     0
176
     1
290
     0
176
     1
290
     0
176
     1
290
     0
176
     1
290
     0
176
     1
290
     0
176
     1
 90
       50
176
     1
 40
0.0
176
     1
 40
1.0
176
     1
 90
        0
176
     1
 62
    18
420
        0
176
     1
 90
       50
176
     1
 90
        3
176
     1
 62
     5
420
      255
176
     1
290
     0
176
     1
 90
       50
176
     1
 90
       50
176
     1
 90
       50
176
     1
290
     0
176
     1
 90
       50
176
     1
 62
   256
176
     0
 40
1.0
176
     0
 90
        2
176
     1
  1
strokes_ogs.tif
176
     1
290
     0
176
     1
 40
1.0
176
     1
 40
1.0
176
     1
  0
VISUALSTYLE
  5
31
102
{ACAD_REACTORS
330
29
102
}
330
29
100
AcDbVisualStyle
  2
Hidden
 70
     6
177
     3
291
     0
 70
    58
 90
        1
176
     1
 90
        2
176
     1
 90
        2
176
     1
 90
        0
176
     1
 40
0.6
176
     1
 40
30.0
176
     1
 62
     7
420
 16777215
176
     1
 90
        2
176
     1
 90
        2
176
     1
 62
     7
176
     1
 62
   257
176
     1
 90
        2
176
     1
 90
        1
176
     1
 40
40.0
176
     1
 90
        0
176
     1
 62
   257
176
     1
 40
1.0
176
     1
 90
        1
176
     1
 90
        6
176
     1
 90
        2
176
     1
 62
     7
176
     1
 90
        3
176
     1
 90
        0
176
     1
 90
        0
176
     1
290
     0
176
     1
 90
        1
176
     1
 40
0.0
176
     1
 90
        0
176
     1
290
     0
176
     1
290
     1
176
     1
290
     1
176
     1
290
     0
176
     1
290
     0
176
     1
290
     0
176
     1
290
     0
176
     1
290
     0
176
     1
290
     0
176
     1
 90
       50
176
     1
 40
0.0
176
     1
 40
1.0
176
     1
 90
        0
176
     1
 62
    18
420
        0
176
     1
 90
       50
176
     1
 90
        3
176
     1
 62
     5
420
      255
176
     1
290
     0
176
     1
 90
       50
176
     1
 90
       50
176
     1
 90
       50
176
     1
290
     0
176
     1
 90
       50
176
     1
 62
   256
176
     0
 40
1.0
176
     0
 90
        2
176
     1
  1
strokes_ogs.tif
176
     1
290
     0
176
     1
 40
1.0
176
     1
 40
1.0
176
     1
  0
VISUALSTYLE
  5
3F
102
{ACAD_REACTORS
330
29
102
}
330
29
100
AcDbVisualStyle
  2
JitterOff
 70
    20
177
     3
291
     1
 70
    58
 90
        2
176
     0
 90
        2
176
     0
 90
        0
176
     0
 90
        0
176
     0
 40
0.6
176
     0
 40
30.0
176
     0
 62
     7
420
 16777215
176
     0
 90
        1
176
     0
 90
        4
176
     0
 62
     7
176
     0
 62
   257
176
     0
 90
        1
176
     0
 90
        1
176
     0
 40
1.0
176
     0
 90
       10
176
     2
 62
     7
176
     0
 40
1.0
176
     0
 90
        1
176
     0
 90
        6
176
     0
 90
        2
176
     0
 62
     7
176
     0
 90
        5
176
     0
 90
        0
176
     0
 90
        0
176
     0
290
     0
176
     0
 90
        1
176
     0
 40
0.0
176
     0
 90
        0
176
     0
290
     0
176
     0
290
     1
176
     0
290
     1
176
     0
290
     0
176
     0
290
     0
176
     0
290
     0
176
     0
290
     0
176
     0
290
     0
176
     0
290
     0
176
     0
 90
       50
176
     0
 40
0.0
176
     0
 40
1.0
176
     0
 90
        0
176
     0
 62
    18
420
        0
176
     0
 90
       50
176
     0
 90
        3
176
     0
 62
     5
420
      255
176
     0
290
     0
176
     0
 90
       50
176
     0
 90
       50
176
     0
 90
       50
176
     0
290
     0
176
     0
 90
       50
176
     0
 62
   256
176
     0
 40
1.0
176
     0
 90
        2
176
     0
  1
strokes_ogs.tif
176
     0
290
     0
176
     0
 40
1.0
176
     0
 40
1.0
176
     0
  0
VISUALSTYLE
  5
37
102
{ACAD_REACTORS
330
29
102
}
330
29
100
AcDbVisualStyle
  2
Linepattern
 70
    14
177
     3
291
     1
 70
    58
 90
        2
176
     1
 90
        2
176
     1
 90
        0
176
     1
 90
        0
176
     1
 40
0.6
176
     1
 40
30.0
176
     1
 62
     7
420
 16777215
176
     1
 90
        1
176
     1
 90
        4
176
     1
 62
     7
176
     1
 62
   257
176
     1
 90
        7
176
     1
 90
        7
176
     1
 40
1.0
176
     1
 90
        8
176
     1
 62
     7
176
     1
 40
1.0
176
     1
 90
        1
176
     1
 90
        6
176
     1
 90
        2
176
     1
 62
     7
176
     1
 90
        5
176
     1
 90
        0
176
     1
 90
        0
176
     1
290
     0
176
     1
 90
        1
176
     1
 40
0.0
176
     1
 90
        0
176
     1
290
     0
176
     1
290
     1
176
     1
290
     1
176
     1
290
     0
176
     1
290
     0
176
     1
290
     0
176
     1
290
     0
176
     1
290
     0
176
     1
290
     0
176
     1
 90
       50
176
     1
 40
0.0
176
     1
 40
1.0
176
     1
 90
        0
176
     1
 62
    18
420
        0
176
     1
 90
       50
176
     1
 90
        3
176
     1
 62
     5
420
      255
176
     1
290
     0
176
     1
 90
       50
176
     1
 90
       50
176
     1
 90
       50
176
     1
290
     0
176
     1
 90
       50
176
     1
 62
   256
176
     0
 40
1.0
176
     0
 90
        2
176
     1
  1
strokes_ogs.tif
176
     1
290
     0
176
     1
 40
1.0
176
     1
 40
1.0
176
     1
  0
VISUALSTYLE
  5
40
102
{ACAD_REACTORS
330
29
102
}
330
29
100
AcDbVisualStyle
  2
OverhangOff
 70
    21
177
     3
291
     1
 70
    58
 90
        2
176
     0
 90
        2
176
     0
 90
        0
176
     0
 90
        0
176
     0
 40
0.6
176
     0
 40
30.0
176
     0
 62
     7
420
 16777215
176
     0
 90
        1
176
     0
 90
        4
176
     0
 62
     7
176
     0
 62
   257
176
     0
 90
        1
176
     0
 90
        1
176
     0
 40
1.0
176
     0
 90
        9
176
     2
 62
     7
176
     0
 40
1.0
176
     0
 90
        1
176
     0
 90
        6
176
     0
 90
        2
176
     0
 62
     7
176
     0
 90
        5
176
     0
 90
        0
176
     0
 90
        0
176
     0
290
     0
176
     0
 90
        1
176
     0
 40
0.0
176
     0
 90
        0
176
     0
290
     0
176
     0
290
     1
176
     0
290
     1
176
     0
290
     0
176
     0
290
     0
176
     0
290
     0
176
     0
290
     0
176
     0
290
     0
176
     0
290
     0
176
     0
 90
       50
176
     0
 40
0.0
176
     0
 40
1.0
176
     0
 90
        0
176
     0
 62
    18
420
        0
176
     0
 90
       50
176
     0
 90
        3
176
     0
 62
     5
420
      255
176
     0
290
     0
176
     0
 90
       50
176
     0
 90
       50
176
     0
 90
       50
176
     0
290
     0
176
     0
 90
       50
176
     0
 62
   256
176
     0
 40
1.0
176
     0
 90
        2
176
     0
  1
strokes_ogs.tif
176
     0
290
     0
176
     0
 40
1.0
176
     0
 40
1.0
176
     0
  0
VISUALSTYLE
  5
33
102
{ACAD_REACTORS
330
29
102
}
330
29
100
AcDbVisualStyle
  2
Realistic
 70
     8
177
     3
291
     0
 70
    58
 90
        2
176
     1
 90
        3
176
     1
 90
        0
176
     1
 90
        2
176
     1
 40
0.6
176
     1
 40
30.0
176
     1
 62
     7
420
 16777215
176
     1
 90
        0
176
     1
 90
        0
176
     1
 62
     7
176
     1
 62
   257
176
     1
 90
        1
176
     1
 90
        1
176
     1
 40
1.0
176
     1
 90
        8
176
     1
 62
   257
176
     1
 40
1.0
176
     1
 90
        1
176
     1
 90
        6
176
     1
 90
        2
176
     1
 62
     7
176
     1
 90
        3
176
     1
 90
        0
176
     1
 90
        0
176
     1
290
     0
176
     1
 90
       13
176
     1
 40
0.0
176
     1
 90
        0
176
     1
290
     0
176
     1
290
     1
176
     1
290
     1
176
     1
290
     0
176
     1
290
     0
176
     1
290
     0
176
     1
290
     0
176
     1
290
     0
176
     1
290
     0
176
     1
 90
       50
176
     1
 40
0.0
176
     1
 40
1.0
176
     1
 90
        0
176
     1
 62
    18
420
        0
176
     1
 90
       50
176
     1
 90
        3
176
     1
 62
     5
420
      255
176
     1
290
     0
176
     1
 90
       50
176
     1
 90
       50
176
     1
 90
       50
176
     1
290
     0
176
     1
 90
       50
176
     1
 62
   256
176
     0
 40
1.0
176
     0
 90
        2
176
     1
  1
strokes_ogs.tif
176
     1
290
     0
176
     1
 40
1.0
176
     1
 40
1.0
176
     1
  0
VISUALSTYLE
  5
3E
102
{ACAD_REACTORS
330
29
102
}
330
29
100
AcDbVisualStyle
  2
Shaded
 70
    27
177
     3
291
     0
 70
    58
 90
        2
176
     1
 90
        2
176
     1
 90
        1
176
     1
 90
        2
176
     1
 40
0.6
176
     1
 40
30.0
176
     1
 62
     7
420
 16777215
176
     1
 90
        0
176
     1
 90
        4
176
     1
 62
     7
176
     1
 62
   257
176
     1
 90
        1
176
     1
 90
        1
176
     1
 40
1.0
176
     1
 90
        8
176
     1
 62
   257
176
     1
 40
1.0
176
     1
 90
        1
176
     1
 90
        6
176
     1
 90
        2
176
     1
 62
     8
420
  7895160
176
     1
 90
        3
176
     1
 90
        0
176
     1
 90
        0
176
     1
290
     0
176
     1
 90
        5
176
     1
 40
0.0
176
     1
 90
        0
176
     1
290
     0
176
     1
290
     1
176
     1
290
     1
176
     1
290
     0
176
     1
290
     0
176
     1
290
     0
176
     1
290
     0
176
     1
290
     0
176
     1
290
     0
176
     1
 90
       50
176
     1
 40
0.0
176
     1
 40
1.0
176
     1
 90
        0
176
     1
 62
    18
420
        0
176
     1
 90
       50
176
     1
 90
        3
176
     1
 62
     5
420
      255
176
     1
290
     0
176
     1
 90
       50
176
     1
 90
       50
176
     1
 90
       50
176
     1
290
     0
176
     1
 90
       50
176
     1
 62
   256
176
     0
 40
1.0
176
     0
 90
        2
176
     1
  1
strokes_ogs.tif
176
     1
290
     0
176
     1
 40
1.0
176
     1
 40
1.0
176
     1
  0
VISUALSTYLE
  5
3D
102
{ACAD_REACTORS
330
29
102
}
330
29
100
AcDbVisualStyle
  2
Shaded with edges
 70
    26
177
     3
291
     0
 70
    58
 90
        2
176
     1
 90
        2
176
     1
 90
        1
176
     1
 90
        2
176
     1
 40
0.6
176
     1
 40
30.0
176
     1
 62
     7
420
 16777215
176
     1
 90
        1
176
     1
 90
        2
176
     1
 62
     7
176
     1
 62
   257
176
     1
 90
        2
176
     1
 90
        1
176
     1
 40
1.0
176
     1
 90
        8
176
     1
 62
   257
176
     1
 40
1.0
176
     1
 90
        1
176
     1
 90
        6
176
     1
 90
        2
176
     1
 62
     7
176
     1
 90
        3
176
     1
 90
        0
176
     1
 90
        0
176
     1
290
     0
176
     1
 90
        5
176
     1
 40
0.0
176
     1
 90
        0
176
     1
290
     0
176
     1
290
     1
176
     1
290
     1
176
     1
290
     0
176
     1
290
     0
176
     1
290
     0
176
     1
290
     0
176
     1
290
     0
176
     1
290
     0
176
     1
 90
       50
176
     1
 40
0.0
176
     1
 40
1.0
176
     1
 90
        0
176
     1
 62
    18
420
        0
176
     1
 90
       50
176
     1
 90
        3
176
     1
 62
     5
420
      255
176
     1
290
     0
176
     1
 90
       50
176
     1
 90
       50
176
     1
 90
       50
176
     1
290
     0
176
     1
 90
       50
176
     1
 62
   256
176
     0
 40
1.0
176
     0
 90
        2
176
     1
  1
strokes_ogs.tif
176
     1
290
     0
176
     1
 40
1.0
176
     1
 40
1.0
176
     1
  0
VISUALSTYLE
  5
3A
102
{ACAD_REACTORS
330
29
102
}
330
29
100
AcDbVisualStyle
  2
Shades of Gray
 70
    23
177
     3
291
     0
 70
    58
 90
        2
176
     1
 90
        2
176
     1
 90
        3
176
     1
 90
        0
176
     1
 40
0.6
176
     1
 40
30.0
176
     1
 62
     7
420
 16777215
176
     1
 90
        2
176
     1
 90
        2
176
     1
 62
     7
176
     1
 62
     7
176
     1
 90
        1
176
     1
 90
        1
176
     1
 40
40.0
176
     1
 90
        8
176
     1
 62
     7
176
     1
 40
1.0
176
     1
 90
        1
176
     1
 90
        6
176
     1
 90
        2
176
     1
 62
     7
176
     1
 90
        3
176
     1
 90
        0
176
     1
 90
        0
176
     1
290
     0
176
     1
 90
        1
176
     1
 40
0.0
176
     1
 90
        0
176
     1
290
     0
176
     1
290
     1
176
     1
290
     1
176
     1
290
     0
176
     1
290
     0
176
     1
290
     0
176
     1
290
     0
176
     1
290
     0
176
     1
290
     0
176
     1
 90
       50
176
     1
 40
0.0
176
     1
 40
1.0
176
     1
 90
        0
176
     1
 62
    18
420
        0
176
     1
 90
       50
176
     1
 90
        3
176
     1
 62
     5
420
      255
176
     1
290
     0
176
     1
 90
       50
176
     1
 90
       50
176
     1
 90
       50
176
     1
290
     0
176
     1
 90
       50
176
     1
 62
   256
176
     0
 40
1.0
176
     0
 90
        2
176
     1
  1
strokes_ogs.tif
176
     1
290
     0
176
     1
 40
1.0
176
     1
 40
1.0
176
     1
  0
VISUALSTYLE
  5
3B
102
{ACAD_REACTORS
330
29
102
}
330
29
100
AcDbVisualStyle
  2
Sketchy
 70
    24
177
     3
291
     0
 70
    58
 90
        1
176
     1
 90
        2
176
     1
 90
        2
176
     1
 90
        0
176
     1
 40
0.6
176
     1
 40
30.0
176
     1
 62
     7
420
 16777215
176
     1
 90
        2
176
     1
 90
        2
176
     1
 62
     7
176
     1
 62
     7
176
     1
 90
        1
176
     1
 90
        1
176
     1
 40
40.0
176
     1
 90
       11
176
     1
 62
     7
176
     1
 40
1.0
176
     1
 90
        1
176
     1
 90
        6
176
     1
 90
        2
176
     1
 62
     7
176
     1
 90
        6
176
     1
 90
        0
176
     1
 90
        0
176
     1
290
     0
176
     1
 90
        1
176
     1
 40
0.0
176
     1
 90
        0
176
     1
290
     0
176
     1
290
     1
176
     1
290
     1
176
     1
290
     0
176
     1
290
     0
176
     1
290
     0
176
     1
290
     0
176
     1
290
     0
176
     1
290
     0
176
     1
 90
       50
176
     1
 40
0.0
176
     1
 40
1.0
176
     1
 90
        0
176
     1
 62
    18
420
        0
176
     1
 90
       50
176
     1
 90
        3
176
     1
 62
     5
420
      255
176
     1
290
     0
176
     1
 90
       50
176
     1
 90
       50
176
     1
 90
       50
176
     1
290
     0
176
     1
 90
       50
176
     1
 62
   256
176
     0
 40
1.0
176
     0
 90
        2
176
     1
  1
strokes_ogs.tif
176
     1
290
     0
176
     1
 40
1.0
176
     1
 40
1.0
176
     1
  0
VISUALSTYLE
  5
36
102
{ACAD_REACTORS
330
29
102
}
330
29
100
AcDbVisualStyle
  2
Thicken
 70
    13
177
     3
291
     1
 70
    58
 90
        2
176
     1
 90
        2
176
     1
 90
        0
176
     1
 90
        0
176
     1
 40
0.6
176
     1
 40
30.0
176
     1
 62
     7
420
 16777215
176
     1
 90
        1
176
     1
 90
        4
176
     1
 62
     7
176
     1
 62
   257
176
     1
 90
        1
176
     1
 90
        1
176
     1
 40
1.0
176
     1
 90
       12
176
     1
 62
     7
176
     1
 40
1.0
176
     1
 90
        1
176
     1
 90
        6
176
     1
 90
        2
176
     1
 62
     7
176
     1
 90
        5
176
     1
 90
        0
176
     1
 90
        0
176
     1
290
     0
176
     1
 90
        1
176
     1
 40
0.0
176
     1
 90
        0
176
     1
290
     0
176
     1
290
     1
176
     1
290
     1
176
     1
290
     0
176
     1
290
     0
176
     1
290
     0
176
     1
290
     0
176
     1
290
     0
176
     1
290
     0
176
     1
 90
       50
176
     1
 40
0.0
176
     1
 40
1.0
176
     1
 90
        0
176
     1
 62
    18
420
        0
176
     1
 90
       50
176
     1
 90
        3
176
     1
 62
     5
420
      255
176
     1
290
     0
176
     1
 90
       50
176
     1
 90
       50
176
     1
 90
       50
176
     1
290
     0
176
     1
 90
       50
176
     1
 62
   256
176
     0
 40
1.0
176
     0
 90
        2
176
     1
  1
strokes_ogs.tif
176
     1
290
     0
176
     1
 40
1.0
176
     1
 40
1.0
176
     1
  0
VISUALSTYLE
  5
30
102
{ACAD_REACTORS
330
29
102
}
330
29
100
AcDbVisualStyle
  2
Wireframe
 70
     5
177
     3
291
     0
 70
    58
 90
        0
176
     1
 90
        2
176
     1
 90
        0
176
     1
 90
        0
176
     1
 40
0.6
176
     1
 40
30.0
176
     1
 62
     7
420
 16777215
176
     1
 90
        1
176
     1
 90
        4
176
     1
 62
     7
176
     1
 62
   257
176
     1
 90
        1
176
     1
 90
        1
176
     1
 40
1.0
176
     1
 90
        0
176
     1
 62
   257
176
     1
 40
1.0
176
     1
 90
        1
176
     1
 90
        6
176
     1
 90
        2
176
     1
 62
     7
176
     1
 90
        3
176
     1
 90
        0
176
     1
 90
        0
176
     1
290
     0
176
     1
 90
        1
176
     1
 40
0.0
176
     1
 90
        0
176
     1
290
     0
176
     1
290
     1
176
     1
290
     1
176
     1
290
     0
176
     1
290
     0
176
     1
290
     0
176
     1
290
     0
176
     1
290
     0
176
     1
290
     0
176
     1
 90
       50
176
     1
 40
0.0
176
     1
 40
1.0
176
     1
 90
        0
176
     1
 62
    18
420
        0
176
     1
 90
       50
176
     1
 90
        3
176
     1
 62
     5
420
      255
176
     1
290
     0
176
     1
 90
       50
176
     1
 90
       50
176
     1
 90
       50
176
     1
290
     0
176
     1
 90
       50
176
     1
 62
   256
176
     0
 40
1.0
176
     0
 90
        2
176
     1
  1
strokes_ogs.tif
176
     1
290
     0
176
     1
 40
1.0
176
     1
 40
1.0
176
     1
  0
VISUALSTYLE
  5
3C
102
{ACAD_REACTORS
330
29
102
}
330
29
100
AcDbVisualStyle
  2
X-Ray
 70
    25
177
     3
291
     0
 70
    58
 90
        2
176
     1
 90
        2
176
     1
 90
        1
176
     1
 90
        1
176
     1
 40
0.5
176
     1
 40
30.0
176
     1
 62
     7
420
 16777215
176
     1
 90
        1
176
     1
 90
        0
176
     1
 62
     7
176
     1
 62
   257
176
     1
 90
        1
176
     1
 90
        1
176
     1
 40
1.0
176
     1
 90
        8
176
     1
 62
     7
176
     1
 40
1.0
176
     1
 90
        1
176
     1
 90
        6
176
     1
 90
        2
176
     1
 62
     7
176
     1
 90
        3
176
     1
 90
        0
176
     1
 90
        0
176
     1
290
     0
176
     1
 90
       13
176
     1
 40
0.0
176
     1
 90
        0
176
     1
290
     0
176
     1
290
     1
176
     1
290
     1
176
     1
290
     0
176
     1
290
     0
176
     1
290
     0
176
     1
290
     0
176
     1
290
     0
176
     1
290
     0
176
     1
 90
       50
176
     1
 40
0.0
176
     1
 40
1.0
176
     1
 90
        0
176
     1
 62
    18
420
        0
176
     1
 90
       50
176
     1
 90
        3
176
     1
 62
     5
420
      255
176
     1
290
     0
176
     1
 90
       50
176
     1
 90
       50
176
     1
 90
       50
176
     1
290
     0
176
     1
 90
       50
176
     1
 62
   256
176
     0
 40
1.0
176
     0
 90
        2
176
     1
  1
strokes_ogs.tif
176
     1
290
     0
176
     1
 40
1.0
176
     1
 40
1.0
176
     1
  0
DICTIONARYVAR
  5
BB
102
{ACAD_REACTORS
330
B6
102
}
330
B6
100
DictionaryVariables
280
     0
  1
1:1
  0
DICTIONARYVAR
  5
B8
102
{ACAD_REACTORS
330
B6
102
}
330
B6
100
DictionaryVariables
280
     0
  1
STANDARD
  0
DICTIONARYVAR
  5
B7
102
{ACAD_REACTORS
330
B6
102
}
330
B6
100
DictionaryVariables
280
     0
  1
STANDARD
  0
DICTIONARYVAR
  5
B9
102
{ACAD_REACTORS
330
B6
102
}
330
B6
100
DictionaryVariables
280
     0
  1
Imperial24
  0
DICTIONARYVAR
  5
BA
102
{ACAD_REACTORS
330
B6
102
}
330
B6
100
DictionaryVariables
280
     0
  1
Imperial24
  0
DICTIONARY
  5
1A
330
19
100
AcDbDictionary
280
     1
281
     1
  3
BUMPTILE
360
1C
  3
DIFFUSETILE
360
1B
  3
OPACITYTILE
360
1F
  3
REFLECTIONTILE
360
1E
  3
REFRACTIONTILE
360
20
  3
SPECULARTILE
360
1D
  0
DICTIONARY
  5
12
330
11
100
AcDbDictionary
280
     1
281
     1
  3
BUMPTILE
360
14
  3
DIFFUSETILE
360
13
  3
OPACITYTILE
360
17
  3
REFLECTIONTILE
360
16
  3
REFRACTIONTILE
360
18
  3
SPECULARTILE
360
15
  0
DICTIONARY
  5
22
330
21
100
AcDbDictionary
280
     1
281
     1
  3
BUMPTILE
360
24
  3
DIFFUSETILE
360
23
  3
OPACITYTILE
360
27
  3
REFLECTIONTILE
360
26
  3
REFRACTIONTILE
360
28
  3
SPECULARTILE
360
25
  0
DICTIONARY
  5
BC
330
65
100
AcDbDictionary
280
     1
281
     1
  3
ACAD_ROUNDTRIP_2008_TABLESTYLE_CELLSTYLEMAP
360
BD
  0
XRECORD
  5
1C
102
{ACAD_REACTORS
330
1A
102
}
330
1A
100
AcDbXrecord
280
     1
270
     1
271
     1
  0
XRECORD
  5
1B
102
{ACAD_REACTORS
330
1A
102
}
330
1A
100
AcDbXrecord
280
     1
270
     1
271
     1
  0
XRECORD
  5
1F
102
{ACAD_REACTORS
330
1A
102
}
330
1A
100
AcDbXrecord
280
     1
270
     1
271
     1
  0
XRECORD
  5
1E
102
{ACAD_REACTORS
330
1A
102
}
330
1A
100
AcDbXrecord
280
     1
270
     1
271
     1
  0
XRECORD
  5
20
102
{ACAD_REACTORS
330
1A
102
}
330
1A
100
AcDbXrecord
280
     1
270
     1
271
     1
  0
XRECORD
  5
1D
102
{ACAD_REACTORS
330
1A
102
}
330
1A
100
AcDbXrecord
280
     1
270
     1
271
     1
  0
XRECORD
  5
14
102
{ACAD_REACTORS
330
12
102
}
330
12
100
AcDbXrecord
280
     1
270
     1
271
     1
  0
XRECORD
  5
13
102
{ACAD_REACTORS
330
12
102
}
330
12
100
AcDbXrecord
280
     1
270
     1
271
     1
  0
XRECORD
  5
17
102
{ACAD_REACTORS
330
12
102
}
330
12
100
AcDbXrecord
280
     1
270
     1
271
     1
  0
XRECORD
  5
16
102
{ACAD_REACTORS
330
12
102
}
330
12
100
AcDbXrecord
280
     1
270
     1
271
     1
  0
XRECORD
  5
18
102
{ACAD_REACTORS
330
12
102
}
330
12
100
AcDbXrecord
280
     1
270
     1
271
     1
  0
XRECORD
  5
15
102
{ACAD_REACTORS
330
12
102
}
330
12
100
AcDbXrecord
280
     1
270
     1
271
     1
  0
XRECORD
  5
24
102
{ACAD_REACTORS
330
22
102
}
330
22
100
AcDbXrecord
280
     1
270
     1
271
     1
  0
XRECORD
  5
23
102
{ACAD_REACTORS
330
22
102
}
330
22
100
AcDbXrecord
280
     1
270
     1
271
     1
  0
XRECORD
  5
27
102
{ACAD_REACTORS
330
22
102
}
330
22
100
AcDbXrecord
280
     1
270
     1
271
     1
  0
XRECORD
  5
26
102
{ACAD_REACTORS
330
22
102
}
330
22
100
AcDbXrecord
280
     1
270
     1
271
     1
  0
XRECORD
  5
28
102
{ACAD_REACTORS
330
22
102
}
330
22
100
AcDbXrecord
280
     1
270
     1
271
     1
  0
XRECORD
  5
25
102
{ACAD_REACTORS
330
22
102
}
330
22
100
AcDbXrecord
280
     1
270
     1
271
     1
  0
CELLSTYLEMAP
  5
BD
102
{ACAD_REACTORS
330
BC
102
}
330
BC
100
AcDbCellStyleMap
 90
        3
300
CELLSTYLE
  1
TABLEFORMAT_BEGIN
 90
        5
170
     1
 91
        0
 92
    32768
 62
   257
 93
        1
300
CONTENTFORMAT
  1
CONTENTFORMAT_BEGIN
 90
        0
 91
        0
 92
      512
 93
        0
300

 40
0.0
140
1.0
 94
        5
 62
     0
340
55
144
0.25
309
CONTENTFORMAT_END
171
     0
 94
        0
309
TABLEFORMAT_END
  1
CELLSTYLE_BEGIN
 90
        1
 91
        1
300
_TITLE
309
CELLSTYLE_END
300
CELLSTYLE
  1
TABLEFORMAT_BEGIN
 90
        5
170
     1
 91
        0
 92
        0
 62
   257
 93
        1
300
CONTENTFORMAT
  1
CONTENTFORMAT_BEGIN
 90
        0
 91
        0
 92
      512
 93
        0
300

 40
0.0
140
1.0
 94
        5
 62
     0
340
55
144
0.18
309
CONTENTFORMAT_END
171
     0
 94
        0
309
TABLEFORMAT_END
  1
CELLSTYLE_BEGIN
 90
        2
 91
        1
300
_HEADER
309
CELLSTYLE_END
300
CELLSTYLE
  1
TABLEFORMAT_BEGIN
 90
        5
170
     1
 91
        0
 92
        0
 62
   257
 93
        1
300
CONTENTFORMAT
  1
CONTENTFORMAT_BEGIN
 90
        0
 91
        0
 92
      512
 93
        0
300

 40
0.0
140
1.0
 94
        2
 62
     0
340
55
144
0.18
309
CONTENTFORMAT_END
171
     0
 94
        0
309
TABLEFORMAT_END
  1
CELLSTYLE_BEGIN
 90
        3
 91
        2
300
_DATA
309
CELLSTYLE_END
  0
ENDSEC
  0
EOF
