  0
SECTION
  2
HEADER
  9
$ACADVER
  1
AC1018
  9
$ACADMAINTVER
 70
     0
  9
$DWGCODEPAGE
  3
ANSI_1252
  9
$LASTSAVEDBY
  1
ramon
  9
$INSBASE
 10
0.0
 20
0.0
 30
0.0
  9
$EXTMIN
 10
-17.05881593919247
 20
9.867908789582459
 30
0.0
  9
$EXTMAX
 10
769.4189371770952
 20
1027.167053266337
 30
0.0
  9
$LIMMIN
 10
0.0
 20
0.0
  9
$LIMMAX
 10
12.0
 20
9.0
  9
$ORTHOMODE
 70
     0
  9
$REGENMODE
 70
     1
  9
$FILLMODE
 70
     1
  9
$QTEXTMODE
 70
     0
  9
$MIRRTEXT
 70
     0
  9
$LTSCALE
 40
1.0
  9
$ATTMODE
 70
     1
  9
$TEXTSIZE
 40
0.2
  9
$TRACEWID
 40
0.05
  9
$TEXTSTYLE
  7
Standard
  9
$CLAYER
  8
0
  9
$CELTYPE
  6
ByLayer
  9
$CECOLOR
 62
   256
  9
$CELTSCALE
 40
1.0
  9
$DISPSILH
 70
     0
  9
$DIMSCALE
 40
1.0
  9
$DIMASZ
 40
0.18
  9
$DIMEXO
 40
0.0625
  9
$DIMDLI
 40
0.38
  9
$DIMRND
 40
0.0
  9
$DIMDLE
 40
0.0
  9
$DIMEXE
 40
0.18
  9
$DIMTP
 40
0.0
  9
$DIMTM
 40
0.0
  9
$DIMTXT
 40
0.18
  9
$DIMCEN
 40
0.09
  9
$DIMTSZ
 40
0.0
  9
$DIMTOL
 70
     0
  9
$DIMLIM
 70
     0
  9
$DIMTIH
 70
     1
  9
$DIMTOH
 70
     1
  9
$DIMSE1
 70
     0
  9
$DIMSE2
 70
     0
  9
$DIMTAD
 70
     0
  9
$DIMZIN
 70
     0
  9
$DIMBLK
  1

  9
$DIMASO
 70
     1
  9
$DIMSHO
 70
     1
  9
$DIMPOST
  1

  9
$DIMAPOST
  1

  9
$DIMALT
 70
     0
  9
$DIMALTD
 70
     2
  9
$DIMALTF
 40
25.4
  9
$DIMLFAC
 40
1.0
  9
$DIMTOFL
 70
     0
  9
$DIMTVP
 40
0.0
  9
$DIMTIX
 70
     0
  9
$DIMSOXD
 70
     0
  9
$DIMSAH
 70
     0
  9
$DIMBLK1
  1

  9
$DIMBLK2
  1

  9
$DIMSTYLE
  2
Standard
  9
$DIMCLRD
 70
     0
  9
$DIMCLRE
 70
     0
  9
$DIMCLRT
 70
     0
  9
$DIMTFAC
 40
1.0
  9
$DIMGAP
 40
0.09
  9
$DIMJUST
 70
     0
  9
$DIMSD1
 70
     0
  9
$DIMSD2
 70
     0
  9
$DIMTOLJ
 70
     1
  9
$DIMTZIN
 70
     0
  9
$DIMALTZ
 70
     0
  9
$DIMALTTZ
 70
     0
  9
$DIMUPT
 70
     0
  9
$DIMDEC
 70
     4
  9
$DIMTDEC
 70
     4
  9
$DIMALTU
 70
     2
  9
$DIMALTTD
 70
     2
  9
$DIMTXSTY
  7
Standard
  9
$DIMAUNIT
 70
     0
  9
$DIMADEC
 70
     0
  9
$DIMALTRND
 40
0.0
  9
$DIMAZIN
 70
     0
  9
$DIMDSEP
 70
    46
  9
$DIMATFIT
 70
     3
  9
$DIMFRAC
 70
     0
  9
$DIMLDRBLK
  1

  9
$DIMLUNIT
 70
     2
  9
$DIMLWD
 70
    -2
  9
$DIMLWE
 70
    -2
  9
$DIMTMOVE
 70
     0
  9
$LUNITS
 70
     2
  9
$LUPREC
 70
     4
  9
$SKETCHINC
 40
0.1
  9
$FILLETRAD
 40
0.0
  9
$AUNITS
 70
     0
  9
$AUPREC
 70
     0
  9
$MENU
  1
.
  9
$ELEVATION
 40
0.0
  9
$PELEVATION
 40
0.0
  9
$THICKNESS
 40
0.0
  9
$LIMCHECK
 70
     0
  9
$CHAMFERA
 40
0.0
  9
$CHAMFERB
 40
0.0
  9
$CHAMFERC
 40
0.0
  9
$CHAMFERD
 40
0.0
  9
$SKPOLY
 70
     0
  9
$TDCREATE
 40
2454477.873428611
  9
$TDUCREATE
 40
2454477.831761945
  9
$TDUPDATE
 40
2454550.559682951
  9
$TDUUPDATE
 40
2454550.518016285
  9
$TDINDWG
 40
0.0008790741
  9
$TDUSRTIMER
 40
0.0008790741
  9
$USRTIMER
 70
     1
  9
$ANGBASE
 50
0.0
  9
$ANGDIR
 70
     0
  9
$PDMODE
 70
     0
  9
$PDSIZE
 40
0.0
  9
$PLINEWID
 40
0.0
  9
$SPLFRAME
 70
     0
  9
$SPLINETYPE
 70
     6
  9
$SPLINESEGS
 70
     8
  9
$HANDSEED
  5
1B8
  9
$SURFTAB1
 70
     6
  9
$SURFTAB2
 70
     6
  9
$SURFTYPE
 70
     6
  9
$SURFU
 70
     6
  9
$SURFV
 70
     6
  9
$UCSBASE
  2

  9
$UCSNAME
  2

  9
$UCSORG
 10
0.0
 20
0.0
 30
0.0
  9
$UCSXDIR
 10
1.0
 20
0.0
 30
0.0
  9
$UCSYDIR
 10
0.0
 20
1.0
 30
0.0
  9
$UCSORTHOREF
  2

  9
$UCSORTHOVIEW
 70
     0
  9
$UCSORGTOP
 10
0.0
 20
0.0
 30
0.0
  9
$UCSORGBOTTOM
 10
0.0
 20
0.0
 30
0.0
  9
$UCSORGLEFT
 10
0.0
 20
0.0
 30
0.0
  9
$UCSORGRIGHT
 10
0.0
 20
0.0
 30
0.0
  9
$UCSORGFRONT
 10
0.0
 20
0.0
 30
0.0
  9
$UCSORGBACK
 10
0.0
 20
0.0
 30
0.0
  9
$PUCSBASE
  2

  9
$PUCSNAME
  2

  9
$PUCSORG
 10
0.0
 20
0.0
 30
0.0
  9
$PUCSXDIR
 10
1.0
 20
0.0
 30
0.0
  9
$PUCSYDIR
 10
0.0
 20
1.0
 30
0.0
  9
$PUCSORTHOREF
  2

  9
$PUCSORTHOVIEW
 70
     0
  9
$PUCSORGTOP
 10
0.0
 20
0.0
 30
0.0
  9
$PUCSORGBOTTOM
 10
0.0
 20
0.0
 30
0.0
  9
$PUCSORGLEFT
 10
0.0
 20
0.0
 30
0.0
  9
$PUCSORGRIGHT
 10
0.0
 20
0.0
 30
0.0
  9
$PUCSORGFRONT
 10
0.0
 20
0.0
 30
0.0
  9
$PUCSORGBACK
 10
0.0
 20
0.0
 30
0.0
  9
$USERI1
 70
     0
  9
$USERI2
 70
     0
  9
$USERI3
 70
     0
  9
$USERI4
 70
     0
  9
$USERI5
 70
     0
  9
$USERR1
 40
0.0
  9
$USERR2
 40
0.0
  9
$USERR3
 40
0.0
  9
$USERR4
 40
0.0
  9
$USERR5
 40
0.0
  9
$WORLDVIEW
 70
     1
  9
$SHADEDGE
 70
     3
  9
$SHADEDIF
 70
    70
  9
$TILEMODE
 70
     1
  9
$MAXACTVP
 70
    64
  9
$PINSBASE
 10
0.0
 20
0.0
 30
0.0
  9
$PLIMCHECK
 70
     0
  9
$PEXTMIN
 10
0.0
 20
0.0
 30
0.0
  9
$PEXTMAX
 10
0.0
 20
0.0
 30
0.0
  9
$PLIMMIN
 10
0.0
 20
0.0
  9
$PLIMMAX
 10
12.0
 20
9.0
  9
$UNITMODE
 70
     0
  9
$VISRETAIN
 70
     1
  9
$PLINEGEN
 70
     0
  9
$PSLTSCALE
 70
     1
  9
$TREEDEPTH
 70
  3020
  9
$CMLSTYLE
  2
Standard
  9
$CMLJUST
 70
     0
  9
$CMLSCALE
 40
1.0
  9
$PROXYGRAPHICS
 70
     1
  9
$MEASUREMENT
 70
     0
  9
$CELWEIGHT
370
    -1
  9
$ENDCAPS
280
     0
  9
$JOINSTYLE
280
     0
  9
$LWDISPLAY
290
     0
  9
$INSUNITS
 70
     1
  9
$HYPERLINKBASE
  1

  9
$STYLESHEET
  1

  9
$XEDIT
290
     1
  9
$CEPSNTYPE
380
     0
  9
$PSTYLEMODE
290
     1
  9
$FINGERPRINTGUID
  2
{FDEAD576-A652-11D2-9A35-0060089B3A3F}
  9
$VERSIONGUID
  2
{DBF5D125-3F8C-45AD-A344-216BF1448A89}
  9
$EXTNAMES
290
     1
  9
$PSVPSCALE
 40
0.0
  9
$OLESTARTUP
290
     0
  9
$SORTENTS
280
   127
  9
$INDEXCTL
280
     0
  9
$HIDETEXT
280
     1
  9
$XCLIPFRAME
290
     0
  9
$HALOGAP
280
     0
  9
$OBSCOLOR
 70
   257
  9
$OBSLTYPE
280
     0
  9
$INTERSECTIONDISPLAY
280
     0
  9
$INTERSECTIONCOLOR
 70
   257
  9
$DIMASSOC
280
     2
  9
$PROJECTNAME
  1

  0
ENDSEC
  0
SECTION
  2
CLASSES
  0
CLASS
  1
ACDBDICTIONARYWDFLT
  2
AcDbDictionaryWithDefault
  3
ObjectDBX Classes
 90
        0
 91
        1
280
     0
281
     0
  0
CLASS
  1
DICTIONARYVAR
  2
AcDbDictionaryVar
  3
ObjectDBX Classes
 90
        0
 91
        2
280
     0
281
     0
  0
CLASS
  1
SORTENTSTABLE
  2
AcDbSortentsTable
  3
ObjectDBX Classes
 90
        0
 91
        1
280
     0
281
     0
  0
ENDSEC
  0
SECTION
  2
TABLES
  0
TABLE
  2
VPORT
  5
8
330
0
100
AcDbSymbolTable
 70
     5
  0
VPORT
  5
1B7
330
8
100
AcDbSymbolTableRecord
100
AcDbViewportTableRecord
  2
*Active
 70
     0
 10
0.0
 20
0.0
 11
1.0
 21
1.0
 12
524.7462554577264
 22
307.3786634068745
 13
0.0
 23
0.0
 14
0.5
 24
0.5
 15
0.5
 25
0.5
 16
0.0
 26
0.0
 36
1.0
 17
0.0
 27
0.0
 37
0.0
 40
1392.865949049646
 41
1.647509578544061
 42
50.0
 43
0.0
 44
0.0
 50
0.0
 51
0.0
 71
     0
 72
  1000
 73
     1
 74
     3
 75
     0
 76
     0
 77
     0
 78
     0
281
     0
 65
     1
110
0.0
120
0.0
130
0.0
111
1.0
121
0.0
131
0.0
112
0.0
122
1.0
132
0.0
 79
     0
146
0.0
  0
ENDTAB
  0
TABLE
  2
LTYPE
  5
5
330
0
100
AcDbSymbolTable
 70
     1
  0
LTYPE
  5
14
330
5
100
AcDbSymbolTableRecord
100
AcDbLinetypeTableRecord
  2
ByBlock
 70
     0
  3

 72
    65
 73
     0
 40
0.0
  0
LTYPE
  5
15
330
5
100
AcDbSymbolTableRecord
100
AcDbLinetypeTableRecord
  2
ByLayer
 70
     0
  3

 72
    65
 73
     0
 40
0.0
  0
LTYPE
  5
16
330
5
100
AcDbSymbolTableRecord
100
AcDbLinetypeTableRecord
  2
Continuous
 70
     0
  3
Solid line
 72
    65
 73
     0
 40
0.0
  0
ENDTAB
  0
TABLE
  2
LAYER
  5
2
102
{ACAD_XDICTIONARY
360
FA
102
}
330
0
100
AcDbSymbolTable
 70
     1
  0
LAYER
  5
10
330
2
100
AcDbSymbolTableRecord
100
AcDbLayerTableRecord
  2
0
 70
     0
 62
     7
  6
Continuous
370
    -3
390
F
  0
ENDTAB
  0
TABLE
  2
STYLE
  5
3
330
0
100
AcDbSymbolTable
 70
     1
  0
STYLE
  5
11
330
3
100
AcDbSymbolTableRecord
100
AcDbTextStyleTableRecord
  2
Standard
 70
     0
 40
0.0
 41
1.0
 50
0.0
 71
     0
 42
0.2
  3
txt
  4

  0
ENDTAB
  0
TABLE
  2
VIEW
  5
6
330
0
100
AcDbSymbolTable
 70
     0
  0
ENDTAB
  0
TABLE
  2
UCS
  5
7
330
0
100
AcDbSymbolTable
 70
     0
  0
ENDTAB
  0
TABLE
  2
APPID
  5
9
330
0
100
AcDbSymbolTable
 70
     1
  0
APPID
  5
12
330
9
100
AcDbSymbolTableRecord
100
AcDbRegAppTableRecord
  2
ACAD
 70
     0
  0
ENDTAB
  0
TABLE
  2
DIMSTYLE
  5
A
330
0
100
AcDbSymbolTable
 70
     1
100
AcDbDimStyleTable
 71
     0
  0
DIMSTYLE
105
27
330
A
100
AcDbSymbolTableRecord
100
AcDbDimStyleTableRecord
  2
Standard
 70
     0
340
11
  0
ENDTAB
  0
TABLE
  2
BLOCK_RECORD
  5
1
330
0
100
AcDbSymbolTable
 70
     4
  0
BLOCK_RECORD
  5
1F
330
1
100
AcDbSymbolTableRecord
100
AcDbBlockTableRecord
  2
*Model_Space
340
22
  0
BLOCK_RECORD
  5
58
330
1
100
AcDbSymbolTableRecord
100
AcDbBlockTableRecord
  2
*Paper_Space
340
59
  0
BLOCK_RECORD
  5
5D
330
1
100
AcDbSymbolTableRecord
100
AcDbBlockTableRecord
  2
*Paper_Space0
340
5E
  0
BLOCK_RECORD
  5
93
102
{ACAD_XDICTIONARY
360
FF
102
}
330
1
100
AcDbSymbolTableRecord
100
AcDbBlockTableRecord
  2
29900_P
340
0
310
2800000020000000200000000100080000000000000400000000000000000000000000000000000000000000000080000080000000808000800000008000800080800000C0C0C000C0DCC000F0CAA6000020400000206000002080000020A0000020C0000020E00000400000004020000040400000406000004080000040A0
310
000040C0000040E00000600000006020000060400000606000006080000060A0000060C0000060E00000800000008020000080400000806000008080000080A0000080C0000080E00000A0000000A0200000A0400000A0600000A0800000A0A00000A0C00000A0E00000C0000000C0200000C0400000C0600000C0800000C0
310
A00000C0C00000C0E00000E0000000E0200000E0400000E0600000E0800000E0A00000E0C00000E0E00040000000400020004000400040006000400080004000A0004000C0004000E00040200000402020004020400040206000402080004020A0004020C0004020E000404000004040200040404000404060004040800040
310
40A0004040C0004040E00040600000406020004060400040606000406080004060A0004060C0004060E00040800000408020004080400040806000408080004080A0004080C0004080E00040A0000040A0200040A0400040A0600040A0800040A0A00040A0C00040A0E00040C0000040C0200040C0400040C0600040C08000
310
40C0A00040C0C00040C0E00040E0000040E0200040E0400040E0600040E0800040E0A00040E0C00040E0E00080000000800020008000400080006000800080008000A0008000C0008000E00080200000802020008020400080206000802080008020A0008020C0008020E00080400000804020008040400080406000804080
310
008040A0008040C0008040E00080600000806020008060400080606000806080008060A0008060C0008060E00080800000808020008080400080806000808080008080A0008080C0008080E00080A0000080A0200080A0400080A0600080A0800080A0A00080A0C00080A0E00080C0000080C0200080C0400080C0600080C0
310
800080C0A00080C0C00080C0E00080E0000080E0200080E0400080E0600080E0800080E0A00080E0C00080E0E000C0000000C0002000C0004000C0006000C0008000C000A000C000C000C000E000C0200000C0202000C0204000C0206000C0208000C020A000C020C000C020E000C0400000C0402000C0404000C0406000C0
310
408000C040A000C040C000C040E000C0600000C0602000C0604000C0606000C0608000C060A000C060C000C060E000C0800000C0802000C0804000C0806000C0808000C080A000C080C000C080E000C0A00000C0A02000C0A04000C0A06000C0A08000C0A0A000C0A0C000C0A0E000C0C00000C0C02000C0C04000C0C06000
310
C0C08000C0C0A000F0FBFF00A4A0A000808080000000FF0000FF000000FFFF00FF000000FF00FF00FFFF0000FFFFFF0000000000000000000000000000000000000000000000000000000000000000000000000000000000000000000000000000000000000000000000000000000000000000000000000000000000000000
310
00000000000000000000000000000000000000000000000000000000000000000000000000000000000000000000000000000000000000000000000000000000000000000000000000000000000000000000000000000000000000000000000000000000000000000000000000000000000000FFFFFFFFFFFFFFFFFFFFFFFF
310
FFFFFFFFFFFFFFFFFFFFFFFFFFFFFFFF000000FF00000000000000000000000000000000000000000000000000000000FF0000FF000000FFFFFFFFFFFFFFFFFFFFFFFFFFFFFFFFFFFFFFFFFFFFFFFF00FF0000FF0000FF00000000000000000000000000FFFFFFFFFFFF0000000000FFFF0000FF00FF000000000000000000
310
0000000000FFFFFFFFFFFFFFFFFFFFFFFFFF0000FF00FF0000000000000000000000000000FFFFFFFFFFFFFFFFFFFFFFFFFF0000FF00FF0000000000000000000000000000FFFFFFFFFFFFFFFFFFFFFFFFFF0000FF00FF0000000000000000000000000000FFFFFFFFFFFFFFFFFFFFFFFFFF0000FF00FF0000FFFFFFFF0000
310
000000000000FFFFFFFFFFFFFFFFFFFFFFFFFF0000FF00FF0000FF00FFFF0000000000000000FFFFFFFFFFFFFFFFFFFFFFFFFF0000FF00FF0000FF00FFFF0000000000000000FFFFFFFFFFFFFFFFFFFFFFFFFF0000FF00FF0000FFFFFFFF0000000000000000FFFFFFFFFFFFFFFFFFFFFFFFFF0000FF00FF00000000000000
310
00000000000000FFFFFFFFFFFFFFFFFFFFFFFFFF0000FF00FF0000000000000000000000000000FFFFFFFFFFFFFFFFFFFFFFFFFF0000FF00FF0000000000000000000000000000FFFFFFFFFFFFFFFFFFFFFFFFFF0000FF00FF0000000000000000000000000000FFFFFFFFFFFFFFFFFFFFFFFFFF0000FF0000FF0000000000
310
0000000000000000FFFFFFFFFF000000000000FFFF0000FF0000FFFFFFFFFFFFFFFFFFFFFFFFFFFFFFFFFFFFFFFFFFFFFFFFFF00FF0000FF00000000000000000000000000000000000000000000000000000000FF000000FFFFFFFFFFFFFFFFFFFFFFFFFFFFFFFFFFFFFFFFFFFFFFFFFFFFFFFF0000000000000000000000
310
00000000000000000000000000000000000000000000000000000000000000000000000000000000000000000000000000000000000000000000000000000000000000000000000000000000000000000000000000000000000000000000000000000000000000000000000000000000000000000000000000000000000000
310
0000000000000000000000000000000000000000000000000000000000000000000000000000000000000000000000000000000000000000
102
{BLKREFS
331
FD
331
1B3
102
}
1001
ACAD
1000
DesignCenter Data
1002
{
1070
     1
1070
     4
1002
}
  0
BLOCK_RECORD
  5
FC
102
{ACAD_XDICTIONARY
360
FE
102
}
330
1
100
AcDbSymbolTableRecord
100
AcDbBlockTableRecord
  2
A$C13697A1D
340
0
  0
ENDTAB
  0
ENDSEC
  0
SECTION
  2
BLOCKS
  0
BLOCK
  5
20
330
1F
100
AcDbEntity
  8
0
100
AcDbBlockBegin
  2
*Model_Space
 70
     0
 10
0.0
 20
0.0
 30
0.0
  3
*Model_Space
  1

  0
ENDBLK
  5
21
330
1F
100
AcDbEntity
  8
0
100
AcDbBlockEnd
  0
BLOCK
  5
5A
330
58
100
AcDbEntity
 67
     1
  8
0
100
AcDbBlockBegin
  2
*Paper_Space
 70
     0
 10
0.0
 20
0.0
 30
0.0
  3
*Paper_Space
  1

  0
ENDBLK
  5
5B
330
58
100
AcDbEntity
 67
     1
  8
0
100
AcDbBlockEnd
  0
BLOCK
  5
5F
330
5D
100
AcDbEntity
  8
0
100
AcDbBlockBegin
  2
*Paper_Space0
 70
     0
 10
0.0
 20
0.0
 30
0.0
  3
*Paper_Space0
  1

  0
ENDBLK
  5
60
330
5D
100
AcDbEntity
  8
0
100
AcDbBlockEnd
  0
BLOCK
  5
94
330
93
100
AcDbEntity
  8
0
100
AcDbBlockBegin
  2
29900_P
 70
     0
 10
0.0
 20
0.0
 30
0.0
  3
29900_P
  1

  0
LINE
  5
17A
330
93
100
AcDbEntity
  8
0
100
AcDbLine
 10
0.0
 20
184.9999999999454
 30
0.0
 11
0.0
 21
-184.9999999999454
 31
0.0
  0
LINE
  5
17B
330
93
100
AcDbEntity
  8
0
100
AcDbLine
 10
40.0
 20
125.0000000001639
 30
0.0
 11
40.0
 21
-125.0000000001637
 31
0.0
  0
LINE
  5
17C
330
93
100
AcDbEntity
  8
0
100
AcDbLine
 10
355.2968196125949
 20
124.924116099585
 30
0.0
 11
355.2968196125949
 21
-124.9241160995855
 31
0.0
  0
LINE
  5
17D
330
93
100
AcDbEntity
  8
0
100
AcDbLine
 10
595.362448596376
 20
195.0000000001642
 30
0.0
 11
9.999999999763531
 21
195.0000000001637
 31
0.0
  0
LINE
  5
17E
330
93
100
AcDbEntity
  8
0
100
AcDbLine
 10
575.3624485963755
 20
155.0000000001635
 30
0.0
 11
65.00000000023646
 21
155.0000000001644
 31
0.0
  0
LINE
  5
17F
330
93
100
AcDbEntity
  8
0
100
AcDbLine
 10
605.362448596376
 20
185.0000000001641
 30
0.0
 11
605.3624485963751
 21
-185.0000000001637
 31
0.0
  0
ARC
  5
180
330
93
100
AcDbEntity
  8
0
100
AcDbCircle
 10
595.362448596376
 20
185.0000000001641
 30
0.0
 40
10.0
100
AcDbArc
 50
0.0
 51
90.0
  0
LINE
  5
181
330
93
100
AcDbEntity
  8
0
100
AcDbLine
 10
585.3624485963755
 20
145.0000000001635
 30
0.0
 11
585.3624485963755
 21
-145.0000000001637
 31
0.0
  0
ARC
  5
182
330
93
100
AcDbEntity
  8
0
100
AcDbCircle
 10
575.3624485963755
 20
145.0000000001635
 30
0.0
 40
10.0
100
AcDbArc
 50
0.0
 51
90.0
  0
ARC
  5
183
330
93
100
AcDbEntity
  8
0
100
AcDbCircle
 10
575.3624485963755
 20
-145.0000000001637
 30
0.0
 40
10.0
100
AcDbArc
 50
270.0
 51
0.0
  0
ARC
  5
184
330
93
100
AcDbEntity
  8
0
100
AcDbCircle
 10
573.362448596375
 20
141.024420558643
 30
0.0
 40
10.0
100
AcDbArc
 50
0.0
 51
92.00941164570442
  0
ARC
  5
185
330
93
100
AcDbEntity
  8
0
100
AcDbCircle
 10
9.999999999763531
 20
184.999999999945
 30
0.0
 40
10.0
100
AcDbArc
 50
90.0
 51
180.0
  0
LINE
  5
186
330
93
100
AcDbEntity
  8
0
100
AcDbLine
 10
595.362448596375
 20
-195.0000000001637
 30
0.0
 11
9.999999999763531
 21
-195.0000000001637
 31
0.0
  0
ARC
  5
187
330
93
100
AcDbEntity
  8
0
100
AcDbCircle
 10
595.362448596375
 20
-185.0000000001637
 30
0.0
 40
10.0
100
AcDbArc
 50
270.0
 51
0.0
  0
LINE
  5
188
330
93
100
AcDbEntity
  8
0
100
AcDbLine
 10
575.3624485963755
 20
-155.0000000001637
 30
0.0
 11
70.0
 21
-155.0000000001637
 31
0.0
  0
ARC
  5
189
330
93
100
AcDbEntity
  8
0
100
AcDbCircle
 10
9.999999999763531
 20
-184.9999999999459
 30
0.0
 40
10.0
100
AcDbArc
 50
180.0
 51
270.0
  0
CIRCLE
  5
18A
330
93
100
AcDbEntity
  8
0
100
AcDbCircle
 10
130.0
 20
0.0
 30
0.0
 40
25.0
  0
CIRCLE
  5
18B
330
93
100
AcDbEntity
  8
0
100
AcDbCircle
 10
130.0
 20
0.0
 30
0.0
 40
36.0
  0
ARC
  5
18C
330
93
100
AcDbEntity
  8
0
100
AcDbCircle
 10
65.79106068068767
 20
128.924116099585
 30
0.0
 40
26.08788029328274
100
AcDbArc
 50
91.73764163701196
 51
188.6512161779273
  0
ARC
  5
18D
330
93
100
AcDbEntity
  8
0
100
AcDbCircle
 10
70.0
 20
-125.0000000001637
 30
0.0
 40
30.0
100
AcDbArc
 50
180.0
 51
270.0
  0
ARC
  5
18E
330
93
100
AcDbEntity
  8
0
100
AcDbCircle
 10
329.2089393193128
 20
124.9241160995855
 30
0.0
 40
26.08788029328207
100
AcDbArc
 50
0.0
 51
88.26235836298804
  0
LINE
  5
18F
330
93
100
AcDbEntity
  8
0
100
AcDbLine
 10
566.7154662195998
 20
117.7840187388974
 30
0.0
 11
566.7154662196008
 21
-117.7840187388974
 31
0.0
  0
LINE
  5
190
330
93
100
AcDbEntity
  8
0
100
AcDbLine
 10
552.2835036970664
 20
117.7840187388974
 30
0.0
 11
552.2835036970668
 21
-117.7840187388974
 31
0.0
  0
ARC
  5
191
330
93
100
AcDbEntity
  8
0
100
AcDbCircle
 10
559.4994849583335
 20
117.7840187388974
 30
0.0
 40
7.215981261266506
100
AcDbArc
 50
0.0
 51
180.0
  0
ARC
  5
192
330
93
100
AcDbEntity
  8
0
100
AcDbCircle
 10
559.4994849583335
 20
-117.7840187388974
 30
0.0
 40
7.215981261266506
100
AcDbArc
 50
180.0
 51
0.0
  0
LINE
  5
193
330
93
100
AcDbEntity
  8
0
100
AcDbLine
 10
528.2302328261766
 20
117.7840187388974
 30
0.0
 11
528.2302328261771
 21
-117.7840187388974
 31
0.0
  0
LINE
  5
194
330
93
100
AcDbEntity
  8
0
100
AcDbLine
 10
542.6621953487101
 20
117.7840187388974
 30
0.0
 11
542.662195348711
 21
-117.7840187388974
 31
0.0
  0
ARC
  5
195
330
93
100
AcDbEntity
  8
0
100
AcDbCircle
 10
535.4462140874439
 20
117.7840187388974
 30
0.0
 40
7.215981261266506
100
AcDbArc
 50
0.0
 51
180.0
  0
ARC
  5
196
330
93
100
AcDbEntity
  8
0
100
AcDbCircle
 10
535.4462140874439
 20
-117.7840187388974
 30
0.0
 40
7.215981261266506
100
AcDbArc
 50
180.0
 51
0.0
  0
ARC
  5
197
330
93
100
AcDbEntity
  8
0
100
AcDbCircle
 10
511.3929432165541
 20
-117.7840187388974
 30
0.0
 40
7.215981261266506
100
AcDbArc
 50
180.0
 51
0.0
  0
LINE
  5
198
330
93
100
AcDbEntity
  8
0
100
AcDbLine
 10
518.6089244778204
 20
117.7840187388974
 30
0.0
 11
518.6089244778213
 21
-117.7840187388974
 31
0.0
  0
LINE
  5
199
330
93
100
AcDbEntity
  8
0
100
AcDbLine
 10
504.1769619552869
 20
117.7840187388974
 30
0.0
 11
504.1769619552874
 21
-117.7840187388974
 31
0.0
  0
ARC
  5
19A
330
93
100
AcDbEntity
  8
0
100
AcDbCircle
 10
511.3929432165541
 20
117.7840187388974
 30
0.0
 40
7.215981261266506
100
AcDbArc
 50
0.0
 51
180.0
  0
ARC
  5
19B
330
93
100
AcDbEntity
  8
0
100
AcDbCircle
 10
487.3396723456644
 20
-117.7840187388974
 30
0.0
 40
7.215981261266506
100
AcDbArc
 50
180.0
 51
0.0
  0
LINE
  5
19C
330
93
100
AcDbEntity
  8
0
100
AcDbLine
 10
494.5556536069307
 20
117.7840187388974
 30
0.0
 11
494.5556536069316
 21
-117.7840187388974
 31
0.0
  0
LINE
  5
19D
330
93
100
AcDbEntity
  8
0
100
AcDbLine
 10
480.1236910843972
 20
117.7840187388974
 30
0.0
 11
480.1236910843977
 21
-117.7840187388974
 31
0.0
  0
ARC
  5
19E
330
93
100
AcDbEntity
  8
0
100
AcDbCircle
 10
487.3396723456644
 20
117.7840187388974
 30
0.0
 40
7.215981261266506
100
AcDbArc
 50
0.0
 51
180.0
  0
LINE
  5
19F
330
93
100
AcDbEntity
  8
0
100
AcDbLine
 10
456.0704202135075
 20
117.7840187388974
 30
0.0
 11
456.0704202135079
 21
-117.7840187388974
 31
0.0
  0
LINE
  5
1A0
330
93
100
AcDbEntity
  8
0
100
AcDbLine
 10
470.502382736041
 20
117.7840187388974
 30
0.0
 11
470.5023827360419
 21
-117.7840187388974
 31
0.0
  0
ARC
  5
1A1
330
93
100
AcDbEntity
  8
0
100
AcDbCircle
 10
463.2864014747747
 20
117.7840187388974
 30
0.0
 40
7.215981261266506
100
AcDbArc
 50
0.0
 51
180.0
  0
LINE
  5
1A2
330
93
100
AcDbEntity
  8
0
100
AcDbLine
 10
446.4491118651513
 20
117.7840187388974
 30
0.0
 11
446.4491118651522
 21
-117.7840187388974
 31
0.0
  0
ARC
  5
1A3
330
93
100
AcDbEntity
  8
0
100
AcDbCircle
 10
463.2864014747747
 20
-117.7840187388974
 30
0.0
 40
7.215981261266506
100
AcDbArc
 50
180.0
 51
0.0
  0
ARC
  5
1A4
330
93
100
AcDbEntity
  8
0
100
AcDbCircle
 10
439.2331306038849
 20
-117.7840187388974
 30
0.0
 40
7.215981261266506
100
AcDbArc
 50
180.0
 51
0.0
  0
LINE
  5
1A5
330
93
100
AcDbEntity
  8
0
100
AcDbLine
 10
432.0171493426178
 20
117.7840187388974
 30
0.0
 11
432.0171493426182
 21
-117.7840187388974
 31
0.0
  0
ARC
  5
1A6
330
93
100
AcDbEntity
  8
0
100
AcDbCircle
 10
439.2331306038849
 20
117.7840187388974
 30
0.0
 40
7.215981261266506
100
AcDbArc
 50
0.0
 51
180.0
  0
LINE
  5
1A7
330
93
100
AcDbEntity
  8
0
100
AcDbLine
 10
422.3958409942615
 20
117.7840187388974
 30
0.0
 11
422.3958409942624
 21
-117.7840187388974
 31
0.0
  0
LINE
  5
1A8
330
93
100
AcDbEntity
  8
0
100
AcDbLine
 10
407.963878471728
 20
117.7840187388974
 30
0.0
 11
407.9638784717285
 21
-117.7840187388974
 31
0.0
  0
ARC
  5
1A9
330
93
100
AcDbEntity
  8
0
100
AcDbCircle
 10
415.1798597329952
 20
-117.7840187388974
 30
0.0
 40
7.215981261266506
100
AcDbArc
 50
180.0
 51
0.0
  0
ARC
  5
1AA
330
93
100
AcDbEntity
  8
0
100
AcDbCircle
 10
415.1798597329952
 20
117.7840187388974
 30
0.0
 40
7.215981261266506
100
AcDbArc
 50
0.0
 51
180.0
  0
LINE
  5
1AB
330
93
100
AcDbEntity
  8
0
100
AcDbLine
 10
398.3425701233718
 20
117.7840187388974
 30
0.0
 11
398.3425701233727
 21
-117.7840187388974
 31
0.0
  0
LINE
  5
1AC
330
93
100
AcDbEntity
  8
0
100
AcDbLine
 10
383.9106076008384
 20
117.7840187388974
 30
0.0
 11
383.9106076008388
 21
-117.7840187388974
 31
0.0
  0
ARC
  5
1AD
330
93
100
AcDbEntity
  8
0
100
AcDbCircle
 10
391.1265888621056
 20
117.7840187388974
 30
0.0
 40
7.215981261266506
100
AcDbArc
 50
0.0
 51
180.0
  0
ARC
  5
1AE
330
93
100
AcDbEntity
  8
0
100
AcDbCircle
 10
391.1265888621056
 20
-117.7840187388974
 30
0.0
 40
7.215981261266506
100
AcDbArc
 50
180.0
 51
0.0
  0
ARC
  5
1AF
330
93
100
AcDbEntity
  8
0
100
AcDbCircle
 10
329.2089393193128
 20
-124.9241160995855
 30
0.0
 40
26.08788029328207
100
AcDbArc
 50
271.7376416370119
 51
0.0
  0
LINE
  5
1B0
330
93
100
AcDbEntity
  8
0
100
AcDbLine
 10
357.926122687129
 20
143.4719394216986
 30
0.0
 11
573.0118119926637
 21
151.0182713666218
 31
0.0
  0
LINE
  5
1B1
330
93
100
AcDbEntity
  8
0
100
AcDbLine
 10
357.926122687129
 20
-143.4719394216986
 30
0.0
 11
573.0118119926646
 21
-151.018271366622
 31
0.0
  0
ARC
  5
1B2
330
93
100
AcDbEntity
  8
0
100
AcDbCircle
 10
573.3624485963759
 20
-141.0244205586432
 30
0.0
 40
10.0
100
AcDbArc
 50
267.9905883542956
 51
0.0
  0
ENDBLK
  5
EA
330
93
100
AcDbEntity
  8
0
100
AcDbBlockEnd
  0
BLOCK
  5
101
330
FC
100
AcDbEntity
  8
0
100
AcDbBlockBegin
  2
A$C13697A1D
 70
     0
 10
0.0
 20
0.0
 30
0.0
  3
A$C13697A1D
  1

  0
INSERT
  5
FD
330
FC
100
AcDbEntity
  8
0
100
AcDbBlockReference
  2
29900_P
 10
130.0000009500067
 20
195.0000004982085
 30
0.0
  0
ENDBLK
  5
102
330
FC
100
AcDbEntity
  8
0
100
AcDbBlockEnd
  0
ENDSEC
  0
SECTION
  2
ENTITIES
  0
MTEXT
  5
F2
330
1F
100
AcDbEntity
  8
0
100
AcDbMText
 10
191.4232630602964
 20
131.8874960552155
 30
0.0
 40
40.0
 41
616.8132793901322
 71
     1
 72
     5
  1
{\fTimes New Roman|b0|i0|c0|p18;\C0;LAVADERO BURGOS}
 73
     1
 44
1.0
  0
INSERT
  5
1B3
330
1F
100
AcDbEntity
  8
0
100
AcDbBlockReference
  2
29900_P
 10
158.2519726685905
 20
405.5463186287199
 30
0.0
  0
ENDSEC
  0
SECTION
  2
OBJECTS
  0
DICTIONARY
  5
C
330
0
100
AcDbDictionary
281
     1
  3
ACAD_COLOR
350
73
  3
ACAD_GROUP
350
D
  3
ACAD_LAYOUT
350
1A
  3
ACAD_MATERIAL
350
72
  3
ACAD_MLINESTYLE
350
17
  3
ACAD_PLOTSETTINGS
350
19
  3
ACAD_PLOTSTYLENAME
350
E
  3
AcDbVariableDictionary
350
66
  0
DICTIONARY
  5
FA
330
2
100
AcDbDictionary
280
     1
281
     1
  3
ACAD_LAYERSTATES
360
FB
  0
DICTIONARY
  5
FF
330
93
100
AcDbDictionary
280
     1
281
     1
  3
ACAD_SORTENTS
360
100
  0
DICTIONARY
  5
FE
330
FC
100
AcDbDictionary
280
     1
281
     1
  0
DICTIONARY
  5
73
102
{ACAD_REACTORS
330
C
102
}
330
C
100
AcDbDictionary
281
     1
  0
DICTIONARY
  5
D
102
{ACAD_REACTORS
330
C
102
}
330
C
100
AcDbDictionary
281
     1
  0
DICTIONARY
  5
1A
102
{ACAD_REACTORS
330
C
102
}
330
C
100
AcDbDictionary
281
     1
  3
Model
350
22
  3
Presentación1
350
59
  3
Presentación2
350
5E
  0
DICTIONARY
  5
72
102
{ACAD_REACTORS
330
C
102
}
330
C
100
AcDbDictionary
281
     1
  0
DICTIONARY
  5
17
102
{ACAD_REACTORS
330
C
102
}
330
C
100
AcDbDictionary
281
     1
  3
Standard
350
18
  0
DICTIONARY
  5
19
102
{ACAD_REACTORS
330
C
102
}
330
C
100
AcDbDictionary
281
     1
  0
ACDBDICTIONARYWDFLT
  5
E
102
{ACAD_REACTORS
330
C
102
}
330
C
100
AcDbDictionary
281
     1
  3
Normal
350
F
100
AcDbDictionaryWithDefault
340
F
  0
DICTIONARY
  5
66
102
{ACAD_REACTORS
330
C
102
}
330
C
100
AcDbDictionary
281
     1
  3
DIMASSOC
350
67
  3
HIDETEXT
350
6B
  0
DICTIONARY
  5
FB
102
{ACAD_REACTORS
330
FA
102
}
330
FA
100
AcDbDictionary
281
     1
  0
SORTENTSTABLE
  5
100
102
{ACAD_REACTORS
330
FF
102
}
330
FF
100
AcDbSortentsTable
330
93
  0
LAYOUT
  5
22
102
{ACAD_REACTORS
330
1A
102
}
330
1A
100
AcDbPlotSettings
  1

  2
none_device
  4
ANSI_A_(8.50_x_11.00_Inches)
  6

 40
6.349999904632567
 41
19.04999923706055
 42
6.350006103515625
 43
19.04998779296875
 44
215.8999938964844
 45
279.3999938964844
 46
0.0
 47
0.0
 48
0.0
 49
0.0
140
0.0
141
0.0
142
1.0
143
2.584895464708373
 70
 11952
 72
     0
 73
     1
 74
     0
  7

 75
     0
147
0.3868628397755418
 76
     0
 77
     2
 78
   300
148
0.0
149
0.0
100
AcDbLayout
  1
Model
 70
     1
 71
     0
 10
0.0
 20
0.0
 11
12.0
 21
9.0
 12
0.0
 22
0.0
 32
0.0
 14
0.0
 24
0.0
 34
0.0
 15
0.0
 25
0.0
 35
0.0
146
0.0
 13
0.0
 23
0.0
 33
0.0
 16
1.0
 26
0.0
 36
0.0
 17
0.0
 27
1.0
 37
0.0
 76
     0
330
1F
  0
LAYOUT
  5
59
102
{ACAD_REACTORS
330
1A
102
}
330
1A
100
AcDbPlotSettings
  1

  2
None
  4

  6

 40
0.0
 41
0.0
 42
0.0
 43
0.0
 44
0.0
 45
0.0
 46
0.0
 47
0.0
 48
0.0
 49
0.0
140
0.0
141
0.0
142
1.0
143
1.0
 70
   688
 72
     0
 73
     0
 74
     5
  7

 75
    16
147
1.0
 76
     0
 77
     2
 78
   300
148
0.0
149
0.0
100
AcDbLayout
  1
Presentación1
 70
     1
 71
     1
 10
0.0
 20
0.0
 11
12.0
 21
9.0
 12
0.0
 22
0.0
 32
0.0
 14
0.0
 24
0.0
 34
0.0
 15
0.0
 25
0.0
 35
0.0
146
0.0
 13
0.0
 23
0.0
 33
0.0
 16
1.0
 26
0.0
 36
0.0
 17
0.0
 27
1.0
 37
0.0
 76
     0
330
58
  0
LAYOUT
  5
5E
102
{ACAD_REACTORS
330
1A
102
}
330
1A
100
AcDbPlotSettings
  1

  2
None
  4

  6

 40
0.0
 41
0.0
 42
0.0
 43
0.0
 44
0.0
 45
0.0
 46
0.0
 47
0.0
 48
0.0
 49
0.0
140
0.0
141
0.0
142
1.0
143
1.0
 70
   688
 72
     0
 73
     0
 74
     5
  7

 75
    16
147
1.0
 76
     0
 77
     2
 78
   300
148
0.0
149
0.0
100
AcDbLayout
  1
Presentación2
 70
     1
 71
     2
 10
0.0
 20
0.0
 11
12.0
 21
9.0
 12
0.0
 22
0.0
 32
0.0
 14
0.0
 24
0.0
 34
0.0
 15
0.0
 25
0.0
 35
0.0
146
0.0
 13
0.0
 23
0.0
 33
0.0
 16
1.0
 26
0.0
 36
0.0
 17
0.0
 27
1.0
 37
0.0
 76
     0
330
5D
  0
MLINESTYLE
  5
18
102
{ACAD_REACTORS
330
17
102
}
330
17
100
AcDbMlineStyle
  2
STANDARD
 70
     0
  3

 62
   256
 51
90.0
 52
90.0
 71
     2
 49
0.5
 62
   256
  6
BYLAYER
 49
-0.5
 62
   256
  6
BYLAYER
  0
ACDBPLACEHOLDER
  5
F
102
{ACAD_REACTORS
330
E
102
}
330
E
  0
DICTIONARYVAR
  5
67
102
{ACAD_REACTORS
330
66
102
}
330
66
100
DictionaryVariables
280
     0
  1
2
  0
DICTIONARYVAR
  5
6B
102
{ACAD_REACTORS
330
66
102
}
330
66
100
DictionaryVariables
280
     0
  1
1
  0
ENDSEC
  0
EOF
