  0
SECTION
  2
HEADER
  9
$ACADVER
  1
AC1018
  9
$ACADMAINTVER
 70
     0
  9
$DWGCODEPAGE
  3
ANSI_1252
  9
$INSBASE
 10
0.0
 20
0.0
 30
0.0
  9
$EXTMIN
 10
-5.809894991524515
 20
-99.4831058093001
 30
0.0
  9
$EXTMAX
 10
627.2371430863085
 20
726.162634357753
 30
0.0
  9
$LIMMIN
 10
0.0
 20
0.0
  9
$LIMMAX
 10
12.0
 20
9.0
  9
$ORTHOMODE
 70
     0
  9
$REGENMODE
 70
     1
  9
$FILLMODE
 70
     1
  9
$QTEXTMODE
 70
     0
  9
$MIRRTEXT
 70
     0
  9
$LTSCALE
 40
1.0
  9
$ATTMODE
 70
     1
  9
$TEXTSIZE
 40
0.2
  9
$TRACEWID
 40
0.05
  9
$TEXTSTYLE
  7
Standard
  9
$CLAYER
  8
0
  9
$CELTYPE
  6
ByLayer
  9
$CECOLOR
 62
   256
  9
$CELTSCALE
 40
1.0
  9
$DISPSILH
 70
     0
  9
$DIMSCALE
 40
1.0
  9
$DIMASZ
 40
0.18
  9
$DIMEXO
 40
0.0625
  9
$DIMDLI
 40
0.38
  9
$DIMRND
 40
0.0
  9
$DIMDLE
 40
0.0
  9
$DIMEXE
 40
0.18
  9
$DIMTP
 40
0.0
  9
$DIMTM
 40
0.0
  9
$DIMTXT
 40
0.18
  9
$DIMCEN
 40
0.09
  9
$DIMTSZ
 40
0.0
  9
$DIMTOL
 70
     0
  9
$DIMLIM
 70
     0
  9
$DIMTIH
 70
     1
  9
$DIMTOH
 70
     1
  9
$DIMSE1
 70
     0
  9
$DIMSE2
 70
     0
  9
$DIMTAD
 70
     0
  9
$DIMZIN
 70
     0
  9
$DIMBLK
  1

  9
$DIMASO
 70
     1
  9
$DIMSHO
 70
     1
  9
$DIMPOST
  1

  9
$DIMAPOST
  1

  9
$DIMALT
 70
     0
  9
$DIMALTD
 70
     2
  9
$DIMALTF
 40
25.4
  9
$DIMLFAC
 40
1.0
  9
$DIMTOFL
 70
     0
  9
$DIMTVP
 40
0.0
  9
$DIMTIX
 70
     0
  9
$DIMSOXD
 70
     0
  9
$DIMSAH
 70
     0
  9
$DIMBLK1
  1

  9
$DIMBLK2
  1

  9
$DIMSTYLE
  2
Standard
  9
$DIMCLRD
 70
     0
  9
$DIMCLRE
 70
     0
  9
$DIMCLRT
 70
     0
  9
$DIMTFAC
 40
1.0
  9
$DIMGAP
 40
0.09
  9
$DIMJUST
 70
     0
  9
$DIMSD1
 70
     0
  9
$DIMSD2
 70
     0
  9
$DIMTOLJ
 70
     1
  9
$DIMTZIN
 70
     0
  9
$DIMALTZ
 70
     0
  9
$DIMALTTZ
 70
     0
  9
$DIMUPT
 70
     0
  9
$DIMDEC
 70
     4
  9
$DIMTDEC
 70
     4
  9
$DIMALTU
 70
     2
  9
$DIMALTTD
 70
     2
  9
$DIMTXSTY
  7
Standard
  9
$DIMAUNIT
 70
     0
  9
$DIMADEC
 70
     0
  9
$DIMALTRND
 40
0.0
  9
$DIMAZIN
 70
     0
  9
$DIMDSEP
 70
    46
  9
$DIMATFIT
 70
     3
  9
$DIMFRAC
 70
     0
  9
$DIMLDRBLK
  1

  9
$DIMLUNIT
 70
     2
  9
$DIMLWD
 70
    -2
  9
$DIMLWE
 70
    -2
  9
$DIMTMOVE
 70
     0
  9
$LUNITS
 70
     2
  9
$LUPREC
 70
     4
  9
$SKETCHINC
 40
0.1
  9
$FILLETRAD
 40
0.0
  9
$AUNITS
 70
     0
  9
$AUPREC
 70
     0
  9
$MENU
  1
.
  9
$ELEVATION
 40
0.0
  9
$PELEVATION
 40
0.0
  9
$THICKNESS
 40
0.0
  9
$LIMCHECK
 70
     0
  9
$CHAMFERA
 40
0.0
  9
$CHAMFERB
 40
0.0
  9
$CHAMFERC
 40
0.0
  9
$CHAMFERD
 40
0.0
  9
$SKPOLY
 70
     0
  9
$TDCREATE
 40
2454479.872194363
  9
$TDUCREATE
 40
2454479.830527697
  9
$TDUPDATE
 40
2454479.873332060
  9
$TDUUPDATE
 40
2454479.831665393
  9
$TDINDWG
 40
0.0011382407
  9
$TDUSRTIMER
 40
0.0011382407
  9
$USRTIMER
 70
     1
  9
$ANGBASE
 50
0.0
  9
$ANGDIR
 70
     0
  9
$PDMODE
 70
     0
  9
$PDSIZE
 40
0.0
  9
$PLINEWID
 40
0.0
  9
$SPLFRAME
 70
     0
  9
$SPLINETYPE
 70
     6
  9
$SPLINESEGS
 70
     8
  9
$HANDSEED
  5
16D
  9
$SURFTAB1
 70
     6
  9
$SURFTAB2
 70
     6
  9
$SURFTYPE
 70
     6
  9
$SURFU
 70
     6
  9
$SURFV
 70
     6
  9
$UCSBASE
  2

  9
$UCSNAME
  2

  9
$UCSORG
 10
0.0
 20
0.0
 30
0.0
  9
$UCSXDIR
 10
1.0
 20
0.0
 30
0.0
  9
$UCSYDIR
 10
0.0
 20
1.0
 30
0.0
  9
$UCSORTHOREF
  2

  9
$UCSORTHOVIEW
 70
     0
  9
$UCSORGTOP
 10
0.0
 20
0.0
 30
0.0
  9
$UCSORGBOTTOM
 10
0.0
 20
0.0
 30
0.0
  9
$UCSORGLEFT
 10
0.0
 20
0.0
 30
0.0
  9
$UCSORGRIGHT
 10
0.0
 20
0.0
 30
0.0
  9
$UCSORGFRONT
 10
0.0
 20
0.0
 30
0.0
  9
$UCSORGBACK
 10
0.0
 20
0.0
 30
0.0
  9
$PUCSBASE
  2

  9
$PUCSNAME
  2

  9
$PUCSORG
 10
0.0
 20
0.0
 30
0.0
  9
$PUCSXDIR
 10
1.0
 20
0.0
 30
0.0
  9
$PUCSYDIR
 10
0.0
 20
1.0
 30
0.0
  9
$PUCSORTHOREF
  2

  9
$PUCSORTHOVIEW
 70
     0
  9
$PUCSORGTOP
 10
0.0
 20
0.0
 30
0.0
  9
$PUCSORGBOTTOM
 10
0.0
 20
0.0
 30
0.0
  9
$PUCSORGLEFT
 10
0.0
 20
0.0
 30
0.0
  9
$PUCSORGRIGHT
 10
0.0
 20
0.0
 30
0.0
  9
$PUCSORGFRONT
 10
0.0
 20
0.0
 30
0.0
  9
$PUCSORGBACK
 10
0.0
 20
0.0
 30
0.0
  9
$USERI1
 70
     0
  9
$USERI2
 70
     0
  9
$USERI3
 70
     0
  9
$USERI4
 70
     0
  9
$USERI5
 70
     0
  9
$USERR1
 40
0.0
  9
$USERR2
 40
0.0
  9
$USERR3
 40
0.0
  9
$USERR4
 40
0.0
  9
$USERR5
 40
0.0
  9
$WORLDVIEW
 70
     1
  9
$SHADEDGE
 70
     3
  9
$SHADEDIF
 70
    70
  9
$TILEMODE
 70
     1
  9
$MAXACTVP
 70
    64
  9
$PINSBASE
 10
0.0
 20
0.0
 30
0.0
  9
$PLIMCHECK
 70
     0
  9
$PEXTMIN
 10
0.0
 20
0.0
 30
0.0
  9
$PEXTMAX
 10
0.0
 20
0.0
 30
0.0
  9
$PLIMMIN
 10
0.0
 20
0.0
  9
$PLIMMAX
 10
12.0
 20
9.0
  9
$UNITMODE
 70
     0
  9
$VISRETAIN
 70
     1
  9
$PLINEGEN
 70
     0
  9
$PSLTSCALE
 70
     1
  9
$TREEDEPTH
 70
  3020
  9
$CMLSTYLE
  2
Standard
  9
$CMLJUST
 70
     0
  9
$CMLSCALE
 40
1.0
  9
$PROXYGRAPHICS
 70
     1
  9
$MEASUREMENT
 70
     0
  9
$CELWEIGHT
370
    -1
  9
$ENDCAPS
280
     0
  9
$JOINSTYLE
280
     0
  9
$LWDISPLAY
290
     0
  9
$INSUNITS
 70
     1
  9
$HYPERLINKBASE
  1

  9
$STYLESHEET
  1

  9
$XEDIT
290
     1
  9
$CEPSNTYPE
380
     0
  9
$PSTYLEMODE
290
     1
  9
$FINGERPRINTGUID
  2
{FDEAD576-A652-11D2-9A35-0060089B3A3F}
  9
$VERSIONGUID
  2
{CFB7E24C-8588-45F5-AC17-F32EDCC00EBD}
  9
$EXTNAMES
290
     1
  9
$PSVPSCALE
 40
0.0
  9
$OLESTARTUP
290
     0
  9
$SORTENTS
280
   127
  9
$INDEXCTL
280
     0
  9
$HIDETEXT
280
     1
  9
$XCLIPFRAME
290
     0
  9
$HALOGAP
280
     0
  9
$OBSCOLOR
 70
   257
  9
$OBSLTYPE
280
     0
  9
$INTERSECTIONDISPLAY
280
     0
  9
$INTERSECTIONCOLOR
 70
   257
  9
$DIMASSOC
280
     2
  9
$PROJECTNAME
  1

  0
ENDSEC
  0
SECTION
  2
CLASSES
  0
CLASS
  1
ACDBDICTIONARYWDFLT
  2
AcDbDictionaryWithDefault
  3
ObjectDBX Classes
 90
        0
 91
        1
280
     0
281
     0
  0
CLASS
  1
DICTIONARYVAR
  2
AcDbDictionaryVar
  3
ObjectDBX Classes
 90
        0
 91
        2
280
     0
281
     0
  0
ENDSEC
  0
SECTION
  2
TABLES
  0
TABLE
  2
VPORT
  5
8
330
0
100
AcDbSymbolTable
 70
     6
  0
VPORT
  5
16C
330
8
100
AcDbSymbolTableRecord
100
AcDbViewportTableRecord
  2
*Active
 70
     0
 10
0.0
 20
0.0
 11
1.0
 21
1.0
 12
237.9099071253336
 22
279.2824389721894
 13
0.0
 23
0.0
 14
0.5
 24
0.5
 15
0.5
 25
0.5
 16
0.0
 26
0.0
 36
1.0
 17
0.0
 27
0.0
 37
0.0
 40
1058.454483953007
 41
1.809523809523809
 42
50.0
 43
0.0
 44
0.0
 50
0.0
 51
0.0
 71
     0
 72
  1000
 73
     1
 74
     3
 75
     0
 76
     0
 77
     0
 78
     0
281
     0
 65
     1
110
0.0
120
0.0
130
0.0
111
1.0
121
0.0
131
0.0
112
0.0
122
1.0
132
0.0
 79
     0
146
0.0
  0
ENDTAB
  0
TABLE
  2
LTYPE
  5
5
330
0
100
AcDbSymbolTable
 70
     1
  0
LTYPE
  5
14
330
5
100
AcDbSymbolTableRecord
100
AcDbLinetypeTableRecord
  2
ByBlock
 70
     0
  3

 72
    65
 73
     0
 40
0.0
  0
LTYPE
  5
15
330
5
100
AcDbSymbolTableRecord
100
AcDbLinetypeTableRecord
  2
ByLayer
 70
     0
  3

 72
    65
 73
     0
 40
0.0
  0
LTYPE
  5
16
330
5
100
AcDbSymbolTableRecord
100
AcDbLinetypeTableRecord
  2
Continuous
 70
     0
  3
Solid line
 72
    65
 73
     0
 40
0.0
  0
ENDTAB
  0
TABLE
  2
LAYER
  5
2
330
0
100
AcDbSymbolTable
 70
     1
  0
LAYER
  5
10
330
2
100
AcDbSymbolTableRecord
100
AcDbLayerTableRecord
  2
0
 70
     0
 62
     7
  6
Continuous
370
    -3
390
F
  0
ENDTAB
  0
TABLE
  2
STYLE
  5
3
330
0
100
AcDbSymbolTable
 70
     1
  0
STYLE
  5
11
330
3
100
AcDbSymbolTableRecord
100
AcDbTextStyleTableRecord
  2
Standard
 70
     0
 40
0.0
 41
1.0
 50
0.0
 71
     0
 42
0.2
  3
txt
  4

  0
ENDTAB
  0
TABLE
  2
VIEW
  5
6
330
0
100
AcDbSymbolTable
 70
     0
  0
ENDTAB
  0
TABLE
  2
UCS
  5
7
330
0
100
AcDbSymbolTable
 70
     0
  0
ENDTAB
  0
TABLE
  2
APPID
  5
9
330
0
100
AcDbSymbolTable
 70
     1
  0
APPID
  5
12
330
9
100
AcDbSymbolTableRecord
100
AcDbRegAppTableRecord
  2
ACAD
 70
     0
  0
ENDTAB
  0
TABLE
  2
DIMSTYLE
  5
A
330
0
100
AcDbSymbolTable
 70
     1
100
AcDbDimStyleTable
 71
     0
  0
DIMSTYLE
105
27
330
A
100
AcDbSymbolTableRecord
100
AcDbDimStyleTableRecord
  2
Standard
 70
     0
340
11
  0
ENDTAB
  0
TABLE
  2
BLOCK_RECORD
  5
1
330
0
100
AcDbSymbolTable
 70
     4
  0
BLOCK_RECORD
  5
1F
330
1
100
AcDbSymbolTableRecord
100
AcDbBlockTableRecord
  2
*Model_Space
340
22
  0
BLOCK_RECORD
  5
58
330
1
100
AcDbSymbolTableRecord
100
AcDbBlockTableRecord
  2
*Paper_Space
340
59
  0
BLOCK_RECORD
  5
5D
330
1
100
AcDbSymbolTableRecord
100
AcDbBlockTableRecord
  2
*Paper_Space0
340
5E
  0
BLOCK_RECORD
  5
123
330
1
100
AcDbSymbolTableRecord
100
AcDbBlockTableRecord
  2
29700_A
340
0
102
{BLKREFS
331
168
102
}
1001
ACAD
1000
DesignCenter Data
1002
{
1070
     1
1070
     4
1002
}
  0
ENDTAB
  0
ENDSEC
  0
SECTION
  2
BLOCKS
  0
BLOCK
  5
20
330
1F
100
AcDbEntity
  8
0
100
AcDbBlockBegin
  2
*Model_Space
 70
     0
 10
0.0
 20
0.0
 30
0.0
  3
*Model_Space
  1

  0
ENDBLK
  5
21
330
1F
100
AcDbEntity
  8
0
100
AcDbBlockEnd
  0
BLOCK
  5
5A
330
58
100
AcDbEntity
 67
     1
  8
0
100
AcDbBlockBegin
  2
*Paper_Space
 70
     0
 10
0.0
 20
0.0
 30
0.0
  3
*Paper_Space
  1

  0
ENDBLK
  5
5B
330
58
100
AcDbEntity
 67
     1
  8
0
100
AcDbBlockEnd
  0
BLOCK
  5
5F
330
5D
100
AcDbEntity
  8
0
100
AcDbBlockBegin
  2
*Paper_Space0
 70
     0
 10
0.0
 20
0.0
 30
0.0
  3
*Paper_Space0
  1

  0
ENDBLK
  5
60
330
5D
100
AcDbEntity
  8
0
100
AcDbBlockEnd
  0
BLOCK
  5
124
330
123
100
AcDbEntity
  8
0
100
AcDbBlockBegin
  2
29700_A
 70
     0
 10
0.0
 20
0.0
 30
0.0
  3
29700_A
  1

  0
ARC
  5
126
330
123
100
AcDbEntity
  8
0
100
AcDbCircle
 10
-610.0542368981405
 20
530.4707066118133
 30
0.0
 40
820.0000000000001
100
AcDbArc
 50
346.0639893468189
 51
5.891187634406107
  0
ARC
  5
127
330
123
100
AcDbEntity
  8
0
100
AcDbCircle
 10
-610.0542368981405
 20
530.4707066118133
 30
0.0
 40
845.0
100
AcDbArc
 50
346.0639893468189
 51
1.687607961625424
  0
ARC
  5
128
330
123
100
AcDbEntity
  8
0
100
AcDbCircle
 10
154.6139466556633
 20
552.9999999998834
 30
0.0
 40
80.0
100
AcDbArc
 50
1.687607961625424
 51
77.52461145659137
  0
ARC
  5
129
330
123
100
AcDbEntity
  8
0
100
AcDbCircle
 10
610.0542368981041
 20
530.4707066118133
 30
0.0
 40
845.0
100
AcDbArc
 50
178.3123920383746
 51
193.9360106531811
  0
ARC
  5
12A
330
123
100
AcDbEntity
  8
0
100
AcDbCircle
 10
610.0542368981041
 20
530.4707066118133
 30
0.0
 40
820.0000000000001
100
AcDbArc
 50
174.1088123655939
 51
193.9360106531811
  0
ARC
  5
12B
330
123
100
AcDbEntity
  8
0
100
AcDbCircle
 10
-0.908584656608582
 20
344.5510127110174
 30
0.0
 40
149.4138956843388
100
AcDbArc
 50
176.2694866121669
 51
189.9870155630062
  0
ARC
  5
12C
330
123
100
AcDbEntity
  8
0
100
AcDbCircle
 10
0.9085846565722022
 20
344.5510127110174
 30
0.0
 40
149.4138956843388
100
AcDbArc
 50
350.0129844369937
 51
3.730513387833117
  0
ARC
  5
12D
330
123
100
AcDbEntity
  8
0
100
AcDbCircle
 10
-540.9712282871623
 20
8.020278137119021
 30
0.0
 40
435.0
100
AcDbArc
 50
359.3432716454902
 51
32.29938807511426
  0
ARC
  5
12E
330
123
100
AcDbEntity
  8
0
100
AcDbCircle
 10
540.9712282871623
 20
8.020278137119021
 30
0.0
 40
435.0
100
AcDbArc
 50
147.7006119248857
 51
180.6567283545096
  0
LINE
  5
12F
330
123
100
AcDbEntity
  8
0
100
AcDbLine
 10
0.0
 20
0.0
 30
0.0
 11
-103.0000025457411
 21
0.0
 31
0.0
  0
ARC
  5
130
330
123
100
AcDbEntity
  8
0
100
AcDbCircle
 10
-103.0000000000655
 20
2.999999999883584
 30
0.0
 40
3.0
100
AcDbArc
 50
179.343262180795
 51
269.9999513823745
  0
LINE
  5
131
330
123
100
AcDbEntity
  8
0
100
AcDbLine
 10
0.0
 20
0.0
 30
0.0
 11
103.0000025457411
 21
0.0
 31
0.0
  0
ARC
  5
132
330
123
100
AcDbEntity
  8
0
100
AcDbCircle
 10
103.0000000000655
 20
2.999999999883584
 30
0.0
 40
3.0
100
AcDbArc
 50
270.0000486176254
 51
0.6567378192049479
  0
ARC
  5
133
330
123
100
AcDbEntity
  8
0
100
AcDbCircle
 10
2.184906216352828
 20
966.9193463126431
 30
0.0
 40
740.0
100
AcDbArc
 50
261.531413122317
 51
269.8110069769903
  0
ARC
  5
134
330
123
100
AcDbEntity
  8
0
100
AcDbCircle
 10
-9.444529927823168
 20
853.2995050190947
 30
0.0
 40
602.0121630081655
100
AcDbArc
 50
260.9678046109324
 51
270.8989085893073
  0
ARC
  5
135
330
123
100
AcDbEntity
  8
0
100
AcDbCircle
 10
-11.85174722311785
 20
468.2200036055291
 30
0.0
 40
217.1821920336198
100
AcDbArc
 50
239.5444224758071
 51
273.1282149471962
  0
ARC
  5
136
330
123
100
AcDbEntity
  8
0
100
AcDbCircle
 10
-255.5815984078436
 20
85.35141694941552
 30
0.0
 40
202.2422696229357
100
AcDbArc
 50
52.32020949234354
 51
64.72702213124295
  0
ARC
  5
137
330
123
100
AcDbEntity
  8
0
100
AcDbCircle
 10
-49.0260999588645
 20
388.6314968403894
 30
0.0
 40
144.1375246692602
100
AcDbArc
 50
215.1710483385748
 51
236.8093845186496
  0
ARC
  5
138
330
123
100
AcDbEntity
  8
0
100
AcDbCircle
 10
-94.23227986600977
 20
328.1173331124591
 30
0.0
 40
54.65431615447413
100
AcDbArc
 50
189.9870155630062
 51
239.5444224758071
  0
ARC
  5
139
330
123
100
AcDbEntity
  8
0
100
AcDbCircle
 10
0.0
 20
350.0
 30
0.0
 40
205.0
100
AcDbArc
 50
195.333879465422
 51
212.2993867071543
  0
ARC
  5
13A
330
123
100
AcDbEntity
  8
0
100
AcDbCircle
 10
-141.5920309987268
 20
326.7928650879184
 30
0.0
 40
64.75509807451501
100
AcDbArc
 50
227.6816160599016
 51
244.7270221312429
  0
ARC
  5
13B
330
123
100
AcDbEntity
  8
0
100
AcDbCircle
 10
-88.75278303730738
 20
357.0672784768976
 30
0.0
 40
125.0
100
AcDbArc
 50
193.9360106531811
 51
209.3553928872433
  0
ARC
  5
13C
330
123
100
AcDbEntity
  8
0
100
AcDbCircle
 10
-173.5417398531717
 20
324.0408211454632
 30
0.0
 40
10.0
100
AcDbArc
 50
199.4854785327466
 51
238.7593538322683
  0
LINE
  5
13D
330
123
100
AcDbEntity
  8
0
100
AcDbLine
 10
-185.1883876390639
 20
278.9119668680359
 30
0.0
 11
-185.1227059323719
 21
328.5729288696893
 31
0.0
  0
ARC
  5
13E
330
123
100
AcDbEntity
  8
0
100
AcDbCircle
 10
-148.5361009054031
 20
319.1663492491352
 30
0.0
 40
54.44084334102214
100
AcDbArc
 50
205.4298834803335
 51
227.6816160599016
  0
ARC
  5
13F
330
123
100
AcDbEntity
  8
0
100
AcDbCircle
 10
-190.6759288913235
 20
288.815689800831
 30
0.0
 40
29.14798935762924
100
AcDbArc
 50
35.17104833857477
 51
63.32430323481312
  0
ARC
  5
140
330
123
100
AcDbEntity
  8
0
100
AcDbCircle
 10
-170.2606564781672
 20
329.4498700875556
 30
0.0
 40
16.32639854670523
100
AcDbArc
 50
238.7593538322683
 51
243.3243032348132
  0
ARC
  5
141
330
123
100
AcDbEntity
  8
0
100
AcDbCircle
 10
-130.174161437244
 20
339.385717496334
 30
0.0
 40
56.00231191660661
100
AcDbArc
 50
186.5644713550708
 51
199.4854785327466
  0
LINE
  5
142
330
123
100
AcDbEntity
  8
0
100
AcDbLine
 10
-120.1464784801647
 20
238.5552267145249
 30
0.0
 11
-119.2571159276849
 21
263.2847354060504
 31
0.0
  0
ARC
  5
143
330
123
100
AcDbEntity
  8
0
100
AcDbCircle
 10
-100.1606718860057
 20
286.5892568739946
 30
0.0
 40
52.02596004495859
100
AcDbArc
 50
232.3202094923435
 51
262.6761795020999
  0
ARC
  5
144
330
123
100
AcDbEntity
  8
0
100
AcDbCircle
 10
-94.31337895082833
 20
319.4005344397737
 30
0.0
 40
61.40987636822764
100
AcDbArc
 50
236.8093845186496
 51
260.9678046109324
  0
ARC
  5
145
330
123
100
AcDbEntity
  8
0
100
AcDbCircle
 10
11.85174722308147
 20
468.2200036055291
 30
0.0
 40
217.1821920336198
100
AcDbArc
 50
266.8717850528038
 51
300.4555775241929
  0
ARC
  5
146
330
123
100
AcDbEntity
  8
0
100
AcDbCircle
 10
9.444529927786788
 20
853.2995050190947
 30
0.0
 40
602.0121630081655
100
AcDbArc
 50
269.1010914106927
 51
279.0321953890676
  0
ARC
  5
147
330
123
100
AcDbEntity
  8
0
100
AcDbCircle
 10
-2.184906216389208
 20
966.9193463126431
 30
0.0
 40
740.0
100
AcDbArc
 50
270.1889930230097
 51
278.468586877683
  0
ARC
  5
148
330
123
100
AcDbEntity
  8
0
100
AcDbCircle
 10
49.02609995860984
 20
388.6314968403894
 30
0.0
 40
144.1375246692602
100
AcDbArc
 50
303.1906154813504
 51
324.8289516614253
  0
ARC
  5
149
330
123
100
AcDbEntity
  8
0
100
AcDbCircle
 10
141.5920309986904
 20
326.7928650879184
 30
0.0
 40
64.75509807451501
100
AcDbArc
 50
295.2729778687571
 51
312.3183839400984
  0
ARC
  5
14A
330
123
100
AcDbEntity
  8
0
100
AcDbCircle
 10
0.0
 20
350.0
 30
0.0
 40
205.0
100
AcDbArc
 50
327.7006132928456
 51
344.666120534578
  0
ARC
  5
14B
330
123
100
AcDbEntity
  8
0
100
AcDbCircle
 10
255.5815984075889
 20
85.35141694941552
 30
0.0
 40
202.2422696229357
100
AcDbArc
 50
115.272977868757
 51
127.6797905076564
  0
LINE
  5
14C
330
123
100
AcDbEntity
  8
0
100
AcDbLine
 10
120.1464784801283
 20
238.5552267145249
 30
0.0
 11
119.2571159276485
 21
263.2847354060504
 31
0.0
  0
ARC
  5
14D
330
123
100
AcDbEntity
  8
0
100
AcDbCircle
 10
94.31337895079195
 20
319.4005344397737
 30
0.0
 40
61.40987636822764
100
AcDbArc
 50
279.0321953890676
 51
303.1906154813504
  0
ARC
  5
14E
330
123
100
AcDbEntity
  8
0
100
AcDbCircle
 10
100.1606718859693
 20
286.5892568739946
 30
0.0
 40
52.02596004495859
100
AcDbArc
 50
277.3238204979
 51
307.6797905076564
  0
ARC
  5
14F
330
123
100
AcDbEntity
  8
0
100
AcDbCircle
 10
94.23227986597339
 20
328.1173331124591
 30
0.0
 40
54.65431615447413
100
AcDbArc
 50
300.4555775241929
 51
350.0129844369937
  0
ARC
  5
150
330
123
100
AcDbEntity
  8
0
100
AcDbCircle
 10
173.5417398531717
 20
324.0408211454632
 30
0.0
 40
10.0
100
AcDbArc
 50
301.2406461677317
 51
340.5145214672534
  0
LINE
  5
151
330
123
100
AcDbEntity
  8
0
100
AcDbLine
 10
185.1883876390639
 20
278.9119668680359
 30
0.0
 11
185.1227059323719
 21
328.5729288696893
 31
0.0
  0
ARC
  5
152
330
123
100
AcDbEntity
  8
0
100
AcDbCircle
 10
130.174161437244
 20
339.385717496334
 30
0.0
 40
56.00231191660661
100
AcDbArc
 50
340.5145214672534
 51
353.4355286449291
  0
ARC
  5
153
330
123
100
AcDbEntity
  8
0
100
AcDbCircle
 10
170.2606564781308
 20
329.4498700875556
 30
0.0
 40
16.32639854670523
100
AcDbArc
 50
296.6756967651869
 51
301.2406461677317
  0
ARC
  5
154
330
123
100
AcDbEntity
  8
0
100
AcDbCircle
 10
190.6759288913235
 20
288.815689800831
 30
0.0
 40
29.14798935762924
100
AcDbArc
 50
116.6756967651868
 51
144.8289516614252
  0
ARC
  5
155
330
123
100
AcDbEntity
  8
0
100
AcDbCircle
 10
148.5361009054031
 20
319.1663492491352
 30
0.0
 40
54.44084334102214
100
AcDbArc
 50
312.3183839400984
 51
334.5701165196666
  0
ARC
  5
156
330
123
100
AcDbEntity
  8
0
100
AcDbCircle
 10
88.75278303730738
 20
357.0672784768976
 30
0.0
 40
125.0
100
AcDbArc
 50
330.6446071127567
 51
346.0639893468189
  0
ARC
  5
157
330
123
100
AcDbEntity
  8
0
100
AcDbCircle
 10
-154.6139466556633
 20
552.9999999998834
 30
0.0
 40
80.0
100
AcDbArc
 50
102.4753885434086
 51
178.3123920383746
  0
ARC
  5
158
330
123
100
AcDbEntity
  8
0
100
AcDbCircle
 10
62.17309399995428
 20
392.0850519873783
 30
0.0
 40
215.5934557615805
100
AcDbArc
 50
112.047052626562
 51
117.2532127704123
  0
ARC
  5
159
330
123
100
AcDbEntity
  8
0
100
AcDbCircle
 10
181.6544010855432
 20
337.2683828513254
 30
0.0
 40
331.62881210902
100
AcDbArc
 50
151.0972281931453
 51
165.4891292653035
  0
ARC
  5
15A
330
123
100
AcDbEntity
  8
0
100
AcDbCircle
 10
205.5200630631953
 20
331.0914718810817
 30
0.0
 40
356.2808718761766
100
AcDbArc
 50
165.4891292653035
 51
176.2694866121669
  0
ARC
  5
15B
330
123
100
AcDbEntity
  8
0
100
AcDbCircle
 10
222.9165628827832
 20
314.4878412797697
 30
0.0
 40
378.7618055475425
100
AcDbArc
 50
138.9517343563327
 51
151.0972281931453
  0
ARC
  5
15C
330
123
100
AcDbEntity
  8
0
100
AcDbCircle
 10
3.912593904242385
 20
505.189222076442
 30
0.0
 40
88.36594630346658
100
AcDbArc
 50
117.2532127704123
 51
138.9517343563327
  0
ARC
  5
15D
330
123
100
AcDbEntity
  8
0
100
AcDbCircle
 10
-181.6544010855432
 20
337.2683828513254
 30
0.0
 40
331.62881210902
100
AcDbArc
 50
14.5108707346965
 51
28.90277180685469
  0
ARC
  5
15E
330
123
100
AcDbEntity
  8
0
100
AcDbCircle
 10
-205.5200630632316
 20
331.0914718810817
 30
0.0
 40
356.2808718761766
100
AcDbArc
 50
3.730513387833117
 51
14.5108707346965
  0
ARC
  5
15F
330
123
100
AcDbEntity
  8
0
100
AcDbCircle
 10
-222.9165628828196
 20
314.4878412797697
 30
0.0
 40
378.7618055475425
100
AcDbArc
 50
28.90277180685469
 51
41.04826564366732
  0
ARC
  5
160
330
123
100
AcDbEntity
  8
0
100
AcDbCircle
 10
-62.17309399995428
 20
392.0850519873783
 30
0.0
 40
215.5934557615805
100
AcDbArc
 50
62.74678722958769
 51
67.95294737343794
  0
ELLIPSE
  5
161
330
123
100
AcDbEntity
  8
0
100
AcDbEllipse
 10
0.0000000000436557
 20
562.4869897443566
 30
0.0
 11
12.50000000000026
 21
0.0000000000000091
 31
0.0
210
0.0
220
0.0
230
1.0
 40
0.8559899496853358
 41
3.374064691609261
 42
6.050713269160115
  0
ELLIPSE
  5
162
330
123
100
AcDbEntity
  8
0
100
AcDbEllipse
 10
0.0000000000436557
 20
557.5568350623361
 30
0.0
 11
-12.5
 21
0.0
 31
0.0
210
0.0
220
0.0
230
1.0
 40
0.8559899496853359
 41
0.0
 42
6.283185307179586
  0
ARC
  5
163
330
123
100
AcDbEntity
  8
0
100
AcDbCircle
 10
-1.184901755768805
 20
548.5315701799116
 30
0.0
 40
46.80439011814822
100
AcDbArc
 50
88.54934284038519
 51
112.047052626562
  0
ARC
  5
164
330
123
100
AcDbEntity
  8
0
100
AcDbCircle
 10
1.184901755768805
 20
548.5315701799116
 30
0.0
 40
46.80439011814822
100
AcDbArc
 50
67.95294737343794
 51
91.45065715961482
  0
ARC
  5
165
330
123
100
AcDbEntity
  8
0
100
AcDbCircle
 10
-3.912593904278764
 20
505.189222076442
 30
0.0
 40
88.36594630346658
100
AcDbArc
 50
41.04826564366732
 51
62.74678722958769
  0
ARC
  5
166
330
123
100
AcDbEntity
  8
0
100
AcDbCircle
 10
0.9206154197454452
 20
-150.0
 30
0.0
 40
800.0
100
AcDbArc
 50
90.06593423721634
 51
102.4753885434086
  0
ARC
  5
167
330
123
100
AcDbEntity
  8
0
100
AcDbCircle
 10
-0.920615419781825
 20
-150.0
 30
0.0
 40
800.0
100
AcDbArc
 50
77.52461145659137
 51
89.93406576278367
  0
ENDBLK
  5
125
330
123
100
AcDbEntity
  8
0
100
AcDbBlockEnd
  0
ENDSEC
  0
SECTION
  2
ENTITIES
  0
MTEXT
  5
121
330
1F
100
AcDbEntity
  8
0
100
AcDbMText
 10
211.0207547676432
 20
23.95515425190339
 30
0.0
 40
30.0
 41
553.2660026333596
 71
     1
 72
     5
  1
{\fTimes New Roman|b0|i0|c0|p18;\C0;URINARIO ARGOS}
 73
     1
 44
1.0
  0
INSERT
  5
168
330
1F
100
AcDbEntity
  8
0
100
AcDbBlockReference
  2
29700_A
 10
379.6457339558751
 20
71.504842620408
 30
0.0
  0
ENDSEC
  0
SECTION
  2
OBJECTS
  0
DICTIONARY
  5
C
330
0
100
AcDbDictionary
281
     1
  3
ACAD_COLOR
350
73
  3
ACAD_GROUP
350
D
  3
ACAD_LAYOUT
350
1A
  3
ACAD_MATERIAL
350
72
  3
ACAD_MLINESTYLE
350
17
  3
ACAD_PLOTSETTINGS
350
19
  3
ACAD_PLOTSTYLENAME
350
E
  3
AcDbVariableDictionary
350
66
  0
DICTIONARY
  5
73
102
{ACAD_REACTORS
330
C
102
}
330
C
100
AcDbDictionary
281
     1
  0
DICTIONARY
  5
D
102
{ACAD_REACTORS
330
C
102
}
330
C
100
AcDbDictionary
281
     1
  0
DICTIONARY
  5
1A
102
{ACAD_REACTORS
330
C
102
}
330
C
100
AcDbDictionary
281
     1
  3
Model
350
22
  3
Presentación1
350
59
  3
Presentación2
350
5E
  0
DICTIONARY
  5
72
102
{ACAD_REACTORS
330
C
102
}
330
C
100
AcDbDictionary
281
     1
  0
DICTIONARY
  5
17
102
{ACAD_REACTORS
330
C
102
}
330
C
100
AcDbDictionary
281
     1
  3
Standard
350
18
  0
DICTIONARY
  5
19
102
{ACAD_REACTORS
330
C
102
}
330
C
100
AcDbDictionary
281
     1
  0
ACDBDICTIONARYWDFLT
  5
E
102
{ACAD_REACTORS
330
C
102
}
330
C
100
AcDbDictionary
281
     1
  3
Normal
350
F
100
AcDbDictionaryWithDefault
340
F
  0
DICTIONARY
  5
66
102
{ACAD_REACTORS
330
C
102
}
330
C
100
AcDbDictionary
281
     1
  3
DIMASSOC
350
67
  3
HIDETEXT
350
6B
  0
LAYOUT
  5
22
102
{ACAD_REACTORS
330
1A
102
}
330
1A
100
AcDbPlotSettings
  1

  2
none_device
  4
ANSI_A_(8.50_x_11.00_Inches)
  6

 40
6.349999904632567
 41
19.04999923706055
 42
6.350006103515625
 43
19.04998779296875
 44
215.8999938964844
 45
279.3999938964844
 46
0.0
 47
0.0
 48
0.0
 49
0.0
140
0.0
141
0.0
142
1.0
143
2.584895464708373
 70
 11952
 72
     0
 73
     1
 74
     0
  7

 75
     0
147
0.3868628397755418
 76
     0
 77
     2
 78
   300
148
0.0
149
0.0
100
AcDbLayout
  1
Model
 70
     1
 71
     0
 10
0.0
 20
0.0
 11
12.0
 21
9.0
 12
0.0
 22
0.0
 32
0.0
 14
0.0
 24
0.0
 34
0.0
 15
0.0
 25
0.0
 35
0.0
146
0.0
 13
0.0
 23
0.0
 33
0.0
 16
1.0
 26
0.0
 36
0.0
 17
0.0
 27
1.0
 37
0.0
 76
     0
330
1F
  0
LAYOUT
  5
59
102
{ACAD_REACTORS
330
1A
102
}
330
1A
100
AcDbPlotSettings
  1

  2
None
  4

  6

 40
0.0
 41
0.0
 42
0.0
 43
0.0
 44
0.0
 45
0.0
 46
0.0
 47
0.0
 48
0.0
 49
0.0
140
0.0
141
0.0
142
1.0
143
1.0
 70
   688
 72
     0
 73
     0
 74
     5
  7

 75
    16
147
1.0
 76
     0
 77
     2
 78
   300
148
0.0
149
0.0
100
AcDbLayout
  1
Presentación1
 70
     1
 71
     1
 10
0.0
 20
0.0
 11
12.0
 21
9.0
 12
0.0
 22
0.0
 32
0.0
 14
0.0
 24
0.0
 34
0.0
 15
0.0
 25
0.0
 35
0.0
146
0.0
 13
0.0
 23
0.0
 33
0.0
 16
1.0
 26
0.0
 36
0.0
 17
0.0
 27
1.0
 37
0.0
 76
     0
330
58
  0
LAYOUT
  5
5E
102
{ACAD_REACTORS
330
1A
102
}
330
1A
100
AcDbPlotSettings
  1

  2
None
  4

  6

 40
0.0
 41
0.0
 42
0.0
 43
0.0
 44
0.0
 45
0.0
 46
0.0
 47
0.0
 48
0.0
 49
0.0
140
0.0
141
0.0
142
1.0
143
1.0
 70
   688
 72
     0
 73
     0
 74
     5
  7

 75
    16
147
1.0
 76
     0
 77
     2
 78
   300
148
0.0
149
0.0
100
AcDbLayout
  1
Presentación2
 70
     1
 71
     2
 10
0.0
 20
0.0
 11
12.0
 21
9.0
 12
0.0
 22
0.0
 32
0.0
 14
0.0
 24
0.0
 34
0.0
 15
0.0
 25
0.0
 35
0.0
146
0.0
 13
0.0
 23
0.0
 33
0.0
 16
1.0
 26
0.0
 36
0.0
 17
0.0
 27
1.0
 37
0.0
 76
     0
330
5D
  0
MLINESTYLE
  5
18
102
{ACAD_REACTORS
330
17
102
}
330
17
100
AcDbMlineStyle
  2
STANDARD
 70
     0
  3

 62
   256
 51
90.0
 52
90.0
 71
     2
 49
0.5
 62
   256
  6
BYLAYER
 49
-0.5
 62
   256
  6
BYLAYER
  0
ACDBPLACEHOLDER
  5
F
102
{ACAD_REACTORS
330
E
102
}
330
E
  0
DICTIONARYVAR
  5
67
102
{ACAD_REACTORS
330
66
102
}
330
66
100
DictionaryVariables
280
     0
  1
2
  0
DICTIONARYVAR
  5
6B
102
{ACAD_REACTORS
330
66
102
}
330
66
100
DictionaryVariables
280
     0
  1
1
  0
ENDSEC
  0
EOF
