  0
SECTION
  2
HEADER
  9
$ACADVER
  1
AC1018
  9
$ACADMAINTVER
 70
     0
  9
$DWGCODEPAGE
  3
ANSI_1252
  9
$INSBASE
 10
0.0
 20
0.0
 30
0.0
  9
$EXTMIN
 10
16.46410262736018
 20
12.16797203515604
 30
0.0
  9
$EXTMAX
 10
653.8613629013327
 20
390.6114608720846
 30
0.0
  9
$LIMMIN
 10
0.0
 20
0.0
  9
$LIMMAX
 10
12.0
 20
9.0
  9
$ORTHOMODE
 70
     0
  9
$REGENMODE
 70
     1
  9
$FILLMODE
 70
     1
  9
$QTEXTMODE
 70
     0
  9
$MIRRTEXT
 70
     0
  9
$LTSCALE
 40
1.0
  9
$ATTMODE
 70
     1
  9
$TEXTSIZE
 40
0.2
  9
$TRACEWID
 40
0.05
  9
$TEXTSTYLE
  7
Standard
  9
$CLAYER
  8
0
  9
$CELTYPE
  6
ByLayer
  9
$CECOLOR
 62
   256
  9
$CELTSCALE
 40
1.0
  9
$DISPSILH
 70
     0
  9
$DIMSCALE
 40
1.0
  9
$DIMASZ
 40
0.18
  9
$DIMEXO
 40
0.0625
  9
$DIMDLI
 40
0.38
  9
$DIMRND
 40
0.0
  9
$DIMDLE
 40
0.0
  9
$DIMEXE
 40
0.18
  9
$DIMTP
 40
0.0
  9
$DIMTM
 40
0.0
  9
$DIMTXT
 40
0.18
  9
$DIMCEN
 40
0.09
  9
$DIMTSZ
 40
0.0
  9
$DIMTOL
 70
     0
  9
$DIMLIM
 70
     0
  9
$DIMTIH
 70
     1
  9
$DIMTOH
 70
     1
  9
$DIMSE1
 70
     0
  9
$DIMSE2
 70
     0
  9
$DIMTAD
 70
     0
  9
$DIMZIN
 70
     0
  9
$DIMBLK
  1

  9
$DIMASO
 70
     1
  9
$DIMSHO
 70
     1
  9
$DIMPOST
  1

  9
$DIMAPOST
  1

  9
$DIMALT
 70
     0
  9
$DIMALTD
 70
     2
  9
$DIMALTF
 40
25.4
  9
$DIMLFAC
 40
1.0
  9
$DIMTOFL
 70
     0
  9
$DIMTVP
 40
0.0
  9
$DIMTIX
 70
     0
  9
$DIMSOXD
 70
     0
  9
$DIMSAH
 70
     0
  9
$DIMBLK1
  1

  9
$DIMBLK2
  1

  9
$DIMSTYLE
  2
Standard
  9
$DIMCLRD
 70
     0
  9
$DIMCLRE
 70
     0
  9
$DIMCLRT
 70
     0
  9
$DIMTFAC
 40
1.0
  9
$DIMGAP
 40
0.09
  9
$DIMJUST
 70
     0
  9
$DIMSD1
 70
     0
  9
$DIMSD2
 70
     0
  9
$DIMTOLJ
 70
     1
  9
$DIMTZIN
 70
     0
  9
$DIMALTZ
 70
     0
  9
$DIMALTTZ
 70
     0
  9
$DIMUPT
 70
     0
  9
$DIMDEC
 70
     4
  9
$DIMTDEC
 70
     4
  9
$DIMALTU
 70
     2
  9
$DIMALTTD
 70
     2
  9
$DIMTXSTY
  7
Standard
  9
$DIMAUNIT
 70
     0
  9
$DIMADEC
 70
     0
  9
$DIMALTRND
 40
0.0
  9
$DIMAZIN
 70
     0
  9
$DIMDSEP
 70
    46
  9
$DIMATFIT
 70
     3
  9
$DIMFRAC
 70
     0
  9
$DIMLDRBLK
  1

  9
$DIMLUNIT
 70
     2
  9
$DIMLWD
 70
    -2
  9
$DIMLWE
 70
    -2
  9
$DIMTMOVE
 70
     0
  9
$LUNITS
 70
     2
  9
$LUPREC
 70
     4
  9
$SKETCHINC
 40
0.1
  9
$FILLETRAD
 40
0.0
  9
$AUNITS
 70
     0
  9
$AUPREC
 70
     0
  9
$MENU
  1
.
  9
$ELEVATION
 40
0.0
  9
$PELEVATION
 40
0.0
  9
$THICKNESS
 40
0.0
  9
$LIMCHECK
 70
     0
  9
$CHAMFERA
 40
0.0
  9
$CHAMFERB
 40
0.0
  9
$CHAMFERC
 40
0.0
  9
$CHAMFERD
 40
0.0
  9
$SKPOLY
 70
     0
  9
$TDCREATE
 40
2454471.826213646
  9
$TDUCREATE
 40
2454471.784546979
  9
$TDUPDATE
 40
2454500.611620533
  9
$TDUUPDATE
 40
2454500.569953866
  9
$TDINDWG
 40
0.0003913426
  9
$TDUSRTIMER
 40
0.0003911574
  9
$USRTIMER
 70
     1
  9
$ANGBASE
 50
0.0
  9
$ANGDIR
 70
     0
  9
$PDMODE
 70
     0
  9
$PDSIZE
 40
0.0
  9
$PLINEWID
 40
0.0
  9
$SPLFRAME
 70
     0
  9
$SPLINETYPE
 70
     6
  9
$SPLINESEGS
 70
     8
  9
$HANDSEED
  5
D3
  9
$SURFTAB1
 70
     6
  9
$SURFTAB2
 70
     6
  9
$SURFTYPE
 70
     6
  9
$SURFU
 70
     6
  9
$SURFV
 70
     6
  9
$UCSBASE
  2

  9
$UCSNAME
  2

  9
$UCSORG
 10
0.0
 20
0.0
 30
0.0
  9
$UCSXDIR
 10
1.0
 20
0.0
 30
0.0
  9
$UCSYDIR
 10
0.0
 20
1.0
 30
0.0
  9
$UCSORTHOREF
  2

  9
$UCSORTHOVIEW
 70
     0
  9
$UCSORGTOP
 10
0.0
 20
0.0
 30
0.0
  9
$UCSORGBOTTOM
 10
0.0
 20
0.0
 30
0.0
  9
$UCSORGLEFT
 10
0.0
 20
0.0
 30
0.0
  9
$UCSORGRIGHT
 10
0.0
 20
0.0
 30
0.0
  9
$UCSORGFRONT
 10
0.0
 20
0.0
 30
0.0
  9
$UCSORGBACK
 10
0.0
 20
0.0
 30
0.0
  9
$PUCSBASE
  2

  9
$PUCSNAME
  2

  9
$PUCSORG
 10
0.0
 20
0.0
 30
0.0
  9
$PUCSXDIR
 10
1.0
 20
0.0
 30
0.0
  9
$PUCSYDIR
 10
0.0
 20
1.0
 30
0.0
  9
$PUCSORTHOREF
  2

  9
$PUCSORTHOVIEW
 70
     0
  9
$PUCSORGTOP
 10
0.0
 20
0.0
 30
0.0
  9
$PUCSORGBOTTOM
 10
0.0
 20
0.0
 30
0.0
  9
$PUCSORGLEFT
 10
0.0
 20
0.0
 30
0.0
  9
$PUCSORGRIGHT
 10
0.0
 20
0.0
 30
0.0
  9
$PUCSORGFRONT
 10
0.0
 20
0.0
 30
0.0
  9
$PUCSORGBACK
 10
0.0
 20
0.0
 30
0.0
  9
$USERI1
 70
     0
  9
$USERI2
 70
     0
  9
$USERI3
 70
     0
  9
$USERI4
 70
     0
  9
$USERI5
 70
     0
  9
$USERR1
 40
0.0
  9
$USERR2
 40
0.0
  9
$USERR3
 40
0.0
  9
$USERR4
 40
0.0
  9
$USERR5
 40
0.0
  9
$WORLDVIEW
 70
     1
  9
$SHADEDGE
 70
     3
  9
$SHADEDIF
 70
    70
  9
$TILEMODE
 70
     1
  9
$MAXACTVP
 70
    64
  9
$PINSBASE
 10
0.0
 20
0.0
 30
0.0
  9
$PLIMCHECK
 70
     0
  9
$PEXTMIN
 10
0.0
 20
0.0
 30
0.0
  9
$PEXTMAX
 10
0.0
 20
0.0
 30
0.0
  9
$PLIMMIN
 10
0.0
 20
0.0
  9
$PLIMMAX
 10
12.0
 20
9.0
  9
$UNITMODE
 70
     0
  9
$VISRETAIN
 70
     1
  9
$PLINEGEN
 70
     0
  9
$PSLTSCALE
 70
     1
  9
$TREEDEPTH
 70
  3020
  9
$CMLSTYLE
  2
Standard
  9
$CMLJUST
 70
     0
  9
$CMLSCALE
 40
1.0
  9
$PROXYGRAPHICS
 70
     1
  9
$MEASUREMENT
 70
     0
  9
$CELWEIGHT
370
    -1
  9
$ENDCAPS
280
     0
  9
$JOINSTYLE
280
     0
  9
$LWDISPLAY
290
     0
  9
$INSUNITS
 70
     1
  9
$HYPERLINKBASE
  1

  9
$STYLESHEET
  1

  9
$XEDIT
290
     1
  9
$CEPSNTYPE
380
     0
  9
$PSTYLEMODE
290
     1
  9
$FINGERPRINTGUID
  2
{FDEAD576-A652-11D2-9A35-0060089B3A3F}
  9
$VERSIONGUID
  2
{A947E81C-17B3-472F-85F9-77D46DF7AA72}
  9
$EXTNAMES
290
     1
  9
$PSVPSCALE
 40
0.0
  9
$OLESTARTUP
290
     0
  9
$SORTENTS
280
   127
  9
$INDEXCTL
280
     0
  9
$HIDETEXT
280
     1
  9
$XCLIPFRAME
290
     0
  9
$HALOGAP
280
     0
  9
$OBSCOLOR
 70
   257
  9
$OBSLTYPE
280
     0
  9
$INTERSECTIONDISPLAY
280
     0
  9
$INTERSECTIONCOLOR
 70
   257
  9
$DIMASSOC
280
     2
  9
$PROJECTNAME
  1

  0
ENDSEC
  0
SECTION
  2
CLASSES
  0
CLASS
  1
ACDBDICTIONARYWDFLT
  2
AcDbDictionaryWithDefault
  3
ObjectDBX Classes
 90
        0
 91
        1
280
     0
281
     0
  0
CLASS
  1
DICTIONARYVAR
  2
AcDbDictionaryVar
  3
ObjectDBX Classes
 90
        0
 91
        2
280
     0
281
     0
  0
ENDSEC
  0
SECTION
  2
TABLES
  0
TABLE
  2
VPORT
  5
8
330
0
100
AcDbSymbolTable
 70
     3
  0
VPORT
  5
D2
330
8
100
AcDbSymbolTableRecord
100
AcDbViewportTableRecord
  2
*Active
 70
     0
 10
0.0
 20
0.0
 11
1.0
 21
1.0
 12
397.7675479038372
 22
171.2597950135292
 13
0.0
 23
0.0
 14
0.5
 24
0.5
 15
0.5
 25
0.5
 16
0.0
 26
0.0
 36
1.0
 17
0.0
 27
0.0
 37
0.0
 40
609.4505763415237
 41
1.8
 42
50.0
 43
0.0
 44
0.0
 50
0.0
 51
0.0
 71
     0
 72
  1000
 73
     1
 74
     3
 75
     0
 76
     0
 77
     0
 78
     0
281
     0
 65
     1
110
0.0
120
0.0
130
0.0
111
1.0
121
0.0
131
0.0
112
0.0
122
1.0
132
0.0
 79
     0
146
0.0
  0
ENDTAB
  0
TABLE
  2
LTYPE
  5
5
330
0
100
AcDbSymbolTable
 70
     1
  0
LTYPE
  5
14
330
5
100
AcDbSymbolTableRecord
100
AcDbLinetypeTableRecord
  2
ByBlock
 70
     0
  3

 72
    65
 73
     0
 40
0.0
  0
LTYPE
  5
15
330
5
100
AcDbSymbolTableRecord
100
AcDbLinetypeTableRecord
  2
ByLayer
 70
     0
  3

 72
    65
 73
     0
 40
0.0
  0
LTYPE
  5
16
330
5
100
AcDbSymbolTableRecord
100
AcDbLinetypeTableRecord
  2
Continuous
 70
     0
  3
Solid line
 72
    65
 73
     0
 40
0.0
  0
ENDTAB
  0
TABLE
  2
LAYER
  5
2
102
{ACAD_XDICTIONARY
360
BF
102
}
330
0
100
AcDbSymbolTable
 70
     1
  0
LAYER
  5
10
330
2
100
AcDbSymbolTableRecord
100
AcDbLayerTableRecord
  2
0
 70
     0
 62
     7
  6
Continuous
370
    -3
390
F
  0
ENDTAB
  0
TABLE
  2
STYLE
  5
3
330
0
100
AcDbSymbolTable
 70
     1
  0
STYLE
  5
11
330
3
100
AcDbSymbolTableRecord
100
AcDbTextStyleTableRecord
  2
Standard
 70
     0
 40
0.0
 41
1.0
 50
0.0
 71
     0
 42
0.2
  3
txt
  4

  0
ENDTAB
  0
TABLE
  2
VIEW
  5
6
330
0
100
AcDbSymbolTable
 70
     0
  0
ENDTAB
  0
TABLE
  2
UCS
  5
7
330
0
100
AcDbSymbolTable
 70
     0
  0
ENDTAB
  0
TABLE
  2
APPID
  5
9
330
0
100
AcDbSymbolTable
 70
     1
  0
APPID
  5
12
330
9
100
AcDbSymbolTableRecord
100
AcDbRegAppTableRecord
  2
ACAD
 70
     0
  0
ENDTAB
  0
TABLE
  2
DIMSTYLE
  5
A
330
0
100
AcDbSymbolTable
 70
     1
100
AcDbDimStyleTable
 71
     0
  0
DIMSTYLE
105
27
330
A
100
AcDbSymbolTableRecord
100
AcDbDimStyleTableRecord
  2
Standard
 70
     0
340
11
  0
ENDTAB
  0
TABLE
  2
BLOCK_RECORD
  5
1
330
0
100
AcDbSymbolTable
 70
     3
  0
BLOCK_RECORD
  5
1F
330
1
100
AcDbSymbolTableRecord
100
AcDbBlockTableRecord
  2
*Model_Space
340
22
  0
BLOCK_RECORD
  5
58
330
1
100
AcDbSymbolTableRecord
100
AcDbBlockTableRecord
  2
*Paper_Space
340
59
  0
BLOCK_RECORD
  5
5D
330
1
100
AcDbSymbolTableRecord
100
AcDbBlockTableRecord
  2
*Paper_Space0
340
5E
  0
BLOCK_RECORD
  5
93
330
1
100
AcDbSymbolTableRecord
100
AcDbBlockTableRecord
  2
_Oblique
340
0
  0
BLOCK_RECORD
  5
97
330
1
100
AcDbSymbolTableRecord
100
AcDbBlockTableRecord
  2
FVXV
340
0
310
2800000020000000200000000100080000000000000400000000000000000000000000000000000000000000000080000080000000808000800000008000800080800000C0C0C000C0DCC000F0CAA6000020400000206000002080000020A0000020C0000020E00000400000004020000040400000406000004080000040A0
310
000040C0000040E00000600000006020000060400000606000006080000060A0000060C0000060E00000800000008020000080400000806000008080000080A0000080C0000080E00000A0000000A0200000A0400000A0600000A0800000A0A00000A0C00000A0E00000C0000000C0200000C0400000C0600000C0800000C0
310
A00000C0C00000C0E00000E0000000E0200000E0400000E0600000E0800000E0A00000E0C00000E0E00040000000400020004000400040006000400080004000A0004000C0004000E00040200000402020004020400040206000402080004020A0004020C0004020E000404000004040200040404000404060004040800040
310
40A0004040C0004040E00040600000406020004060400040606000406080004060A0004060C0004060E00040800000408020004080400040806000408080004080A0004080C0004080E00040A0000040A0200040A0400040A0600040A0800040A0A00040A0C00040A0E00040C0000040C0200040C0400040C0600040C08000
310
40C0A00040C0C00040C0E00040E0000040E0200040E0400040E0600040E0800040E0A00040E0C00040E0E00080000000800020008000400080006000800080008000A0008000C0008000E00080200000802020008020400080206000802080008020A0008020C0008020E00080400000804020008040400080406000804080
310
008040A0008040C0008040E00080600000806020008060400080606000806080008060A0008060C0008060E00080800000808020008080400080806000808080008080A0008080C0008080E00080A0000080A0200080A0400080A0600080A0800080A0A00080A0C00080A0E00080C0000080C0200080C0400080C0600080C0
310
800080C0A00080C0C00080C0E00080E0000080E0200080E0400080E0600080E0800080E0A00080E0C00080E0E000C0000000C0002000C0004000C0006000C0008000C000A000C000C000C000E000C0200000C0202000C0204000C0206000C0208000C020A000C020C000C020E000C0400000C0402000C0404000C0406000C0
310
408000C040A000C040C000C040E000C0600000C0602000C0604000C0606000C0608000C060A000C060C000C060E000C0800000C0802000C0804000C0806000C0808000C080A000C080C000C080E000C0A00000C0A02000C0A04000C0A06000C0A08000C0A0A000C0A0C000C0A0E000C0C00000C0C02000C0C04000C0C06000
310
C0C08000C0C0A000F0FBFF00A4A0A000808080000000FF0000FF000000FFFF00FF000000FF00FF00FFFF0000FFFFFF00000000000000000000000000000000000000000000000000000000000000000000000000000000000000000000000000000000000000000000000000000000000000000000000000000000000000FF
310
FFFF000000000000000000000000000000000000000000000000000000FFFF000000FFFFFF00000000000000000000000000000000000000000000FFFF0000000000000000FFFF00000000000000000000000000000000000000FF00000000FFFFFFFF00000000FF0000000000000000000000000000000000FF000000FFFF
310
00000000FFFF000000FF00000000000000000000000000000000FF0000FF0000FFFFFFFF0000FF000000FF0000000000000000000000000000FF0000FF00FFFF00000000FFFF00FF0000FF00000000000000000000000000FF000000FFFF0000000000000000FFFF000000FF000000000000000000000000FF0000FFFF0000
310
000000FF00000000FFFF0000FF0000000000000000000000FF000000FFFF000000FFFF00FF000000FFFF000000FF00000000000000000000FF0000FFFF000000FF00000000FF000000FFFF0000FF00000000000000000000FF0000FF00000000FF00000000FF00000000FF0000FF000000000000000000FF0000FFFF000000
310
00FF00000000FF00000000FFFF0000FF0000000000000000FF0000FF0000000000FFFFFFFFFFFF0000000000FF0000FF0000000000000000FF00FFFF00000000000000000000000000000000FFFF00FF0000000000000000FF00FFFF00000000000000000000000000000000FFFF00FF00000000000000FF0000FFFF000000
310
00000000000000000000000000FFFF0000FF000000000000FF0000FF000000000000000000000000000000000000FF0000FF000000000000FF00FFFF000000000000000000000000000000000000FFFF00FF000000000000FF00FFFFFF00000000000000000000000000000000FFFFFF00FF0000000000FFFFFFFFFFFFFFFF
310
FFFFFFFFFFFFFFFFFFFFFFFFFFFFFFFFFFFFFFFF00000000FF0000000000000000000000000000000000000000000000000000FF00000000FF0000000000000000000000000000000000000000000000000000FF00000000FF0000000000000000000000000000000000000000000000000000FF000000FF00000000000000
310
000000000000000000000000000000000000000000FF0000FF00000000000000000000000000000000000000000000000000000000FF0000FF00000000000000000000000000000000000000000000000000000000FF000000FFFFFFFFFFFFFFFFFFFFFFFFFFFFFFFFFFFFFFFFFFFFFFFFFFFFFFFF00000000000000000000
310
0000000000000000000000000000000000000000000000000000000000000000000000000000000000000000000000000000000000000000
102
{BLKREFS
331
C8
102
}
1001
ACAD
1000
DesignCenter Data
1002
{
1070
     1
1070
     1
1002
}
  0
ENDTAB
  0
ENDSEC
  0
SECTION
  2
BLOCKS
  0
BLOCK
  5
20
330
1F
100
AcDbEntity
  8
0
100
AcDbBlockBegin
  2
*Model_Space
 70
     0
 10
0.0
 20
0.0
 30
0.0
  3
*Model_Space
  1

  0
ENDBLK
  5
21
330
1F
100
AcDbEntity
  8
0
100
AcDbBlockEnd
  0
BLOCK
  5
5A
330
58
100
AcDbEntity
 67
     1
  8
0
100
AcDbBlockBegin
  2
*Paper_Space
 70
     0
 10
0.0
 20
0.0
 30
0.0
  3
*Paper_Space
  1

  0
ENDBLK
  5
5B
330
58
100
AcDbEntity
 67
     1
  8
0
100
AcDbBlockEnd
  0
BLOCK
  5
5F
330
5D
100
AcDbEntity
  8
0
100
AcDbBlockBegin
  2
*Paper_Space0
 70
     0
 10
0.0
 20
0.0
 30
0.0
  3
*Paper_Space0
  1

  0
ENDBLK
  5
60
330
5D
100
AcDbEntity
  8
0
100
AcDbBlockEnd
  0
BLOCK
  5
94
330
93
100
AcDbEntity
  8
0
100
AcDbBlockBegin
  2
_Oblique
 70
     0
 10
0.0
 20
0.0
 30
0.0
  3
_Oblique
  1

  0
LINE
  5
95
330
93
100
AcDbEntity
  8
0
  6
ByBlock
 62
     0
370
    -2
100
AcDbLine
 10
-0.5
 20
-0.5
 30
0.0
 11
0.5
 21
0.5
 31
0.0
  0
ENDBLK
  5
96
330
93
100
AcDbEntity
  8
0
100
AcDbBlockEnd
  0
BLOCK
  5
98
330
97
100
AcDbEntity
  8
0
100
AcDbBlockBegin
  2
FVXV
 70
     0
 10
0.0
 20
0.0
 30
0.0
  3
FVXV
  1

  0
ARC
  5
99
330
97
100
AcDbEntity
  8
0
100
AcDbCircle
 10
820.3272811968
 20
62.1944359149004
 30
0.0
 40
795.0099999999994
100
AcDbArc
 50
190.0396956917775
 51
193.9299201455004
  0
ARC
  5
9A
330
97
100
AcDbEntity
  8
0
100
AcDbCircle
 10
429.1690386690516
 20
-34.8225182869428
 30
0.0
 40
392.0
100
AcDbArc
 50
193.9296818246336
 51
205.2109891257211
  0
ARC
  5
9B
330
97
100
AcDbEntity
  8
0
100
AcDbCircle
 10
-516.3272811967998
 20
62.1944359149004
 30
0.0
 40
795.0099999999994
100
AcDbArc
 50
346.0700798544996
 51
349.9603043082225
  0
ARC
  5
9C
330
97
100
AcDbEntity
  8
0
100
AcDbCircle
 10
-125.1690386690516
 20
-34.8225182869428
 30
0.0
 40
392.0
100
AcDbArc
 50
334.7890108742789
 51
346.0703181753664
  0
ARC
  5
9D
330
97
100
AcDbEntity
  8
0
100
AcDbCircle
 10
107.3420761529978
 20
-144.2884182848997
 30
0.0
 40
135.0093352315013
100
AcDbArc
 50
312.3466529208221
 51
334.6925680051252
  0
ARC
  5
9E
330
97
100
AcDbEntity
  8
0
100
AcDbCircle
 10
152.0
 20
-193.2866273298827
 30
0.0
 40
68.71337267011701
100
AcDbArc
 50
227.6533470791779
 51
312.3466529208221
  0
ARC
  5
9F
330
97
100
AcDbEntity
  8
0
100
AcDbCircle
 10
196.6579238470021
 20
-144.2884182848997
 30
0.0
 40
135.0093352315013
100
AcDbArc
 50
205.2109891257211
 51
227.6533470791779
  0
ARC
  5
A0
330
97
100
AcDbEntity
  8
0
  6
Continuous
100
AcDbCircle
 10
10.72191753075094
 20
-69.39999999999962
 30
0.0
 40
7.0
100
AcDbArc
 50
190.5601244120211
 51
270.0
  0
ARC
  5
A1
330
97
100
AcDbEntity
  8
0
  6
Continuous
100
AcDbCircle
 10
201.5422527155879
 20
-121.4693580163803
 30
0.0
 40
140.0
100
AcDbArc
 50
203.8570774569924
 51
230.5683637771316
  0
ARC
  5
A2
330
97
100
AcDbEntity
  8
0
  6
Continuous
100
AcDbCircle
 10
393.5992660402281
 20
-36.53347847882105
 30
0.0
 40
350.0
100
AcDbArc
 50
189.3459600658158
 51
203.8570774569924
  0
ARC
  5
A3
330
97
100
AcDbEntity
  8
0
100
AcDbCircle
 10
80.16016892093285
 20
-101.0
 30
0.0
 40
30.0
100
AcDbArc
 50
124.9152062474727
 51
191.6222248284837
  0
ARC
  5
A4
330
97
100
AcDbEntity
  8
0
  6
Continuous
100
AcDbCircle
 10
77.84702037760688
 20
-88.49999999999999
 30
0.0
 40
30.0
100
AcDbArc
 50
156.213272679193
 51
189.3459600658158
  0
ARC
  5
A5
330
97
100
AcDbEntity
  8
0
  6
Continuous
100
AcDbCircle
 10
293.278082469249
 20
-69.39999999999962
 30
0.0
 40
7.0
100
AcDbArc
 50
270.0
 51
349.4398755879786
  0
ARC
  5
A6
330
97
100
AcDbEntity
  8
0
  6
Continuous
100
AcDbCircle
 10
304.0
 20
-4.0
 30
0.0
 40
4.0
100
AcDbArc
 50
357.1165811837524
 51
90.0
  0
LINE
  5
A7
330
97
100
AcDbEntity
  8
0
  6
Continuous
100
AcDbLine
 10
293.278082469249
 20
-76.39999999999964
 30
0.0
 11
10.72191753075094
 21
-76.40000000000054
 31
0.0
  0
ARC
  5
A8
330
97
100
AcDbEntity
  8
0
  6
Continuous
100
AcDbCircle
 10
0.0
 20
-3.999999999999088
 30
0.0
 40
4.0
100
AcDbArc
 50
90.0
 51
182.8834188162474
  0
LINE
  5
A9
330
97
100
AcDbEntity
  8
0
  6
Continuous
100
AcDbLine
 10
304.0
 20
0.0
 30
0.0
 11
0.0
 21
0.0
 31
0.0
  0
LINE
  5
AA
330
97
100
AcDbEntity
  8
0
  6
Continuous
100
AcDbLine
 10
174.6946729826059
 20
-147.9999999999995
 30
0.0
 11
129.3053270173941
 21
-147.9999999999995
 31
0.0
  0
ARC
  5
AB
330
97
100
AcDbEntity
  8
0
  6
Continuous
100
AcDbCircle
 10
174.6946729826059
 20
-157.9999999999995
 30
0.0
 40
10.0
100
AcDbArc
 50
1.453368546331216
 51
90.0
  0
ARC
  5
AC
330
97
100
AcDbEntity
  8
0
  6
Continuous
100
AcDbCircle
 10
102.4577472844121
 20
-121.4693580163803
 30
0.0
 40
140.0
100
AcDbArc
 50
309.4316362228684
 51
336.1429225430077
  0
ARC
  5
AD
330
97
100
AcDbEntity
  8
0
  6
Continuous
100
AcDbCircle
 10
-125.1791481218006
 20
-34.82173795289964
 30
0.0
 40
419.9999999999993
100
AcDbArc
 50
334.5085188824171
 51
339.6885000263162
  0
ARC
  5
AE
330
97
100
AcDbEntity
  8
0
  6
Continuous
100
AcDbCircle
 10
100.4831728430981
 20
-142.415961295673
 30
0.0
 40
170.0
100
AcDbArc
 50
315.6851331762317
 51
334.5085188824171
  0
ARC
  5
AF
330
97
100
AcDbEntity
  8
0
  6
Continuous
100
AcDbCircle
 10
152.0
 20
-171.7299999999991
 30
0.0
 40
30.0
100
AcDbArc
 50
204.5441576297406
 51
335.4558423702593
  0
ARC
  5
B0
330
97
100
AcDbEntity
  8
0
  6
Continuous
100
AcDbCircle
 10
-89.59926604022802
 20
-36.53347847882105
 30
0.0
 40
350.0
100
AcDbArc
 50
336.1429225430077
 51
350.6540399341842
  0
ARC
  5
B1
330
97
100
AcDbEntity
  8
0
  6
Continuous
100
AcDbCircle
 10
124.7107580531883
 20
-159.2681673110096
 30
0.0
 40
60.0
100
AcDbArc
 50
335.4558423702593
 51
1.453368546331216
  0
ARC
  5
B2
330
97
100
AcDbEntity
  8
0
  6
Continuous
100
AcDbCircle
 10
-481.5504750658927
 20
97.08534044741782
 30
0.0
 40
800.0
100
AcDbArc
 50
339.6885000263162
 51
345.2985750939629
  0
ARC
  5
B3
330
97
100
AcDbEntity
  8
0
  6
Continuous
100
AcDbCircle
 10
429.1791481217988
 20
-34.82173795289964
 30
0.0
 40
419.9999999999977
100
AcDbArc
 50
200.3114999736837
 51
205.4914811175829
  0
ARC
  5
B4
330
97
100
AcDbEntity
  8
0
  6
Continuous
100
AcDbCircle
 10
203.516827156901
 20
-142.415961295673
 30
0.0
 40
170.0
100
AcDbArc
 50
205.4914811175829
 51
224.3148668237683
  0
ARC
  5
B5
330
97
100
AcDbEntity
  8
0
  6
Continuous
100
AcDbCircle
 10
785.5504750658929
 20
97.08534044741782
 30
0.0
 40
800.0
100
AcDbArc
 50
194.7014249060371
 51
200.3114999736837
  0
ARC
  5
B6
330
97
100
AcDbEntity
  8
0
  6
Continuous
100
AcDbCircle
 10
152.0
 20
-181.7152308697527
 30
0.0
 40
62.0
100
AcDbArc
 50
230.5683637771316
 51
309.4316362228684
  0
ARC
  5
B7
330
97
100
AcDbEntity
  8
0
  6
Continuous
100
AcDbCircle
 10
179.2892419468117
 20
-159.2681673110096
 30
0.0
 40
60.0
100
AcDbArc
 50
178.5466314536687
 51
204.5441576297406
  0
ARC
  5
B8
330
97
100
AcDbEntity
  8
0
  6
Continuous
100
AcDbCircle
 10
129.3053270173941
 20
-157.9999999999995
 30
0.0
 40
10.0
100
AcDbArc
 50
90.0
 51
178.5466314536687
  0
ARC
  5
B9
330
97
100
AcDbEntity
  8
0
  6
Continuous
100
AcDbCircle
 10
495.3720425577467
 20
20.95074051338588
 30
0.0
 40
500.0
100
AcDbArc
 50
182.8834188162474
 51
194.7014249060371
  0
ARC
  5
BA
330
97
100
AcDbEntity
  8
0
  6
Continuous
100
AcDbCircle
 10
-191.3720425577467
 20
20.95074051338656
 30
0.0
 40
500.0
100
AcDbArc
 50
345.2985750939629
 51
357.1165811837263
  0
ARC
  5
BB
330
97
100
AcDbEntity
  8
0
100
AcDbCircle
 10
223.8398310790671
 20
-101.0
 30
0.0
 40
30.0
100
AcDbArc
 50
348.3777751715162
 51
55.08479375252725
  0
ARC
  5
BC
330
97
100
AcDbEntity
  8
0
  6
Continuous
100
AcDbCircle
 10
226.1529796223931
 20
-88.49999999999999
 30
0.0
 40
30.0
100
AcDbArc
 50
350.6540399341842
 51
23.78672732080701
  0
ARC
  5
BD
330
97
100
AcDbEntity
  8
0
  6
Continuous
100
AcDbCircle
 10
152.0
 20
-192.7152308697527
 30
0.0
 40
98.0
100
AcDbArc
 50
224.3148668237683
 51
315.6851331762317
  0
ENDBLK
  5
BE
330
97
100
AcDbEntity
  8
0
100
AcDbBlockEnd
  0
ENDSEC
  0
SECTION
  2
ENTITIES
  0
INSERT
  5
C8
330
1F
100
AcDbEntity
  8
0
100
AcDbBlockReference
  2
FVXV
 10
187.2504447016883
 20
389.7544842946359
 30
0.0
  0
MTEXT
  5
C9
330
1F
100
AcDbEntity
  8
0
100
AcDbMText
 10
16.70202620342363
 20
51.7498033257112
 30
0.0
 40
30.0
 41
688.0214198609437
 71
     1
 72
     5
  1
{\fTimes New Roman|b0|i0|c0|p18;\C0;URINARIO MURAL. SERIE ARQ}
 73
     1
 44
1.0
  0
ENDSEC
  0
SECTION
  2
OBJECTS
  0
DICTIONARY
  5
C
330
0
100
AcDbDictionary
281
     1
  3
ACAD_COLOR
350
73
  3
ACAD_GROUP
350
D
  3
ACAD_LAYOUT
350
1A
  3
ACAD_MATERIAL
350
72
  3
ACAD_MLINESTYLE
350
17
  3
ACAD_PLOTSETTINGS
350
19
  3
ACAD_PLOTSTYLENAME
350
E
  3
AcDbVariableDictionary
350
66
  0
DICTIONARY
  5
BF
330
2
100
AcDbDictionary
280
     1
281
     1
  3
ACAD_LAYERSTATES
360
C0
  0
DICTIONARY
  5
73
102
{ACAD_REACTORS
330
C
102
}
330
C
100
AcDbDictionary
281
     1
  0
DICTIONARY
  5
D
102
{ACAD_REACTORS
330
C
102
}
330
C
100
AcDbDictionary
281
     1
  0
DICTIONARY
  5
1A
102
{ACAD_REACTORS
330
C
102
}
330
C
100
AcDbDictionary
281
     1
  3
Model
350
22
  3
Presentación1
350
59
  3
Presentación2
350
5E
  0
DICTIONARY
  5
72
102
{ACAD_REACTORS
330
C
102
}
330
C
100
AcDbDictionary
281
     1
  0
DICTIONARY
  5
17
102
{ACAD_REACTORS
330
C
102
}
330
C
100
AcDbDictionary
281
     1
  3
Standard
350
18
  0
DICTIONARY
  5
19
102
{ACAD_REACTORS
330
C
102
}
330
C
100
AcDbDictionary
281
     1
  0
ACDBDICTIONARYWDFLT
  5
E
102
{ACAD_REACTORS
330
C
102
}
330
C
100
AcDbDictionary
281
     1
  3
Normal
350
F
100
AcDbDictionaryWithDefault
340
F
  0
DICTIONARY
  5
66
102
{ACAD_REACTORS
330
C
102
}
330
C
100
AcDbDictionary
281
     1
  3
DIMASSOC
350
67
  3
HIDETEXT
350
6B
  0
DICTIONARY
  5
C0
102
{ACAD_REACTORS
330
BF
102
}
330
BF
100
AcDbDictionary
281
     1
  0
LAYOUT
  5
22
102
{ACAD_REACTORS
330
1A
102
}
330
1A
100
AcDbPlotSettings
  1

  2
none_device
  4
ANSI_A_(8.50_x_11.00_Inches)
  6

 40
6.349999904632567
 41
19.04999923706055
 42
6.350006103515625
 43
19.04998779296875
 44
215.8999938964844
 45
279.3999938964844
 46
0.0
 47
0.0
 48
0.0
 49
0.0
140
0.0
141
0.0
142
1.0
143
2.584895464708373
 70
 11952
 72
     0
 73
     1
 74
     0
  7

 75
     0
147
0.3868628397755418
 76
     0
 77
     2
 78
   300
148
0.0
149
0.0
100
AcDbLayout
  1
Model
 70
     1
 71
     0
 10
0.0
 20
0.0
 11
12.0
 21
9.0
 12
0.0
 22
0.0
 32
0.0
 14
0.0
 24
0.0
 34
0.0
 15
0.0
 25
0.0
 35
0.0
146
0.0
 13
0.0
 23
0.0
 33
0.0
 16
1.0
 26
0.0
 36
0.0
 17
0.0
 27
1.0
 37
0.0
 76
     0
330
1F
  0
LAYOUT
  5
59
102
{ACAD_REACTORS
330
1A
102
}
330
1A
100
AcDbPlotSettings
  1

  2
None
  4

  6

 40
0.0
 41
0.0
 42
0.0
 43
0.0
 44
0.0
 45
0.0
 46
0.0
 47
0.0
 48
0.0
 49
0.0
140
0.0
141
0.0
142
1.0
143
1.0
 70
   688
 72
     0
 73
     0
 74
     5
  7

 75
    16
147
1.0
 76
     0
 77
     2
 78
   300
148
0.0
149
0.0
100
AcDbLayout
  1
Presentación1
 70
     1
 71
     1
 10
0.0
 20
0.0
 11
12.0
 21
9.0
 12
0.0
 22
0.0
 32
0.0
 14
0.0
 24
0.0
 34
0.0
 15
0.0
 25
0.0
 35
0.0
146
0.0
 13
0.0
 23
0.0
 33
0.0
 16
1.0
 26
0.0
 36
0.0
 17
0.0
 27
1.0
 37
0.0
 76
     0
330
58
  0
LAYOUT
  5
5E
102
{ACAD_REACTORS
330
1A
102
}
330
1A
100
AcDbPlotSettings
  1

  2
None
  4

  6

 40
0.0
 41
0.0
 42
0.0
 43
0.0
 44
0.0
 45
0.0
 46
0.0
 47
0.0
 48
0.0
 49
0.0
140
0.0
141
0.0
142
1.0
143
1.0
 70
   688
 72
     0
 73
     0
 74
     5
  7

 75
    16
147
1.0
 76
     0
 77
     2
 78
   300
148
0.0
149
0.0
100
AcDbLayout
  1
Presentación2
 70
     1
 71
     2
 10
0.0
 20
0.0
 11
12.0
 21
9.0
 12
0.0
 22
0.0
 32
0.0
 14
0.0
 24
0.0
 34
0.0
 15
0.0
 25
0.0
 35
0.0
146
0.0
 13
0.0
 23
0.0
 33
0.0
 16
1.0
 26
0.0
 36
0.0
 17
0.0
 27
1.0
 37
0.0
 76
     0
330
5D
  0
MLINESTYLE
  5
18
102
{ACAD_REACTORS
330
17
102
}
330
17
100
AcDbMlineStyle
  2
STANDARD
 70
     0
  3

 62
   256
 51
90.0
 52
90.0
 71
     2
 49
0.5
 62
   256
  6
BYLAYER
 49
-0.5
 62
   256
  6
BYLAYER
  0
ACDBPLACEHOLDER
  5
F
102
{ACAD_REACTORS
330
E
102
}
330
E
  0
DICTIONARYVAR
  5
67
102
{ACAD_REACTORS
330
66
102
}
330
66
100
DictionaryVariables
280
     0
  1
2
  0
DICTIONARYVAR
  5
6B
102
{ACAD_REACTORS
330
66
102
}
330
66
100
DictionaryVariables
280
     0
  1
1
  0
ENDSEC
  0
EOF
