  0
SECTION
  2
HEADER
  9
$ACADVER
  1
AC1024
  9
$ACADMAINTVER
 70
   226
  9
$DWGCODEPAGE
  3
ANSI_1252
  9
$INSBASE
 10
0.0
 20
0.0
 30
0.0
  9
$EXTMIN
 10
1.000000000000000E+20
 20
1.000000000000000E+20
 30
1.000000000000000E+20
  9
$EXTMAX
 10
-1.000000000000000E+20
 20
-1.000000000000000E+20
 30
-1.000000000000000E+20
  9
$LIMMIN
 10
0.0
 20
0.0
  9
$LIMMAX
 10
12.0
 20
9.0
  9
$ORTHOMODE
 70
     0
  9
$REGENMODE
 70
     1
  9
$FILLMODE
 70
     1
  9
$QTEXTMODE
 70
     0
  9
$MIRRTEXT
 70
     0
  9
$LTSCALE
 40
1.0
  9
$ATTMODE
 70
     1
  9
$TEXTSIZE
 40
0.2
  9
$TRACEWID
 40
0.05
  9
$TEXTSTYLE
  7
Standard
  9
$CLAYER
  8
0
  9
$CELTYPE
  6
ByLayer
  9
$CECOLOR
 62
   256
  9
$CELTSCALE
 40
1.0
  9
$DISPSILH
 70
     0
  9
$DIMSCALE
 40
1.0
  9
$DIMASZ
 40
0.18
  9
$DIMEXO
 40
0.0625
  9
$DIMDLI
 40
0.38
  9
$DIMRND
 40
0.0
  9
$DIMDLE
 40
0.0
  9
$DIMEXE
 40
0.18
  9
$DIMTP
 40
0.0
  9
$DIMTM
 40
0.0
  9
$DIMTXT
 40
0.18
  9
$DIMCEN
 40
0.09
  9
$DIMTSZ
 40
0.0
  9
$DIMTOL
 70
     0
  9
$DIMLIM
 70
     0
  9
$DIMTIH
 70
     1
  9
$DIMTOH
 70
     1
  9
$DIMSE1
 70
     0
  9
$DIMSE2
 70
     0
  9
$DIMTAD
 70
     0
  9
$DIMZIN
 70
     0
  9
$DIMBLK
  1

  9
$DIMASO
 70
     1
  9
$DIMSHO
 70
     1
  9
$DIMPOST
  1

  9
$DIMAPOST
  1

  9
$DIMALT
 70
     0
  9
$DIMALTD
 70
     2
  9
$DIMALTF
 40
25.4
  9
$DIMLFAC
 40
1.0
  9
$DIMTOFL
 70
     0
  9
$DIMTVP
 40
0.0
  9
$DIMTIX
 70
     0
  9
$DIMSOXD
 70
     0
  9
$DIMSAH
 70
     0
  9
$DIMBLK1
  1

  9
$DIMBLK2
  1

  9
$DIMSTYLE
  2
Standard
  9
$DIMCLRD
 70
     0
  9
$DIMCLRE
 70
     0
  9
$DIMCLRT
 70
     0
  9
$DIMTFAC
 40
1.0
  9
$DIMGAP
 40
0.09
  9
$DIMJUST
 70
     0
  9
$DIMSD1
 70
     0
  9
$DIMSD2
 70
     0
  9
$DIMTOLJ
 70
     1
  9
$DIMTZIN
 70
     0
  9
$DIMALTZ
 70
     0
  9
$DIMALTTZ
 70
     0
  9
$DIMUPT
 70
     0
  9
$DIMDEC
 70
     4
  9
$DIMTDEC
 70
     4
  9
$DIMALTU
 70
     2
  9
$DIMALTTD
 70
     2
  9
$DIMTXSTY
  7
Standard
  9
$DIMAUNIT
 70
     0
  9
$DIMADEC
 70
     0
  9
$DIMALTRND
 40
0.0
  9
$DIMAZIN
 70
     0
  9
$DIMDSEP
 70
    46
  9
$DIMATFIT
 70
     3
  9
$DIMFRAC
 70
     0
  9
$DIMLDRBLK
  1

  9
$DIMLUNIT
 70
     2
  9
$DIMLWD
 70
    -2
  9
$DIMLWE
 70
    -2
  9
$DIMTMOVE
 70
     0
  9
$DIMFXL
 40
1.0
  9
$DIMFXLON
 70
     0
  9
$DIMJOGANG
 40
0.7853981633974483
  9
$DIMTFILL
 70
     0
  9
$DIMTFILLCLR
 70
     0
  9
$DIMARCSYM
 70
     0
  9
$DIMLTYPE
  6

  9
$DIMLTEX1
  6

  9
$DIMLTEX2
  6

  9
$DIMTXTDIRECTION
 70
     0
  9
$LUNITS
 70
     2
  9
$LUPREC
 70
     4
  9
$SKETCHINC
 40
0.1
  9
$FILLETRAD
 40
0.0
  9
$AUNITS
 70
     0
  9
$AUPREC
 70
     0
  9
$MENU
  1
.
  9
$ELEVATION
 40
0.0
  9
$PELEVATION
 40
0.0
  9
$THICKNESS
 40
0.0
  9
$LIMCHECK
 70
     0
  9
$CHAMFERA
 40
0.0
  9
$CHAMFERB
 40
0.0
  9
$CHAMFERC
 40
0.0
  9
$CHAMFERD
 40
0.0
  9
$SKPOLY
 70
     0
  9
$TDCREATE
 40
2460302.393506945
  9
$TDUCREATE
 40
2460302.351840278
  9
$TDUPDATE
 40
2460302.393506945
  9
$TDUUPDATE
 40
2460302.351840278
  9
$TDINDWG
 40
0.0000000000
  9
$TDUSRTIMER
 40
0.0000000000
  9
$USRTIMER
 70
     1
  9
$ANGBASE
 50
0.0
  9
$ANGDIR
 70
     0
  9
$PDMODE
 70
     0
  9
$PDSIZE
 40
0.0
  9
$PLINEWID
 40
0.0
  9
$SPLFRAME
 70
     0
  9
$SPLINETYPE
 70
     6
  9
$SPLINESEGS
 70
     8
  9
$HANDSEED
  5
165
  9
$SURFTAB1
 70
     6
  9
$SURFTAB2
 70
     6
  9
$SURFTYPE
 70
     6
  9
$SURFU
 70
     6
  9
$SURFV
 70
     6
  9
$UCSBASE
  2

  9
$UCSNAME
  2

  9
$UCSORG
 10
0.0
 20
0.0
 30
0.0
  9
$UCSXDIR
 10
1.0
 20
0.0
 30
0.0
  9
$UCSYDIR
 10
0.0
 20
1.0
 30
0.0
  9
$UCSORTHOREF
  2

  9
$UCSORTHOVIEW
 70
     0
  9
$UCSORGTOP
 10
0.0
 20
0.0
 30
0.0
  9
$UCSORGBOTTOM
 10
0.0
 20
0.0
 30
0.0
  9
$UCSORGLEFT
 10
0.0
 20
0.0
 30
0.0
  9
$UCSORGRIGHT
 10
0.0
 20
0.0
 30
0.0
  9
$UCSORGFRONT
 10
0.0
 20
0.0
 30
0.0
  9
$UCSORGBACK
 10
0.0
 20
0.0
 30
0.0
  9
$PUCSBASE
  2

  9
$PUCSNAME
  2

  9
$PUCSORG
 10
0.0
 20
0.0
 30
0.0
  9
$PUCSXDIR
 10
1.0
 20
0.0
 30
0.0
  9
$PUCSYDIR
 10
0.0
 20
1.0
 30
0.0
  9
$PUCSORTHOREF
  2

  9
$PUCSORTHOVIEW
 70
     0
  9
$PUCSORGTOP
 10
0.0
 20
0.0
 30
0.0
  9
$PUCSORGBOTTOM
 10
0.0
 20
0.0
 30
0.0
  9
$PUCSORGLEFT
 10
0.0
 20
0.0
 30
0.0
  9
$PUCSORGRIGHT
 10
0.0
 20
0.0
 30
0.0
  9
$PUCSORGFRONT
 10
0.0
 20
0.0
 30
0.0
  9
$PUCSORGBACK
 10
0.0
 20
0.0
 30
0.0
  9
$USERI1
 70
     0
  9
$USERI2
 70
     0
  9
$USERI3
 70
     0
  9
$USERI4
 70
     0
  9
$USERI5
 70
     0
  9
$USERR1
 40
0.0
  9
$USERR2
 40
0.0
  9
$USERR3
 40
0.0
  9
$USERR4
 40
0.0
  9
$USERR5
 40
0.0
  9
$WORLDVIEW
 70
     1
  9
$SHADEDGE
 70
     3
  9
$SHADEDIF
 70
    70
  9
$TILEMODE
 70
     1
  9
$MAXACTVP
 70
    64
  9
$PINSBASE
 10
0.0
 20
0.0
 30
0.0
  9
$PLIMCHECK
 70
     0
  9
$PEXTMIN
 10
1.000000000000000E+20
 20
1.000000000000000E+20
 30
1.000000000000000E+20
  9
$PEXTMAX
 10
-1.000000000000000E+20
 20
-1.000000000000000E+20
 30
-1.000000000000000E+20
  9
$PLIMMIN
 10
0.0
 20
0.0
  9
$PLIMMAX
 10
12.0
 20
9.0
  9
$UNITMODE
 70
     0
  9
$VISRETAIN
 70
     1
  9
$PLINEGEN
 70
     0
  9
$PSLTSCALE
 70
     1
  9
$TREEDEPTH
 70
  3020
  9
$CMLSTYLE
  2
Standard
  9
$CMLJUST
 70
     0
  9
$CMLSCALE
 40
1.0
  9
$PROXYGRAPHICS
 70
     1
  9
$MEASUREMENT
 70
     0
  9
$CELWEIGHT
370
    -1
  9
$ENDCAPS
280
     0
  9
$JOINSTYLE
280
     0
  9
$LWDISPLAY
290
     1
  9
$INSUNITS
 70
     4
  9
$HYPERLINKBASE
  1

  9
$STYLESHEET
  1

  9
$XEDIT
290
     1
  9
$CEPSNTYPE
380
     0
  9
$PSTYLEMODE
290
     1
  9
$FINGERPRINTGUID
  2
{4EBA948D-21FD-7549-88C0-6D3A21C85516}
  9
$VERSIONGUID
  2
{7186C1F8-79A5-6645-A940-B83EFB59311D}
  9
$EXTNAMES
290
     1
  9
$PSVPSCALE
 40
0.0
  9
$OLESTARTUP
290
     0
  9
$SORTENTS
280
   127
  9
$INDEXCTL
280
     0
  9
$HIDETEXT
280
     1
  9
$XCLIPFRAME
280
     2
  9
$HALOGAP
280
     0
  9
$OBSCOLOR
 70
   257
  9
$OBSLTYPE
280
     0
  9
$INTERSECTIONDISPLAY
280
     0
  9
$INTERSECTIONCOLOR
 70
   257
  9
$DIMASSOC
280
     2
  9
$PROJECTNAME
  1

  9
$CAMERADISPLAY
290
     0
  9
$LENSLENGTH
 40
50.0
  9
$CAMERAHEIGHT
 40
0.0
  9
$STEPSPERSEC
 40
2.0
  9
$STEPSIZE
 40
6.0
  9
$3DDWFPREC
 40
2.0
  9
$PSOLWIDTH
 40
0.25
  9
$PSOLHEIGHT
 40
4.0
  9
$LOFTANG1
 40
1.570796326794896
  9
$LOFTANG2
 40
1.570796326794896
  9
$LOFTMAG1
 40
0.0
  9
$LOFTMAG2
 40
0.0
  9
$LOFTPARAM
 70
     7
  9
$LOFTNORMALS
280
     1
  9
$LATITUDE
 40
37.795
  9
$LONGITUDE
 40
-122.394
  9
$NORTHDIRECTION
 40
0.0
  9
$TIMEZONE
 70
 -8000
  9
$LIGHTGLYPHDISPLAY
280
     1
  9
$TILEMODELIGHTSYNCH
280
     1
  9
$CMATERIAL
347
11
  9
$SOLIDHIST
280
     0
  9
$SHOWHIST
280
     1
  9
$DWFFRAME
280
     2
  9
$DGNFRAME
280
     0
  9
$REALWORLDSCALE
290
     1
  9
$INTERFERECOLOR
 62
     1
  9
$INTERFEREOBJVS
345
33
  9
$INTERFEREVPVS
346
30
  9
$CSHADOW
280
     0
  9
$SHADOWPLANELOCATION
 40
0.0
  0
ENDSEC
  0
SECTION
  2
CLASSES
  0
CLASS
  1
ACDBDICTIONARYWDFLT
  2
AcDbDictionaryWithDefault
  3
ObjectDBX Classes
 90
        0
 91
        1
280
     0
281
     0
  0
CLASS
  1
MATERIAL
  2
AcDbMaterial
  3
ObjectDBX Classes
 90
     1153
 91
        3
280
     0
281
     0
  0
CLASS
  1
VISUALSTYLE
  2
AcDbVisualStyle
  3
ObjectDBX Classes
 90
     4095
 91
       24
280
     0
281
     0
  0
CLASS
  1
SCALE
  2
AcDbScale
  3
ObjectDBX Classes
 90
     1153
 91
       17
280
     0
281
     0
  0
CLASS
  1
TABLESTYLE
  2
AcDbTableStyle
  3
ObjectDBX Classes
 90
     4095
 91
        1
280
     0
281
     0
  0
CLASS
  1
MLEADERSTYLE
  2
AcDbMLeaderStyle
  3
ACDB_MLEADERSTYLE_CLASS
 90
     4095
 91
        1
280
     0
281
     0
  0
CLASS
  1
ACDBSECTIONVIEWSTYLE
  2
AcDbSectionViewStyle
  3
ObjectDBX Classes
 90
     1025
 91
        1
280
     0
281
     0
  0
CLASS
  1
ACDBDETAILVIEWSTYLE
  2
AcDbDetailViewStyle
  3
ObjectDBX Classes
 90
     1025
 91
        1
280
     0
281
     0
  0
CLASS
  1
DICTIONARYVAR
  2
AcDbDictionaryVar
  3
ObjectDBX Classes
 90
        0
 91
        5
280
     0
281
     0
  0
CLASS
  1
CELLSTYLEMAP
  2
AcDbCellStyleMap
  3
ObjectDBX Classes
 90
     1152
 91
        1
280
     0
281
     0
  0
ENDSEC
  0
SECTION
  2
TABLES
  0
TABLE
  2
VPORT
  5
8
330
0
100
AcDbSymbolTable
 70
     1
  0
VPORT
  5
57
330
8
100
AcDbSymbolTableRecord
100
AcDbViewportTableRecord
  2
*Active
 70
     0
 10
0.0
 20
0.0
 11
1.0
 21
1.0
 12
0.0
 22
0.0
 13
0.0
 23
0.0
 14
1.0
 24
1.0
 15
0.0
 25
0.0
 16
0.0
 26
0.0
 36
1.0
 17
104.9999999737534
 27
-148.4999999628701
 37
0.0
 40
302.939999924255
 41
0.7070707070707534
 42
50.0
 43
0.0
 44
0.0
 50
0.0
 51
0.0
 71
     0
 72
   100
 73
     1
 74
     1
 75
     0
 76
     0
 77
     0
 78
     0
281
     0
 65
     1
110
0.0
120
0.0
130
0.0
111
1.0
121
0.0
131
0.0
112
0.0
122
1.0
132
0.0
 79
     0
146
0.0
 60
     3
 61
     5
292
     1
282
     1
141
0.0
142
0.0
 63
   250
421
  3355443
  0
ENDTAB
  0
TABLE
  2
LTYPE
  5
5
330
0
100
AcDbSymbolTable
 70
    22
  0
LTYPE
  5
5B
330
5
100
AcDbSymbolTableRecord
100
AcDbLinetypeTableRecord
  2
ByBlock
 70
     0
  3

 72
    65
 73
     0
 40
0.0
  0
LTYPE
  5
5C
330
5
100
AcDbSymbolTableRecord
100
AcDbLinetypeTableRecord
  2
ByLayer
 70
     0
  3

 72
    65
 73
     0
 40
0.0
  0
LTYPE
  5
5D
330
5
100
AcDbSymbolTableRecord
100
AcDbLinetypeTableRecord
  2
Continuous
 70
     0
  3
Solid line
 72
    65
 73
     0
 40
0.0
  0
LTYPE
  5
82
330
5
100
AcDbSymbolTableRecord
100
AcDbLinetypeTableRecord
  2
AI-Linetype-0
 70
     0
  3
Adobe Illustrator Linetype No. 0
 72
    65
 73
     2
 40
0.3922888847535954
 49
0.1961444423767977
 74
     0
 49
-0.1961444423767977
 74
     0
  0
LTYPE
  5
84
330
5
100
AcDbSymbolTableRecord
100
AcDbLinetypeTableRecord
  2
AI-Linetype-1
 70
     0
  3
Adobe Illustrator Linetype No. 1
 72
    65
 73
     2
 40
0.3414888869531236
 49
0.1707444434765618
 74
     0
 49
-0.1707444434765618
 74
     0
  0
LTYPE
  5
86
330
5
100
AcDbSymbolTableRecord
100
AcDbLinetypeTableRecord
  2
AI-Linetype-2
 70
     0
  3
Adobe Illustrator Linetype No. 2
 72
    65
 73
     2
 40
0.3182055590085728
 49
0.1591027795042864
 74
     0
 49
-0.1591027795042864
 74
     0
  0
LTYPE
  5
88
330
5
100
AcDbSymbolTableRecord
100
AcDbLinetypeTableRecord
  2
AI-Linetype-3
 70
     0
  3
Adobe Illustrator Linetype No. 3
 72
    65
 73
     2
 40
0.367594463865782
 49
0.183797231932891
 74
     0
 49
-0.183797231932891
 74
     0
  0
LTYPE
  5
8A
330
5
100
AcDbSymbolTableRecord
100
AcDbLinetypeTableRecord
  2
AI-Linetype-4
 70
     0
  3
Adobe Illustrator Linetype No. 4
 72
    65
 73
     2
 40
0.2815166588582801
 49
0.14075832942914
 74
     0
 49
-0.14075832942914
 74
     0
  0
LTYPE
  5
8C
330
5
100
AcDbSymbolTableRecord
100
AcDbLinetypeTableRecord
  2
AI-Linetype-5
 70
     0
  3
Adobe Illustrator Linetype No. 5
 72
    65
 73
     2
 40
0.3174999915097474
 49
0.1587499957548737
 74
     0
 49
-0.1587499957548737
 74
     0
  0
LTYPE
  5
8E
330
5
100
AcDbSymbolTableRecord
100
AcDbLinetypeTableRecord
  2
AI-Linetype-6
 70
     0
  3
Adobe Illustrator Linetype No. 6
 72
    65
 73
     2
 40
0.3704166497523072
 49
0.1852083248761536
 74
     0
 49
-0.1852083248761536
 74
     0
  0
LTYPE
  5
90
330
5
100
AcDbSymbolTableRecord
100
AcDbLinetypeTableRecord
  2
AI-Linetype-7
 70
     0
  3
Adobe Illustrator Linetype No. 7
 72
    65
 73
     2
 40
0.324555561362031
 49
0.1622777806810155
 74
     0
 49
-0.1622777806810155
 74
     0
  0
LTYPE
  5
92
330
5
100
AcDbSymbolTableRecord
100
AcDbLinetypeTableRecord
  2
AI-Linetype-8
 70
     0
  3
Adobe Illustrator Linetype No. 8
 72
    65
 73
     2
 40
0.4085166638730568
 49
0.2042583319365284
 74
     0
 49
-0.2042583319365284
 74
     0
  0
LTYPE
  5
94
330
5
100
AcDbSymbolTableRecord
100
AcDbLinetypeTableRecord
  2
AI-Linetype-9
 70
     0
  3
Adobe Illustrator Linetype No. 9
 72
    65
 73
     2
 40
0.3485444357782131
 49
0.1742722178891066
 74
     0
 49
-0.1742722178891066
 74
     0
  0
LTYPE
  5
96
330
5
100
AcDbSymbolTableRecord
100
AcDbLinetypeTableRecord
  2
AI-Linetype-10
 70
     0
  3
Adobe Illustrator Linetype No. 10
 72
    65
 73
     2
 40
0.3111500101834832
 49
0.1555750050917416
 74
     0
 49
-0.1555750050917416
 74
     0
  0
LTYPE
  5
98
330
5
100
AcDbSymbolTableRecord
100
AcDbLinetypeTableRecord
  2
AI-Linetype-11
 70
     0
  3
Adobe Illustrator Linetype No. 11
 72
    65
 73
     2
 40
0.3238499938632056
 49
0.1619249969316028
 74
     0
 49
-0.1619249969316028
 74
     0
  0
LTYPE
  5
9A
330
5
100
AcDbSymbolTableRecord
100
AcDbLinetypeTableRecord
  2
AI-Linetype-12
 70
     0
  3
Adobe Illustrator Linetype No. 12
 72
    65
 73
     2
 40
0.2906888891526518
 49
0.1453444445763259
 74
     0
 49
-0.1453444445763259
 74
     0
  0
LTYPE
  5
9C
330
5
100
AcDbSymbolTableRecord
100
AcDbLinetypeTableRecord
  2
AI-Linetype-13
 70
     0
  3
Adobe Illustrator Linetype No. 13
 72
    65
 73
     2
 40
0.3351388845996653
 49
0.1675694422998327
 74
     0
 49
-0.1675694422998327
 74
     0
  0
LTYPE
  5
9E
330
5
100
AcDbSymbolTableRecord
100
AcDbLinetypeTableRecord
  2
AI-Linetype-14
 70
     0
  3
Adobe Illustrator Linetype No. 14
 72
    65
 73
     2
 40
0.2963333240072847
 49
0.1481666620036423
 74
     0
 49
-0.1481666620036423
 74
     0
  0
LTYPE
  5
A0
330
5
100
AcDbSymbolTableRecord
100
AcDbLinetypeTableRecord
  2
AI-Linetype-15
 70
     0
  3
Adobe Illustrator Linetype No. 15
 72
    65
 73
     2
 40
0.342194454451949
 49
0.1710972272259745
 74
     0
 49
-0.1710972272259745
 74
     0
  0
LTYPE
  5
A2
330
5
100
AcDbSymbolTableRecord
100
AcDbLinetypeTableRecord
  2
AI-Linetype-16
 70
     0
  3
Adobe Illustrator Linetype No. 16
 72
    65
 73
     2
 40
0.3231444473915743
 49
0.1615722236957871
 74
     0
 49
-0.1615722236957871
 74
     0
  0
LTYPE
  5
A4
330
5
100
AcDbSymbolTableRecord
100
AcDbLinetypeTableRecord
  2
AI-Linetype-17
 70
     0
  3
Adobe Illustrator Linetype No. 17
 72
    65
 73
     2
 40
0.324555561362031
 49
0.1622777806810155
 74
     0
 49
-0.1622777806810155
 74
     0
  0
LTYPE
  5
A6
330
5
100
AcDbSymbolTableRecord
100
AcDbLinetypeTableRecord
  2
AI-Linetype-18
 70
     0
  3
Adobe Illustrator Linetype No. 18
 72
    65
 73
     2
 40
0.4028722079912298
 49
0.2014361039956149
 74
     0
 49
-0.2014361039956149
 74
     0
  0
LTYPE
  5
A8
330
5
100
AcDbSymbolTableRecord
100
AcDbLinetypeTableRecord
  2
AI-Linetype-19
 70
     0
  3
Adobe Illustrator Linetype No. 19
 72
    65
 73
     2
 40
0.367594463865782
 49
0.183797231932891
 74
     0
 49
-0.183797231932891
 74
     0
  0
LTYPE
  5
AA
330
5
100
AcDbSymbolTableRecord
100
AcDbLinetypeTableRecord
  2
AI-Linetype-20
 70
     0
  3
Adobe Illustrator Linetype No. 20
 72
    65
 73
     2
 40
0.3612444615123238
 49
0.1806222307561619
 74
     0
 49
-0.1806222307561619
 74
     0
  0
ENDTAB
  0
TABLE
  2
LAYER
  5
2
330
0
100
AcDbSymbolTable
 70
     2
  0
LAYER
  5
54
330
2
100
AcDbSymbolTableRecord
100
AcDbLayerTableRecord
  2
0
 70
     0
 62
     7
  6
Continuous
370
    -3
390
F
347
21
  0
LAYER
  5
78
330
2
100
AcDbSymbolTableRecord
100
AcDbLayerTableRecord
  2
Capa 1
 70
     0
 62
     7
  6
Continuous
370
     0
390
F
347
21
  0
ENDTAB
  0
TABLE
  2
STYLE
  5
3
330
0
100
AcDbSymbolTable
 70
     2
  0
STYLE
  5
55
330
3
100
AcDbSymbolTableRecord
100
AcDbTextStyleTableRecord
  2
Standard
 70
     0
 40
0.0
 41
1.0
 50
0.0
 71
     0
 42
0.2
  3
txt
  4

  0
STYLE
  5
5A
330
3
100
AcDbSymbolTableRecord
100
AcDbTextStyleTableRecord
  2
Annotative
 70
     0
 40
0.0
 41
1.0
 50
0.0
 71
     0
 42
0.2
  3
txt
  4

1001
AcadAnnotative
1000
AnnotativeData
1002
{
1070
     1
1070
     1
1002
}
  0
ENDTAB
  0
TABLE
  2
VIEW
  5
6
330
0
100
AcDbSymbolTable
 70
     0
  0
ENDTAB
  0
TABLE
  2
UCS
  5
7
330
0
100
AcDbSymbolTable
 70
     0
  0
ENDTAB
  0
TABLE
  2
APPID
  5
9
330
0
100
AcDbSymbolTable
 70
     2
  0
APPID
  5
56
330
9
100
AcDbSymbolTableRecord
100
AcDbRegAppTableRecord
  2
ACAD
 70
     0
  0
APPID
  5
5E
330
9
100
AcDbSymbolTableRecord
100
AcDbRegAppTableRecord
  2
AcadAnnotative
 70
     0
  0
ENDTAB
  0
TABLE
  2
DIMSTYLE
  5
A
330
0
100
AcDbSymbolTable
 70
     2
100
AcDbDimStyleTable
 71
     0
  0
DIMSTYLE
105
58
330
A
100
AcDbSymbolTableRecord
100
AcDbDimStyleTableRecord
  2
Standard
 70
     0
340
55
  0
DIMSTYLE
105
59
330
A
100
AcDbSymbolTableRecord
100
AcDbDimStyleTableRecord
  2
Annotative
 70
     0
340
55
1001
AcadAnnotative
1000
AnnotativeData
1002
{
1070
     1
1070
     1
1002
}
  0
ENDTAB
  0
TABLE
  2
BLOCK_RECORD
  5
1
330
0
100
AcDbSymbolTable
 70
     5
  0
BLOCK_RECORD
  5
70
330
1
100
AcDbSymbolTableRecord
100
AcDbBlockTableRecord
  2
*Model_Space
340
73
 70
     0
280
     1
281
     0
  0
BLOCK_RECORD
  5
6C
330
1
100
AcDbSymbolTableRecord
100
AcDbBlockTableRecord
  2
*Paper_Space
340
6F
 70
     0
280
     1
281
     0
  0
BLOCK_RECORD
  5
74
330
1
100
AcDbSymbolTableRecord
100
AcDbBlockTableRecord
  2
*Paper_Space0
340
77
 70
     0
280
     1
281
     0
  0
BLOCK_RECORD
  5
7D
330
1
100
AcDbSymbolTableRecord
100
AcDbBlockTableRecord
  2
Block_0
340
0
102
{BLKREFS
331
7E
102
}
 70
     0
280
     1
281
     0
  0
BLOCK_RECORD
  5
DB
330
1
100
AcDbSymbolTableRecord
100
AcDbBlockTableRecord
  2
Block_1
340
0
102
{BLKREFS
331
DC
102
}
 70
     0
280
     1
281
     0
  0
BLOCK_RECORD
  5
EE
330
1
100
AcDbSymbolTableRecord
100
AcDbBlockTableRecord
  2
Block_2
340
0
102
{BLKREFS
331
EF
102
}
 70
     0
280
     1
281
     0
  0
BLOCK_RECORD
  5
FB
330
1
100
AcDbSymbolTableRecord
100
AcDbBlockTableRecord
  2
Block_3
340
0
102
{BLKREFS
331
FC
102
}
 70
     0
280
     1
281
     0
  0
ENDTAB
  0
ENDSEC
  0
SECTION
  2
BLOCKS
  0
BLOCK
  5
71
330
70
100
AcDbEntity
  8
0
100
AcDbBlockBegin
  2
*Model_Space
 70
     0
 10
0.0
 20
0.0
 30
0.0
  3
*Model_Space
  1

  0
ENDBLK
  5
72
330
70
100
AcDbEntity
  8
0
100
AcDbBlockEnd
  0
BLOCK
  5
6D
330
6C
100
AcDbEntity
 67
     1
  8
0
100
AcDbBlockBegin
  2
*Paper_Space
 70
     0
 10
0.0
 20
0.0
 30
0.0
  3
*Paper_Space
  1

  0
ENDBLK
  5
6E
330
6C
100
AcDbEntity
 67
     1
  8
0
100
AcDbBlockEnd
  0
BLOCK
  5
75
330
74
100
AcDbEntity
 67
     1
  8
0
100
AcDbBlockBegin
  2
*Paper_Space0
 70
     0
 10
0.0
 20
0.0
 30
0.0
  3
*Paper_Space0
  1

  0
ENDBLK
  5
76
330
74
100
AcDbEntity
 67
     1
  8
0
100
AcDbBlockEnd
  0
BLOCK
  5
7F
330
7D
100
AcDbEntity
  8
0
100
AcDbBlockBegin
  2
Block_0
 70
     0
 10
0.0
 20
0.0
 30
0.0
  3
Block_0
  1

  0
SPLINE
  5
81
330
7D
100
AcDbEntity
  8
Capa 1
  6
AI-Linetype-0
 62
    18
420
        0
370
     9
100
AcDbSpline
210
0.0
220
0.0
230
1.0
 70
     8
 71
     3
 72
     8
 73
     4
 74
     0
 42
0.0000000001
 43
0.0000000001
 40
0.0
 40
0.0
 40
0.0
 40
0.0
 40
1.0
 40
1.0
 40
1.0
 40
1.0
 10
102.1532624598598
 20
-89.37918046200307
 30
0.0
 10
101.553186038908
 20
-89.18339137920698
 30
0.0
 10
100.7425039330926
 20
-89.08602975101679
 30
0.0
 10
100.1244336169324
 20
-89.04898420862698
 30
0.0
  0
SPLINE
  5
83
330
7D
100
AcDbEntity
  8
Capa 1
  6
AI-Linetype-1
 62
    18
420
        0
370
     9
100
AcDbSpline
210
0.0
220
0.0
230
1.0
 70
     8
 71
     3
 72
     8
 73
     4
 74
     0
 42
0.0000000001
 43
0.0000000001
 40
0.0
 40
0.0
 40
0.0
 40
0.0
 40
1.0
 40
1.0
 40
1.0
 40
1.0
 10
100.0743761103837
 20
-89.02093359523066
 30
0.0
 10
101.0385170339606
 20
-89.00188598527043
 30
0.0
 10
102.0926153219152
 20
-88.95214741920211
 30
0.0
 10
95.63360833055412
 20
-88.84207661844838
 30
0.0
  0
LINE
  5
85
330
7D
100
AcDbEntity
  8
Capa 1
  6
AI-Linetype-2
 62
    18
420
        0
370
     9
100
AcDbLine
 10
92.72086420655188
 20
-89.8201822904044
 30
0.0
 11
91.04869560243704
 21
-89.8201822904044
 31
0.0
  0
SPLINE
  5
87
330
7D
100
AcDbEntity
  8
Capa 1
  6
AI-Linetype-3
 62
    18
420
        0
370
     9
100
AcDbSpline
210
0.0
220
0.0
230
1.0
 70
     8
 71
     3
 72
     8
 73
     4
 74
     0
 42
0.0000000001
 43
0.0000000001
 40
0.0
 40
0.0
 40
0.0
 40
0.0
 40
1.0
 40
1.0
 40
1.0
 40
1.0
 10
87.90883557718034
 20
-88.71253026227961
 30
0.0
 10
85.83344344271486
 20
-88.67655054630553
 30
0.0
 10
81.91443402838597
 20
-88.6109376261966
 30
0.0
 10
80.46451849250374
 20
-88.58447767798137
 30
0.0
  0
SPLINE
  5
89
330
7D
100
AcDbEntity
  8
Capa 1
  6
AI-Linetype-4
 62
    18
420
        0
370
     9
100
AcDbSpline
210
0.0
220
0.0
230
1.0
 70
     8
 71
     3
 72
     8
 73
     4
 74
     0
 42
0.0000000001
 43
0.0000000001
 40
0.0
 40
0.0
 40
0.0
 40
0.0
 40
1.0
 40
1.0
 40
1.0
 40
1.0
 10
78.66926712347623
 20
-89.16951948691716
 30
0.0
 10
78.50099170364728
 20
-89.30075340157754
 30
0.0
 10
78.32107495628118
 20
-89.44257291041251
 30
0.0
 10
78.17079141304991
 20
-89.5600479749787
 30
0.0
  0
LINE
  5
8B
330
7D
100
AcDbEntity
  8
Capa 1
  6
AI-Linetype-5
 62
    18
420
        0
370
     9
100
AcDbLine
 10
77.12388846270687
 20
-89.8201822904044
 30
0.0
 11
75.45807141695786
 21
-89.8201822904044
 31
0.0
  0
SPLINE
  5
8D
330
7D
100
AcDbEntity
  8
Capa 1
  6
AI-Linetype-6
 62
    18
420
        0
370
     9
100
AcDbSpline
210
0.0
220
0.0
230
1.0
 70
     8
 71
     3
 72
     8
 73
     4
 74
     0
 42
0.0000000001
 43
0.0000000001
 40
0.0
 40
0.0
 40
0.0
 40
0.0
 40
1.0
 40
1.0
 40
1.0
 40
1.0
 10
74.34428180319466
 20
-89.2824486403313
 30
0.0
 10
74.13896487819717
 20
-89.1099462498308
 30
0.0
 10
73.91142305009854
 20
-88.92050367887394
 30
0.0
 10
73.70293085057078
 20
-88.7490509659041
 30
0.0
  0
LINE
  5
8F
330
7D
100
AcDbEntity
  8
Capa 1
  6
AI-Linetype-7
 62
    18
420
        0
370
     9
100
AcDbLine
 10
68.26987236952053
 20
-88.71538861494002
 30
0.0
 11
68.26987236952053
 21
-85.06414184562986
 31
0.0
  0
SPLINE
  5
91
330
7D
100
AcDbEntity
  8
Capa 1
  6
AI-Linetype-8
 62
    18
420
        0
370
     9
100
AcDbSpline
210
0.0
220
0.0
230
1.0
 70
     8
 71
     3
 72
     8
 73
     4
 74
     0
 42
0.0000000001
 43
0.0000000001
 40
0.0
 40
0.0
 40
0.0
 40
0.0
 40
1.0
 40
1.0
 40
1.0
 40
1.0
 10
71.97816633703254
 20
-87.02661088251309
 30
0.0
 10
72.36339950474351
 20
-87.59916960327654
 30
0.0
 10
73.01321600572165
 20
-87.98758258739168
 30
0.0
 10
73.74981611050525
 20
-88.13469085609268
 30
0.0
  0
SPLINE
  5
93
330
7D
100
AcDbEntity
  8
Capa 1
  6
AI-Linetype-9
 62
    18
420
        0
370
     9
100
AcDbSpline
210
0.0
220
0.0
230
1.0
 70
     8
 71
     3
 72
     8
 73
     4
 74
     0
 42
0.0000000001
 43
0.0000000001
 40
0.0
 40
0.0
 40
0.0
 40
0.0
 40
1.0
 40
1.0
 40
1.0
 40
1.0
 10
75.14290069184998
 20
-88.21744581772158
 30
0.0
 10
79.29156743822392
 20
-88.30317217420649
 30
0.0
 10
97.64094906326253
 20
-88.67782630822741
 30
0.0
 10
101.0371403415069
 20
-88.7476783106717
 30
0.0
  0
SPLINE
  5
95
330
7D
100
AcDbEntity
  8
Capa 1
  6
AI-Linetype-10
 62
    18
420
        0
370
     9
100
AcDbSpline
210
0.0
220
0.0
230
1.0
 70
     8
 71
     3
 72
     8
 73
     4
 74
     0
 42
0.0000000001
 43
0.0000000001
 40
0.0
 40
0.0
 40
0.0
 40
0.0
 40
1.0
 40
1.0
 40
1.0
 40
1.0
 10
102.6850735063272
 20
-89.20624205160523
 30
0.0
 10
102.8766315812305
 20
-89.30678501015757
 30
0.0
 10
103.0830062582012
 20
-89.41368255499169
 30
0.0
 10
103.307370793159
 20
-89.5279762891957
 30
0.0
  0
LINE
  5
97
330
7D
100
AcDbEntity
  8
Capa 1
  6
AI-Linetype-11
 62
    18
420
        0
370
     9
100
AcDbLine
 10
104.4512205472065
 20
-89.7401726392403
 30
0.0
 11
108.0918857595633
 21
-89.7401726392403
 31
0.0
  0
SPLINE
  5
99
330
7D
100
AcDbEntity
  8
Capa 1
  6
AI-Linetype-12
 62
    18
420
        0
370
     9
100
AcDbSpline
210
0.0
220
0.0
230
1.0
 70
     8
 71
     3
 72
     8
 73
     4
 74
     0
 42
0.0000000001
 43
0.0000000001
 40
0.0
 40
0.0
 40
0.0
 40
0.0
 40
1.0
 40
1.0
 40
1.0
 40
1.0
 10
110.2780854876647
 20
-88.86577510731372
 30
0.0
 10
110.4664662694271
 20
-88.81286328532581
 30
0.0
 10
110.6749604875654
 20
-88.77264448701636
 30
0.0
 10
110.9194344216779
 20
-88.73983802696191
 30
0.0
  0
SPLINE
  5
9B
330
7D
100
AcDbEntity
  8
Capa 1
  6
AI-Linetype-13
 62
    18
420
        0
370
     9
100
AcDbSpline
210
0.0
220
0.0
230
1.0
 70
     8
 71
     3
 72
     8
 73
     4
 74
     0
 42
0.0000000001
 43
0.0000000001
 40
0.0
 40
0.0
 40
0.0
 40
0.0
 40
1.0
 40
1.0
 40
1.0
 40
1.0
 10
112.1025461525935
 20
-88.61135749720887
 30
0.0
 10
112.3703027417803
 20
-88.57432002926158
 30
0.0
 10
112.5989023218521
 20
-88.52987022305931
 30
0.0
 10
112.8433762559646
 20
-88.47166156676284
 30
0.0
  0
SPLINE
  5
9D
330
7D
100
AcDbEntity
  8
Capa 1
  6
AI-Linetype-14
 62
    18
420
        0
370
     9
100
AcDbSpline
210
0.0
220
0.0
230
1.0
 70
     8
 71
     3
 72
     8
 73
     4
 74
     0
 42
0.0000000001
 43
0.0000000001
 40
0.0
 40
0.0
 40
0.0
 40
0.0
 40
1.0
 40
1.0
 40
1.0
 40
1.0
 10
113.948912780143
 20
-88.10123844063474
 30
0.0
 10
114.4431534454552
 20
-87.83665510736755
 30
0.0
 10
114.8125107451675
 20
-87.44719244572175
 30
0.0
 10
115.005126572044
 20
-86.9973975493905
 30
0.0
  0
SPLINE
  5
9F
330
7D
100
AcDbEntity
  8
Capa 1
  6
AI-Linetype-15
 62
    18
420
        0
370
     9
100
AcDbSpline
210
0.0
220
0.0
230
1.0
 70
     8
 71
     3
 72
     8
 73
     4
 74
     0
 42
0.0000000001
 43
0.0000000001
 40
0.0
 40
0.0
 40
0.0
 40
0.0
 40
1.0
 40
1.0
 40
1.0
 40
1.0
 10
115.2599761648249
 20
-85.81301409377434
 30
0.0
 10
115.3012486778863
 20
-85.56748644490994
 30
0.0
 10
115.342525228169
 20
-85.30819187150878
 30
0.0
 10
115.3785089813643
 20
-85.05207862846978
 30
0.0
  0
SPLINE
  5
A1
330
7D
100
AcDbEntity
  8
Capa 1
  6
AI-Linetype-16
 62
    18
420
        0
370
     9
100
AcDbSpline
210
0.0
220
0.0
230
1.0
 70
     8
 71
     3
 72
     8
 73
     4
 74
     0
 42
0.0000000001
 43
0.0000000001
 40
0.0
 40
0.0
 40
0.0
 40
0.0
 40
1.0
 40
1.0
 40
1.0
 40
1.0
 10
116.7414345105036
 20
-84.12021528896072
 30
0.0
 10
116.9795578955555
 20
-84.10963776922868
 30
0.0
 10
117.2314401307017
 20
-84.09799442308086
 30
0.0
 10
117.4674480118073
 20
-84.08952433285268
 30
0.0
  0
LINE
  5
A3
330
7D
100
AcDbEntity
  8
Capa 1
  6
AI-Linetype-17
 62
    18
420
        0
370
     9
100
AcDbLine
 10
118.6596636766907
 20
-85.30787696824958
 30
0.0
 11
118.6596636766907
 21
-88.9591318120023
 31
0.0
  0
SPLINE
  5
A5
330
7D
100
AcDbEntity
  8
Capa 1
  6
AI-Linetype-18
 62
    18
420
        0
370
     9
100
AcDbSpline
210
0.0
220
0.0
230
1.0
 70
     8
 71
     3
 72
     8
 73
     4
 74
     0
 42
0.0000000001
 43
0.0000000001
 40
0.0
 40
0.0
 40
0.0
 40
0.0
 40
1.0
 40
1.0
 40
1.0
 40
1.0
 10
112.8693073281932
 20
-88.83625494537449
 30
0.0
 10
112.5835568437981
 20
-88.89023259377815
 30
0.0
 10
112.2829897573356
 20
-88.93574015195362
 30
0.0
 10
111.9739566178661
 20
-88.97067019039704
 30
0.0
  0
SPLINE
  5
A7
330
7D
100
AcDbEntity
  8
Capa 1
  6
AI-Linetype-19
 62
    18
420
        0
370
     9
100
AcDbSpline
210
0.0
220
0.0
230
1.0
 70
     8
 71
     3
 72
     8
 73
     4
 74
     0
 42
0.0000000001
 43
0.0000000001
 40
0.0
 40
0.0
 40
0.0
 40
0.0
 40
1.0
 40
1.0
 40
1.0
 40
1.0
 10
110.5506059979522
 20
-89.12083867282206
 30
0.0
 10
110.2479193703219
 20
-89.1801131555343
 30
0.0
 10
110.00979598527
 20
-89.27112827188523
 30
0.0
 10
109.7917779621515
 20
-89.43305314265368
 30
0.0
  0
LINE
  5
A9
330
7D
100
AcDbEntity
  8
Capa 1
  6
AI-Linetype-20
 62
    18
420
        0
370
     9
100
AcDbLine
 10
108.588984777536
 20
-89.8201822904044
 30
0.0
 11
103.4444263808933
 21
-89.8201822904044
 31
0.0
  0
SPLINE
  5
AB
330
7D
100
AcDbEntity
  8
Capa 1
 62
    18
420
        0
370
     9
100
AcDbSpline
210
0.0
220
0.0
230
1.0
 70
     8
 71
     3
 72
    11
 73
     7
 74
     0
 42
0.0000000001
 43
0.0000000001
 40
0.0
 40
0.0
 40
0.0
 40
0.0
 40
1.0
 40
1.0
 40
1.0
 40
2.0
 40
2.0
 40
2.0
 40
2.0
 10
99.83021707953041
 20
-89.03500734858408
 30
0.0
 10
99.72015031599795
 20
-89.03183409266446
 30
0.0
 10
99.6206651094188
 20
-89.02971858871806
 30
0.0
 10
99.53599650490708
 20
-89.03077634069125
 30
0.0
 10
99.35502402417842
 20
-89.03077634069125
 30
0.0
 10
99.40582437944119
 20
-89.03077634069125
 30
0.0
 10
99.56245645312232
 20
-89.02866083674485
 30
0.0
  0
SPLINE
  5
AC
330
7D
100
AcDbEntity
  8
Capa 1
 62
    18
420
        0
370
     9
100
AcDbSpline
210
0.0
220
0.0
230
1.0
 70
     8
 71
     3
 72
    11
 73
     7
 74
     0
 42
0.0000000001
 43
0.0000000001
 40
0.0
 40
0.0
 40
0.0
 40
0.0
 40
1.0
 40
1.0
 40
1.0
 40
2.0
 40
2.0
 40
2.0
 40
2.0
 10
95.37780797216369
 20
-88.83816051381478
 30
0.0
 10
95.2931413862626
 20
-88.83604500986836
 30
0.0
 10
95.20847480036152
 20
-88.83498725789515
 30
0.0
 10
95.1216906919034
 20
-88.83392950592194
 30
0.0
 10
95.0476076815663
 20
-88.83181400197553
 30
0.0
 10
94.98410824679316
 20
-88.83181400197553
 30
0.0
 10
94.92801711305371
 20
-88.83498725789515
 30
0.0
  0
SPLINE
  5
AD
330
7D
100
AcDbEntity
  8
Capa 1
 62
    18
420
        0
370
     9
100
AcDbSpline
210
0.0
220
0.0
230
1.0
 70
     8
 71
     3
 72
    11
 73
     7
 74
     0
 42
0.0000000001
 43
0.0000000001
 40
0.0
 40
0.0
 40
0.0
 40
0.0
 40
1.0
 40
1.0
 40
1.0
 40
2.0
 40
2.0
 40
2.0
 40
2.0
 10
94.55336701625407
 20
-88.91965586240687
 30
0.0
 10
94.50150890901809
 20
-88.9471735625953
 30
0.0
 10
94.44964878317149
 20
-88.97998002264975
 30
0.0
 10
94.38826687095538
 20
-89.02231432490561
 30
0.0
 10
94.38826687095538
 20
-89.02231432490561
 30
0.0
 10
94.15119921926599
 20
-89.22233441559454
 30
0.0
 10
94.15119921926599
 20
-89.22233441559454
 30
0.0
  0
SPLINE
  5
AE
330
7D
100
AcDbEntity
  8
Capa 1
 62
    18
420
        0
370
     9
100
AcDbSpline
210
0.0
220
0.0
230
1.0
 70
     8
 71
     3
 72
    11
 73
     7
 74
     0
 42
0.0000000001
 43
0.0000000001
 40
0.0
 40
0.0
 40
0.0
 40
0.0
 40
1.0
 40
1.0
 40
1.0
 40
2.0
 40
2.0
 40
2.0
 40
2.0
 10
93.67495043055143
 20
-89.62132491944172
 30
0.0
 10
93.67495043055143
 20
-89.62132491944172
 30
0.0
 10
93.43788277886204
 20
-89.8202953326
 30
0.0
 10
93.43788277886204
 20
-89.8202953326
 30
0.0
 10
93.43788277886204
 20
-89.8202953326
 30
0.0
 10
93.19869962322625
 20
-89.8202953326
 30
0.0
 10
93.19869962322625
 20
-89.8202953326
 30
0.0
  0
SPLINE
  5
AF
330
7D
100
AcDbEntity
  8
Capa 1
 62
    18
420
        0
370
     9
100
AcDbSpline
210
0.0
220
0.0
230
1.0
 70
     8
 71
     3
 72
    11
 73
     7
 74
     0
 42
0.0000000001
 43
0.0000000001
 40
0.0
 40
0.0
 40
0.0
 40
0.0
 40
1.0
 40
1.0
 40
1.0
 40
2.0
 40
2.0
 40
2.0
 40
2.0
 10
90.81004132278783
 20
-89.8202953326
 30
0.0
 10
90.81004132278783
 20
-89.8202953326
 30
0.0
 10
90.57085816715204
 20
-89.8202953326
 30
0.0
 10
90.57085816715204
 20
-89.8202953326
 30
0.0
 10
90.57085816715204
 20
-89.8202953326
 30
0.0
 10
90.29886653285116
 20
-89.59804630158867
 30
0.0
 10
90.29886653285116
 20
-89.59804630158867
 30
0.0
  0
SPLINE
  5
B0
330
7D
100
AcDbEntity
  8
Capa 1
 62
    18
420
        0
370
     9
100
AcDbSpline
210
0.0
220
0.0
230
1.0
 70
     8
 71
     3
 72
    11
 73
     7
 74
     0
 42
0.0000000001
 43
0.0000000001
 40
0.0
 40
0.0
 40
0.0
 40
0.0
 40
1.0
 40
1.0
 40
1.0
 40
2.0
 40
2.0
 40
2.0
 40
2.0
 10
89.75382551227614
 20
-89.15354823956601
 30
0.0
 10
89.75382551227614
 20
-89.15354823956601
 30
0.0
 10
89.48183387797525
 20
-88.93129113411212
 30
0.0
 10
89.48183387797525
 20
-88.93129113411212
 30
0.0
 10
89.41515916867185
 20
-88.89108041024522
 30
0.0
 10
89.36118353887883
 20
-88.85826587574822
 30
0.0
 10
89.31144093558925
 20
-88.83287175394874
 30
0.0
  0
SPLINE
  5
B1
330
7D
100
AcDbEntity
  8
Capa 1
 62
    18
420
        0
370
     9
100
AcDbSpline
210
0.0
220
0.0
230
1.0
 70
     8
 71
     3
 72
    11
 73
     7
 74
     0
 42
0.0000000001
 43
0.0000000001
 40
0.0
 40
0.0
 40
0.0
 40
0.0
 40
1.0
 40
1.0
 40
1.0
 40
2.0
 40
2.0
 40
2.0
 40
2.0
 10
88.93255781228615
 20
-88.73444429934281
 30
0.0
 10
88.87646667854671
 20
-88.73021329144998
 30
0.0
 10
88.81190747318973
 20
-88.72809778750358
 30
0.0
 10
88.73570895890621
 20
-88.72704003553037
 30
0.0
 10
88.65315787695154
 20
-88.72491645714141
 30
0.0
 10
88.56002523804354
 20
-88.7238587051682
 30
0.0
 10
88.46054205007504
 20
-88.7217432012218
 30
0.0
  0
SPLINE
  5
B2
330
7D
100
AcDbEntity
  8
Capa 1
 62
    18
420
        0
370
     9
100
AcDbSpline
210
0.0
220
0.0
230
1.0
 70
     8
 71
     3
 72
    11
 73
     7
 74
     0
 42
0.0000000001
 43
0.0000000001
 40
0.0
 40
0.0
 40
0.0
 40
0.0
 40
1.0
 40
1.0
 40
1.0
 40
2.0
 40
2.0
 40
2.0
 40
2.0
 10
80.18860873495858
 20
-88.57993176682937
 30
0.0
 10
80.03409216522385
 20
-88.5767504364672
 30
0.0
 10
79.93778425178561
 20
-88.5746349325208
 30
0.0
 10
79.91344182612742
 20
-88.5746349325208
 30
0.0
 10
79.83935881579032
 20
-88.57251942857438
 30
0.0
 10
79.77479961043333
 20
-88.57251942857438
 30
0.0
 10
79.71447545019043
 20
-88.57569268449399
 30
0.0
  0
SPLINE
  5
B3
330
7D
100
AcDbEntity
  8
Capa 1
 62
    18
420
        0
370
     9
100
AcDbSpline
210
0.0
220
0.0
230
1.0
 70
     8
 71
     3
 72
    11
 73
     7
 74
     0
 42
0.0000000001
 43
0.0000000001
 40
0.0
 40
0.0
 40
0.0
 40
0.0
 40
1.0
 40
1.0
 40
1.0
 40
2.0
 40
2.0
 40
2.0
 40
2.0
 10
79.33241705235707
 20
-88.6698891312071
 30
0.0
 10
79.27738367059085
 20
-88.69846458336873
 30
0.0
 10
79.22340804079782
 20
-88.73444429934281
 30
0.0
 10
79.16731690705839
 20
-88.77889410554507
 30
0.0
 10
79.1355661803665
 20
-88.8042963017871
 30
0.0
 10
79.07735954268066
 20
-88.84980385996257
 30
0.0
 10
79.00115900978649
 20
-88.90907026823226
 30
0.0
  0
SPLINE
  5
B4
330
7D
100
AcDbEntity
  8
Capa 1
 62
    18
420
        0
370
     9
100
AcDbSpline
210
0.0
220
0.0
230
1.0
 70
     8
 71
     3
 72
    11
 73
     7
 74
     0
 42
0.0000000001
 43
0.0000000001
 40
0.0
 40
0.0
 40
0.0
 40
0.0
 40
1.0
 40
1.0
 40
1.0
 40
2.0
 40
2.0
 40
2.0
 40
2.0
 10
78.00420960754448
 20
-89.69011916991282
 30
0.0
 10
77.90260889701894
 20
-89.76949094011596
 30
0.0
 10
77.83804969166195
 20
-89.8202953326
 30
0.0
 10
77.83804969166195
 20
-89.8202953326
 30
0.0
 10
77.83804969166195
 20
-89.8202953326
 30
0.0
 10
77.59992630660999
 20
-89.8202953326
 30
0.0
 10
77.59992630660999
 20
-89.8202953326
 30
0.0
  0
SPLINE
  5
B5
330
7D
100
AcDbEntity
  8
Capa 1
 62
    18
420
        0
370
     9
100
AcDbSpline
210
0.0
220
0.0
230
1.0
 70
     8
 71
     3
 72
    11
 73
     7
 74
     0
 42
0.0000000001
 43
0.0000000001
 40
0.0
 40
0.0
 40
0.0
 40
0.0
 40
1.0
 40
1.0
 40
1.0
 40
2.0
 40
2.0
 40
2.0
 40
2.0
 10
75.21973405917851
 20
-89.8202953326
 30
0.0
 10
75.21973405917851
 20
-89.8202953326
 30
0.0
 10
74.98160865551591
 20
-89.8202953326
 30
0.0
 10
74.98160865551591
 20
-89.8202953326
 30
0.0
 10
74.98160865551591
 20
-89.8202953326
 30
0.0
 10
74.90011734414508
 20
-89.75044333015571
 30
0.0
 10
74.76994118145789
 20
-89.64038060384451
 30
0.0
  0
SPLINE
  5
B6
330
7D
100
AcDbEntity
  8
Capa 1
 62
    18
420
        0
370
     9
100
AcDbSpline
210
0.0
220
0.0
230
1.0
 70
     8
 71
     3
 72
    11
 73
     7
 74
     0
 42
0.0000000001
 43
0.0000000001
 40
0.0
 40
0.0
 40
0.0
 40
0.0
 40
1.0
 40
1.0
 40
1.0
 40
2.0
 40
2.0
 40
2.0
 40
2.0
 10
73.48830106540461
 20
-88.57251942857438
 30
0.0
 10
73.40786750600699
 20
-88.50796426043865
 30
0.0
 10
73.33484224764309
 20
-88.44869785216898
 30
0.0
 10
73.27134281286994
 20
-88.39895121165813
 30
0.0
 10
73.18032567790837
 20
-88.32804145724065
 30
0.0
 10
73.0692011624027
 20
-88.26665954502454
 30
0.0
 10
72.94643330074923
 20
-88.22220973882227
 30
0.0
  0
SPLINE
  5
B7
330
7D
100
AcDbEntity
  8
Capa 1
 62
    18
420
        0
370
     9
100
AcDbSpline
210
0.0
220
0.0
230
1.0
 70
     8
 71
     3
 72
    11
 73
     7
 74
     0
 42
0.0000000001
 43
0.0000000001
 40
0.0
 40
0.0
 40
0.0
 40
0.0
 40
1.0
 40
1.0
 40
1.0
 40
2.0
 40
2.0
 40
2.0
 40
2.0
 10
72.21724250630465
 20
-88.18623002284819
 30
0.0
 10
72.10188294568489
 20
-88.22220973882227
 30
0.0
 10
71.99287595273627
 20
-88.28253389906517
 30
0.0
 10
71.90080106580149
 20
-88.37249126344291
 30
0.0
 10
71.82460053290732
 20
-88.44657427378001
 30
0.0
 10
71.73781642444921
 20
-88.53548196062709
 30
0.0
 10
71.64574153751442
 20
-88.63072808487086
 30
0.0
  0
SPLINE
  5
B8
330
7D
100
AcDbEntity
  8
Capa 1
 62
    18
420
        0
370
     9
100
AcDbSpline
210
0.0
220
0.0
230
1.0
 70
     8
 71
     3
 72
    11
 73
     7
 74
     0
 42
0.0000000001
 43
0.0000000001
 40
0.0
 40
0.0
 40
0.0
 40
0.0
 40
1.0
 40
1.0
 40
1.0
 40
2.0
 40
2.0
 40
2.0
 40
2.0
 10
71.15150087220219
 20
-89.16306800732485
 30
0.0
 10
71.05836621468355
 20
-89.26572646982361
 30
0.0
 10
70.97475939936633
 20
-89.3599229165367
 30
0.0
 10
70.90914244203614
 20
-89.43294817490061
 30
0.0
 10
70.86786791036413
 20
-89.47951348504927
 30
0.0
 10
70.82976663461173
 20
-89.52290553927836
 30
0.0
 10
70.79166737746996
 20
-89.56311626314525
 30
0.0
  0
SPLINE
  5
B9
330
7D
100
AcDbEntity
  8
Capa 1
 62
    18
420
        0
370
     9
100
AcDbSpline
210
0.0
220
0.0
230
1.0
 70
     8
 71
     3
 72
    11
 73
     7
 74
     0
 42
0.0000000001
 43
0.0000000001
 40
0.0
 40
0.0
 40
0.0
 40
0.0
 40
1.0
 40
1.0
 40
1.0
 40
2.0
 40
2.0
 40
2.0
 40
2.0
 10
70.52285101769932
 20
-89.78324979021016
 30
0.0
 10
70.4699331398795
 20
-89.80759423447898
 30
0.0
 10
70.41489975811327
 20
-89.8202953326
 30
0.0
 10
70.35245807531333
 20
-89.8202953326
 30
0.0
 10
70.3037752426076
 20
-89.8202953326
 30
0.0
 10
70.25085938339842
 20
-89.79595088833118
 30
0.0
 10
70.1979415055786
 20
-89.76102892433031
 30
0.0
  0
SPLINE
  5
BA
330
7D
100
AcDbEntity
  8
Capa 1
 62
    18
420
        0
370
     9
100
AcDbSpline
210
0.0
220
0.0
230
1.0
 70
     8
 71
     3
 72
    14
 73
    10
 74
     0
 42
0.0000000001
 43
0.0000000001
 40
0.0
 40
0.0
 40
0.0
 40
0.0
 40
1.0
 40
1.0
 40
1.0
 40
2.0
 40
2.0
 40
2.0
 40
3.0
 40
3.0
 40
3.0
 40
3.0
 10
69.93865096939872
 20
-89.54618415713142
 30
0.0
 10
69.88255781704864
 20
-89.49961884698273
 30
0.0
 10
69.83175948039651
 20
-89.46681238692828
 30
0.0
 10
69.79260045267091
 20
-89.46681238692828
 30
0.0
 10
69.79260045267091
 20
-89.46681238692828
 30
0.0
 10
69.27084208717023
 20
-89.46681238692828
 30
0.0
 10
69.27084208717023
 20
-89.46681238692828
 30
0.0
 10
69.23168305944463
 20
-89.46681238692828
 30
0.0
 10
69.18405797871212
 20
-89.50703118523772
 30
0.0
 10
69.12690909299948
 20
-89.56100075919882
 30
0.0
  0
SPLINE
  5
BB
330
7D
100
AcDbEntity
  8
Capa 1
 62
    18
420
        0
370
     9
100
AcDbSpline
210
0.0
220
0.0
230
1.0
 70
     8
 71
     3
 72
    11
 73
     7
 74
     0
 42
0.0000000001
 43
0.0000000001
 40
0.0
 40
0.0
 40
0.0
 40
0.0
 40
1.0
 40
1.0
 40
1.0
 40
2.0
 40
2.0
 40
2.0
 40
2.0
 10
68.85597521067179
 20
-89.77796103034414
 30
0.0
 10
68.80411710343581
 20
-89.80336322658617
 30
0.0
 10
68.74908372166958
 20
-89.8202953326
 30
0.0
 10
68.68875956142668
 20
-89.8202953326
 30
0.0
 10
68.62737563059994
 20
-89.8202953326
 30
0.0
 10
68.57234224883372
 20
-89.81712207668037
 30
0.0
 10
68.52471716810121
 20
-89.80865198645219
 30
0.0
  0
SPLINE
  5
BC
330
7D
100
AcDbEntity
  8
Capa 1
 62
    18
420
        0
370
     9
100
AcDbSpline
210
0.0
220
0.0
230
1.0
 70
     8
 71
     3
 72
    11
 73
     7
 74
     0
 42
0.0000000001
 43
0.0000000001
 40
0.0
 40
0.0
 40
0.0
 40
0.0
 40
1.0
 40
1.0
 40
1.0
 40
2.0
 40
2.0
 40
2.0
 40
2.0
 10
68.28870928699565
 20
-89.60863189576327
 30
0.0
 10
68.27600818887464
 20
-89.56417401511846
 30
0.0
 10
68.26965965842477
 20
-89.51020444115734
 30
0.0
 10
68.26965965842477
 20
-89.44564119857908
 30
0.0
 10
68.26965965842477
 20
-89.44564119857908
 30
0.0
 10
68.26965965842477
 20
-89.20222905366108
 30
0.0
 10
68.26965965842477
 20
-89.20222905366108
 30
0.0
  0
SPLINE
  5
BD
330
7D
100
AcDbEntity
  8
Capa 1
 62
    18
420
        0
370
     9
100
AcDbSpline
210
0.0
220
0.0
230
1.0
 70
     8
 71
     3
 72
    11
 73
     7
 74
     0
 42
0.0000000001
 43
0.0000000001
 40
0.0
 40
0.0
 40
0.0
 40
0.0
 40
1.0
 40
1.0
 40
1.0
 40
2.0
 40
2.0
 40
2.0
 40
2.0
 10
68.26965965842477
 20
-84.82072970071186
 30
0.0
 10
68.26965965842477
 20
-84.82072970071186
 30
0.0
 10
68.26965965842477
 20
-84.57730948135134
 30
0.0
 10
68.26965965842477
 20
-84.57730948135134
 30
0.0
 10
68.27600818887464
 20
-84.46089216875837
 30
0.0
 10
68.30458364103627
 20
-84.36881930043423
 30
0.0
 10
68.35220872176879
 20
-84.29790954601672
 30
0.0
  0
SPLINE
  5
BE
330
7D
100
AcDbEntity
  8
Capa 1
 62
    18
420
        0
370
     9
100
AcDbSpline
210
0.0
220
0.0
230
1.0
 70
     8
 71
     3
 72
    11
 73
     7
 74
     0
 42
0.0000000001
 43
0.0000000001
 40
0.0
 40
0.0
 40
0.0
 40
0.0
 40
1.0
 40
1.0
 40
1.0
 40
2.0
 40
2.0
 40
2.0
 40
2.0
 10
68.87502483924267
 20
-84.07248725908578
 30
0.0
 10
68.96498422223103
 20
-84.06719849921975
 30
0.0
 10
69.06340965822633
 20
-84.06719849921975
 30
0.0
 10
69.17030114722854
 20
-84.07142950711257
 30
0.0
 10
69.30259281386213
 20
-84.07566051500539
 30
0.0
 10
69.42641640887817
 20
-84.08094927487143
 30
0.0
 10
69.54600899600139
 20
-84.08518835720679
 30
0.0
  0
SPLINE
  5
BF
330
7D
100
AcDbEntity
  8
Capa 1
 62
    18
420
        0
370
     9
100
AcDbSpline
210
0.0
220
0.0
230
1.0
 70
     8
 71
     3
 72
    11
 73
     7
 74
     0
 42
0.0000000001
 43
0.0000000001
 40
0.0
 40
0.0
 40
0.0
 40
0.0
 40
1.0
 40
1.0
 40
1.0
 40
2.0
 40
2.0
 40
2.0
 40
2.0
 10
70.29636694157389
 20
-84.12434132910048
 30
0.0
 10
70.41913278461674
 20
-84.13175366735547
 30
0.0
 10
70.54190064627021
 20
-84.13915793116791
 30
0.0
 10
70.67101703837355
 20
-84.14762802139609
 30
0.0
 10
70.76732495181179
 20
-84.15291678126212
 30
0.0
 10
70.85516681224311
 20
-84.16773338332955
 30
0.0
 10
70.93454261966752
 20
-84.18890457167874
 30
0.0
  0
SPLINE
  5
C0
330
7D
100
AcDbEntity
  8
Capa 1
 62
    18
420
        0
370
     9
100
AcDbSpline
210
0.0
220
0.0
230
1.0
 70
     8
 71
     3
 72
    11
 73
     7
 74
     0
 42
0.0000000001
 43
0.0000000001
 40
0.0
 40
0.0
 40
0.0
 40
0.0
 40
1.0
 40
1.0
 40
1.0
 40
2.0
 40
2.0
 40
2.0
 40
2.0
 10
71.36634160217981
 20
-84.48100560513436
 30
0.0
 10
71.41079140838208
 20
-84.55508861547148
 30
0.0
 10
71.43725135659732
 20
-84.63974914554064
 30
0.0
 10
71.44571740960422
 20
-84.73394559225374
 30
0.0
 10
71.45735873714139
 20
-84.86094849902132
 30
0.0
 10
71.47005781665177
 20
-84.98053906753389
 30
0.0
 10
71.48275891477277
 20
-85.09695638012685
 30
0.0
  0
SPLINE
  5
C1
330
7D
100
AcDbEntity
  8
Capa 1
 62
    18
420
        0
370
     9
100
AcDbSpline
210
0.0
220
0.0
230
1.0
 70
     8
 71
     3
 72
    11
 73
     7
 74
     0
 42
0.0000000001
 43
0.0000000001
 40
0.0
 40
0.0
 40
0.0
 40
0.0
 40
1.0
 40
1.0
 40
1.0
 40
2.0
 40
2.0
 40
2.0
 40
2.0
 10
71.58329985471448
 20
-85.81873887353772
 30
0.0
 10
71.60129173131216
 20
-85.93303260774174
 30
0.0
 10
71.62034135988304
 20
-86.05157349872365
 30
0.0
 10
71.64150851101097
 20
-86.17962608302189
 30
0.0
 10
71.65844263563544
 20
-86.28122679354744
 30
0.0
 10
71.68278304268298
 20
-86.38071200012657
 30
0.0
 10
71.71241624681782
 20
-86.47701587634353
 30
0.0
  0
SPLINE
  5
C2
330
7D
100
AcDbEntity
  8
Capa 1
 62
    18
420
        0
370
     9
100
AcDbSpline
210
0.0
220
0.0
230
1.0
 70
     8
 71
     3
 72
    11
 73
     7
 74
     0
 42
0.0000000001
 43
0.0000000001
 40
0.0
 40
0.0
 40
0.0
 40
0.0
 40
1.0
 40
1.0
 40
1.0
 40
2.0
 40
2.0
 40
2.0
 40
2.0
 10
74.0523917145505
 20
-88.18199094051283
 30
0.0
 10
74.15399242507604
 20
-88.19257653468744
 30
0.0
 10
74.25559111699094
 20
-88.1989311209692
 30
0.0
 10
74.3582495794897
 20
-88.20104662491562
 30
0.0
 10
74.40904993475247
 20
-88.20210437688883
 30
0.0
 10
74.49689179518379
 20
-88.20421988083523
 30
0.0
 10
74.61965965683727
 20
-88.20633538478164
 30
0.0
  0
SPLINE
  5
C3
330
7D
100
AcDbEntity
  8
Capa 1
 62
    18
420
        0
370
     9
100
AcDbSpline
210
0.0
220
0.0
230
1.0
 70
     8
 71
     3
 72
    14
 73
    10
 74
     0
 42
0.0000000001
 43
0.0000000001
 40
0.0
 40
0.0
 40
0.0
 40
0.0
 40
1.0
 40
1.0
 40
1.0
 40
2.0
 40
2.0
 40
2.0
 40
3.0
 40
3.0
 40
3.0
 40
3.0
 10
101.2991802253728
 20
-88.75349190930306
 30
0.0
 10
101.4357069371205
 20
-88.75560741324946
 30
0.0
 10
101.5246065495251
 20
-88.75773099163842
 30
0.0
 10
101.5605903027204
 20
-88.75878874361163
 30
0.0
 10
101.8537490881493
 20
-88.76407750347766
 30
0.0
 10
101.8833822922841
 20
-88.77677860159867
 30
0.0
 10
102.0675320661537
 20
-88.8762638081778
 30
0.0
 10
102.1342067754571
 20
-88.91330127612508
 30
0.0
 10
102.2019392367337
 20
-88.95034681851491
 30
0.0
 10
102.2728489911512
 20
-88.9873842864622
 30
0.0
  0
SPLINE
  5
C4
330
7D
100
AcDbEntity
  8
Capa 1
 62
    18
420
        0
370
     9
100
AcDbSpline
210
0.0
220
0.0
230
1.0
 70
     8
 71
     3
 72
    11
 73
     7
 74
     0
 42
0.0000000001
 43
0.0000000001
 40
0.0
 40
0.0
 40
0.0
 40
0.0
 40
1.0
 40
1.0
 40
1.0
 40
2.0
 40
2.0
 40
2.0
 40
2.0
 10
103.5153320980895
 20
-89.63402601756275
 30
0.0
 10
103.5830645593661
 20
-89.66895605600615
 30
0.0
 10
103.6518588098372
 20
-89.70387802000702
 30
0.0
 10
103.7227645270334
 20
-89.7398577359811
 30
0.0
 10
103.7227645270334
 20
-89.7398577359811
 30
0.0
 10
103.9661807091726
 20
-89.7398577359811
 30
0.0
 10
103.9661807091726
 20
-89.7398577359811
 30
0.0
  0
SPLINE
  5
C5
330
7D
100
AcDbEntity
  8
Capa 1
 62
    18
420
        0
370
     9
100
AcDbSpline
210
0.0
220
0.0
230
1.0
 70
     8
 71
     3
 72
    11
 73
     7
 74
     0
 42
0.0000000001
 43
0.0000000001
 40
0.0
 40
0.0
 40
0.0
 40
0.0
 40
1.0
 40
1.0
 40
1.0
 40
2.0
 40
2.0
 40
2.0
 40
2.0
 10
108.3339252492489
 20
-89.7398577359811
 30
0.0
 10
108.3339252492489
 20
-89.7398577359811
 30
0.0
 10
108.5773414313882
 20
-89.7398577359811
 30
0.0
 10
108.5773414313882
 20
-89.7398577359811
 30
0.0
 10
108.5773414313882
 20
-89.7398577359811
 30
0.0
 10
108.6863504429475
 20
-89.67424481587219
 30
0.0
 10
108.8482753137159
 20
-89.57793286521267
 30
0.0
  0
SPLINE
  5
C6
330
7D
100
AcDbEntity
  8
Capa 1
 62
    18
420
        0
370
     9
100
AcDbSpline
210
0.0
220
0.0
230
1.0
 70
     8
 71
     3
 72
    11
 73
     7
 74
     0
 42
0.0000000001
 43
0.0000000001
 40
0.0
 40
0.0
 40
0.0
 40
0.0
 40
1.0
 40
1.0
 40
1.0
 40
2.0
 40
2.0
 40
2.0
 40
2.0
 10
109.3954318382373
 20
-89.26149546193078
 30
0.0
 10
109.4885664957559
 20
-89.20857556550032
 30
0.0
 10
109.5827589052478
 20
-89.1567214954856
 30
0.0
 10
109.6716585176523
 20
-89.10909843336375
 30
0.0
 10
109.736213685788
 20
-89.07416839492032
 30
0.0
 10
109.8018306431182
 20
-89.04241968683907
 30
0.0
 10
109.8674476004484
 20
-89.01278648270421
 30
0.0
  0
SPLINE
  5
C7
330
7D
100
AcDbEntity
  8
Capa 1
 62
    18
420
        0
370
     9
100
AcDbSpline
210
0.0
220
0.0
230
1.0
 70
     8
 71
     3
 72
    11
 73
     7
 74
     0
 42
0.0000000001
 43
0.0000000001
 40
0.0
 40
0.0
 40
0.0
 40
0.0
 40
1.0
 40
1.0
 40
1.0
 40
2.0
 40
2.0
 40
2.0
 40
2.0
 10
111.1363906556019
 20
-88.71328118543615
 30
0.0
 10
111.206238620825
 20
-88.70586884718118
 30
0.0
 10
111.2782061272157
 20
-88.69952233534194
 30
0.0
 10
111.353346889526
 20
-88.69210999708696
 30
0.0
 10
111.4411887499573
 20
-88.68470573327453
 30
0.0
 10
111.5247996024958
 20
-88.67729339501954
 30
0.0
 10
111.6031136207257
 20
-88.6698891312071
 30
0.0
  0
SPLINE
  5
C8
330
7D
100
AcDbEntity
  8
Capa 1
 62
    18
420
        0
370
     9
100
AcDbSpline
210
0.0
220
0.0
230
1.0
 70
     8
 71
     3
 72
    11
 73
     7
 74
     0
 42
0.0000000001
 43
0.0000000001
 40
0.0
 40
0.0
 40
0.0
 40
0.0
 40
1.0
 40
1.0
 40
1.0
 40
2.0
 40
2.0
 40
2.0
 40
2.0
 10
113.0868974058569
 20
-88.41059455780593
 30
0.0
 10
113.1641577093349
 20
-88.39048919587249
 30
0.0
 10
113.2445912687325
 20
-88.3693180075233
 30
0.0
 10
113.329255836023
 20
-88.34603938967022
 30
0.0
 10
113.4022810943869
 20
-88.32592595329423
 30
0.0
 10
113.4731908488044
 20
-88.30370508741436
 30
0.0
 10
113.5419810620542
 20
-88.27936064314554
 30
0.0
  0
SPLINE
  5
C9
330
7D
100
AcDbEntity
  8
Capa 1
 62
    18
420
        0
370
     9
100
AcDbSpline
210
0.0
220
0.0
230
1.0
 70
     8
 71
     3
 72
    11
 73
     7
 74
     0
 42
0.0000000001
 43
0.0000000001
 40
0.0
 40
0.0
 40
0.0
 40
0.0
 40
1.0
 40
1.0
 40
1.0
 40
2.0
 40
2.0
 40
2.0
 40
2.0
 10
115.0808002475622
 20
-86.78817259420194
 30
0.0
 10
115.1019673986901
 20
-86.71726283978445
 30
0.0
 10
115.1178417527308
 20
-86.64529533339374
 30
0.0
 10
115.1305388136305
 20
-86.57121232305664
 30
0.0
 10
115.1432399117515
 20
-86.49183247841095
 30
0.0
 10
115.1580565138189
 20
-86.40717194834179
 30
0.0
 10
115.1728731158864
 20
-86.31827233593725
 30
0.0
  0
SPLINE
  5
CA
330
7D
100
AcDbEntity
  8
Capa 1
 62
    18
420
        0
370
     9
100
AcDbSpline
210
0.0
220
0.0
230
1.0
 70
     8
 71
     3
 72
    11
 73
     7
 74
     0
 42
0.0000000001
 43
0.0000000001
 40
0.0
 40
0.0
 40
0.0
 40
0.0
 40
1.0
 40
1.0
 40
1.0
 40
2.0
 40
2.0
 40
2.0
 40
2.0
 10
115.4120582901328
 20
-84.79850076038946
 30
0.0
 10
115.4226398470861
 20
-84.71171665193134
 30
0.0
 10
115.4332254412607
 20
-84.62705612186217
 30
0.0
 10
115.4416914942677
 20
-84.54344526932366
 30
0.0
 10
115.4490997953014
 20
-84.46618900306694
 30
0.0
 10
115.464974149342
 20
-84.40479901640831
 30
0.0
 10
115.4903723083627
 20
-84.35506045034001
 30
0.0
  0
SPLINE
  5
CB
330
7D
100
AcDbEntity
  8
Capa 1
 62
    18
420
        0
370
     9
100
AcDbSpline
210
0.0
220
0.0
230
1.0
 70
     8
 71
     3
 72
    11
 73
     7
 74
     0
 42
0.0000000001
 43
0.0000000001
 40
0.0
 40
0.0
 40
0.0
 40
0.0
 40
1.0
 40
1.0
 40
1.0
 40
2.0
 40
2.0
 40
2.0
 40
2.0
 10
115.8205725989601
 20
-84.17726122553094
 30
0.0
 10
115.8777235032834
 20
-84.16879113530276
 30
0.0
 10
115.9422827086404
 20
-84.16350237543673
 30
0.0
 10
116.0153079670043
 20
-84.15821361557069
 30
0.0
 10
116.0893909773414
 20
-84.15397453323533
 30
0.0
 10
116.1708822887122
 20
-84.1486857733693
 30
0.0
 10
116.2576663971703
 20
-84.14445476547648
 30
0.0
  0
SPLINE
  5
CC
330
7D
100
AcDbEntity
  8
Capa 1
 62
    18
420
        0
370
     9
100
AcDbSpline
210
0.0
220
0.0
230
1.0
 70
     8
 71
     3
 72
    11
 73
     7
 74
     0
 42
0.0000000001
 43
0.0000000001
 40
0.0
 40
0.0
 40
0.0
 40
0.0
 40
1.0
 40
1.0
 40
1.0
 40
2.0
 40
2.0
 40
2.0
 40
2.0
 10
117.709697436999
 20
-84.07989152289822
 30
0.0
 10
117.7943660415107
 20
-84.0767182669786
 30
0.0
 10
117.8758573528815
 20
-84.07354501105897
 30
0.0
 10
117.952055867165
 20
-84.07142950711257
 30
0.0
 10
118.0515410737442
 20
-84.06719849921975
 30
0.0
 10
118.1372674302291
 20
-84.06719849921975
 30
0.0
 10
118.210292688593
 20
-84.07142950711257
 30
0.0
  0
SPLINE
  5
CD
330
7D
100
AcDbEntity
  8
Capa 1
 62
    18
420
        0
370
     9
100
AcDbSpline
210
0.0
220
0.0
230
1.0
 70
     8
 71
     3
 72
    11
 73
     7
 74
     0
 42
0.0000000001
 43
0.0000000001
 40
0.0
 40
0.0
 40
0.0
 40
0.0
 40
1.0
 40
1.0
 40
1.0
 40
2.0
 40
2.0
 40
2.0
 40
2.0
 10
118.6198647493935
 20
-84.32331174225875
 30
0.0
 10
118.6420896524946
 20
-84.38998241434088
 30
0.0
 10
118.6537329986425
 20
-84.47465101885258
 30
0.0
 10
118.660083547703
 20
-84.57730948135134
 30
0.0
 10
118.660083547703
 20
-84.57730948135134
 30
0.0
 10
118.660083547703
 20
-84.82072970071186
 30
0.0
 10
118.660083547703
 20
-84.82072970071186
 30
0.0
  0
SPLINE
  5
CE
330
7D
100
AcDbEntity
  8
Capa 1
 62
    18
420
        0
370
     9
100
AcDbSpline
210
0.0
220
0.0
230
1.0
 70
     8
 71
     3
 72
    11
 73
     7
 74
     0
 42
0.0000000001
 43
0.0000000001
 40
0.0
 40
0.0
 40
0.0
 40
0.0
 40
1.0
 40
1.0
 40
1.0
 40
2.0
 40
2.0
 40
2.0
 40
2.0
 10
118.660083547703
 20
-89.20222905366108
 30
0.0
 10
118.660083547703
 20
-89.20222905366108
 30
0.0
 10
118.660083547703
 20
-89.44564119857908
 30
0.0
 10
118.660083547703
 20
-89.44564119857908
 30
0.0
 10
118.660083547703
 20
-89.51020444115734
 30
0.0
 10
118.6537329986425
 20
-89.56417401511846
 30
0.0
 10
118.6410319005214
 20
-89.60968964773647
 30
0.0
  0
SPLINE
  5
CF
330
7D
100
AcDbEntity
  8
Capa 1
 62
    18
420
        0
370
     9
100
AcDbSpline
210
0.0
220
0.0
230
1.0
 70
     8
 71
     3
 72
    11
 73
     7
 74
     0
 42
0.0000000001
 43
0.0000000001
 40
0.0
 40
0.0
 40
0.0
 40
0.0
 40
1.0
 40
1.0
 40
1.0
 40
2.0
 40
2.0
 40
2.0
 40
2.0
 10
118.4029085154695
 20
-89.80865198645219
 30
0.0
 10
118.3542236641531
 20
-89.81712207668037
 30
0.0
 10
118.2991923009975
 20
-89.8202953326
 30
0.0
 10
118.2378063515602
 20
-89.8202953326
 30
0.0
 10
118.17218939423
 20
-89.8202953326
 30
0.0
 10
118.115042527128
 20
-89.79912414425079
 30
0.0
 10
118.063184419892
 20
-89.76843318814275
 30
0.0
  0
SPLINE
  5
D0
330
7D
100
AcDbEntity
  8
Capa 1
 62
    18
420
        0
370
     9
100
AcDbSpline
210
0.0
220
0.0
230
1.0
 70
     8
 71
     3
 72
    14
 73
    10
 74
     0
 42
0.0000000001
 43
0.0000000001
 40
0.0
 40
0.0
 40
0.0
 40
0.0
 40
1.0
 40
1.0
 40
1.0
 40
2.0
 40
2.0
 40
2.0
 40
3.0
 40
3.0
 40
3.0
 40
3.0
 10
117.7827226953629
 20
-89.52925205111759
 30
0.0
 10
117.7308645881269
 20
-89.4922145831703
 30
0.0
 10
117.6758332249713
 20
-89.46681238692828
 30
0.0
 10
117.6123317715875
 20
-89.46681238692828
 30
0.0
 10
117.6123317715875
 20
-89.46681238692828
 30
0.0
 10
117.1371427534568
 20
-89.46681238692828
 30
0.0
 10
117.1371427534568
 20
-89.46681238692828
 30
0.0
 10
117.0704680441534
 20
-89.46681238692828
 30
0.0
 10
117.0059088387964
 20
-89.48691774886173
 30
0.0
 10
116.9434651373858
 20
-89.51760870496977
 30
0.0
  0
SPLINE
  5
D1
330
7D
100
AcDbEntity
  8
Capa 1
 62
    18
420
        0
370
     9
100
AcDbSpline
210
0.0
220
0.0
230
1.0
 70
     8
 71
     3
 72
    11
 73
     7
 74
     0
 42
0.0000000001
 43
0.0000000001
 40
0.0
 40
0.0
 40
0.0
 40
0.0
 40
1.0
 40
1.0
 40
1.0
 40
2.0
 40
2.0
 40
2.0
 40
2.0
 10
116.6122070948153
 20
-89.74409681831648
 30
0.0
 10
116.5465901374851
 20
-89.78854662451874
 30
0.0
 10
116.485208225269
 20
-89.8202953326
 30
0.0
 10
116.4280573209457
 20
-89.8202953326
 30
0.0
 10
116.3634981155887
 20
-89.8202953326
 30
0.0
 10
116.3021162033726
 20
-89.80230547461296
 30
0.0
 10
116.2417920431297
 20
-89.7716145185049
 30
0.0
  0
SPLINE
  5
D2
330
7D
100
AcDbEntity
  8
Capa 1
 62
    18
420
        0
370
     9
100
AcDbSpline
210
0.0
220
0.0
230
1.0
 70
     8
 71
     3
 72
    11
 73
     7
 74
     0
 42
0.0000000001
 43
0.0000000001
 40
0.0
 40
0.0
 40
0.0
 40
0.0
 40
1.0
 40
1.0
 40
1.0
 40
2.0
 40
2.0
 40
2.0
 40
2.0
 10
115.9306393624926
 20
-89.53983764529217
 30
0.0
 10
115.8830163003707
 20
-89.49856109500954
 30
0.0
 10
115.8343314490543
 20
-89.45516904078047
 30
0.0
 10
115.7835310937916
 20
-89.41389249049782
 30
0.0
 10
115.7105058354277
 20
-89.35462608222813
 30
0.0
 10
115.6491239232116
 20
-89.30277201221342
 30
0.0
 10
115.5951503120292
 20
-89.255140875649
 30
0.0
  0
SPLINE
  5
D3
330
7D
100
AcDbEntity
  8
Capa 1
 62
    18
420
        0
370
     9
100
AcDbSpline
210
0.0
220
0.0
230
1.0
 70
     8
 71
     3
 72
    11
 73
     7
 74
     0
 42
0.0000000001
 43
0.0000000001
 40
0.0
 40
0.0
 40
0.0
 40
0.0
 40
1.0
 40
1.0
 40
1.0
 40
2.0
 40
2.0
 40
2.0
 40
2.0
 10
115.2226157191759
 20
-88.93341471250108
 30
0.0
 10
115.1665225668258
 20
-88.88684132790986
 30
0.0
 10
115.1051406546098
 20
-88.83816051381478
 30
0.0
 10
115.0299998922994
 20
-88.78100960949149
 30
0.0
 10
114.9305146857203
 20
-88.70692659915439
 30
0.0
 10
114.837384065423
 20
-88.64660243891149
 30
0.0
 10
114.7421339039579
 20
-88.60215263270921
 30
0.0
  0
SPLINE
  5
D4
330
7D
100
AcDbEntity
  8
Capa 1
 62
    18
420
        0
370
     9
100
AcDbSpline
210
0.0
220
0.0
230
1.0
 70
     8
 71
     3
 72
    11
 73
     7
 74
     0
 42
0.0000000001
 43
0.0000000001
 40
0.0
 40
0.0
 40
0.0
 40
0.0
 40
1.0
 40
1.0
 40
1.0
 40
2.0
 40
2.0
 40
2.0
 40
2.0
 10
114.0774982776491
 20
-88.5365397126003
 30
0.0
 10
113.9780171082912
 20
-88.55452957058734
 30
0.0
 10
113.8700658487051
 20
-88.58204727077577
 30
0.0
 10
113.7483557390249
 20
-88.62014249069625
 30
0.0
 10
113.6552251187275
 20
-88.6497756948311
 30
0.0
 10
113.5589172052893
 20
-88.67729339501954
 30
0.0
 10
113.4583742467369
 20
-88.70375334323476
 30
0.0
  0
SPLINE
  5
D5
330
7D
100
AcDbEntity
  8
Capa 1
 62
    18
420
        0
370
     9
100
AcDbSpline
210
0.0
220
0.0
230
1.0
 70
     8
 71
     3
 72
    11
 73
     7
 74
     0
 42
0.0000000001
 43
0.0000000001
 40
0.0
 40
0.0
 40
0.0
 40
0.0
 40
1.0
 40
1.0
 40
1.0
 40
2.0
 40
2.0
 40
2.0
 40
2.0
 10
111.67296562317
 20
-89.00220088852961
 30
0.0
 10
111.5734804165909
 20
-89.01067097875779
 30
0.0
 10
111.4729414952598
 20
-89.01913299454346
 30
0.0
 10
111.3723985367075
 20
-89.02654533279843
 30
0.0
 10
111.2760906232692
 20
-89.03394959661088
 30
0.0
 10
111.1840137177238
 20
-89.04030418289265
 30
0.0
 10
111.097233646487
 20
-89.04876619867829
 30
0.0
  0
SPLINE
  5
D6
330
7D
100
AcDbEntity
  8
Capa 1
 62
    18
420
        0
370
     9
100
AcDbSpline
210
0.0
220
0.0
230
1.0
 70
     8
 71
     3
 72
    11
 73
     7
 74
     0
 42
0.0000000001
 43
0.0000000001
 40
0.0
 40
0.0
 40
0.0
 40
0.0
 40
1.0
 40
1.0
 40
1.0
 40
2.0
 40
2.0
 40
2.0
 40
2.0
 10
109.583816657221
 20
-89.61392065562929
 30
0.0
 10
109.5224307077836
 20
-89.6753025678454
 30
0.0
 10
109.4621065475407
 20
-89.74409681831648
 30
0.0
 10
109.4017823872978
 20
-89.8202953326
 30
0.0
 10
109.4017823872978
 20
-89.8202953326
 30
0.0
 10
109.1308485049701
 20
-89.8202953326
 30
0.0
 10
109.1308485049701
 20
-89.8202953326
 30
0.0
  0
SPLINE
  5
D7
330
7D
100
AcDbEntity
  8
Capa 1
 62
    18
420
        0
370
     9
100
AcDbSpline
210
0.0
220
0.0
230
1.0
 70
     8
 71
     3
 72
    11
 73
     7
 74
     0
 42
0.0000000001
 43
0.0000000001
 40
0.0
 40
0.0
 40
0.0
 40
0.0
 40
1.0
 40
1.0
 40
1.0
 40
2.0
 40
2.0
 40
2.0
 40
2.0
 10
103.1734884613443
 20
-89.8202953326
 30
0.0
 10
103.1734884613443
 20
-89.8202953326
 30
0.0
 10
102.9025586162379
 20
-89.8202953326
 30
0.0
 10
102.9025586162379
 20
-89.8202953326
 30
0.0
 10
102.8517582609751
 20
-89.74832782620929
 30
0.0
 10
102.7787330026112
 20
-89.68164907968462
 30
0.0
 10
102.687713849039
 20
-89.62132491944172
 30
0.0
  0
LWPOLYLINE
  5
D8
330
7D
100
AcDbEntity
  8
Capa 1
100
AcDbPolyline
 90
        4
 70
     1
 43
0.0
 10
64.27857978856275
 20
-167.9865674128713
 10
155.7037647785238
 20
-167.9865674128713
 10
155.7037647785238
 20
-69.41763242469611
 10
64.27857978856275
 20
-69.41763242469611
  0
ENDBLK
  5
80
330
7D
100
AcDbEntity
  8
0
100
AcDbBlockEnd
  0
BLOCK
  5
DD
330
DB
100
AcDbEntity
  8
0
100
AcDbBlockBegin
  2
Block_1
 70
     0
 10
0.0
 20
0.0
 30
0.0
  3
Block_1
  1

  0
SPLINE
  5
DF
330
DB
100
AcDbEntity
  8
Capa 1
 62
    18
420
        0
370
     9
100
AcDbSpline
210
0.0
220
0.0
230
1.0
 70
     9
 71
     3
 72
   116
 73
   112
 74
     0
 42
0.0000000001
 43
0.0000000001
 40
0.0
 40
0.0
 40
0.0
 40
0.0
 40
1.0
 40
1.0
 40
1.0
 40
2.0
 40
2.0
 40
2.0
 40
3.0
 40
3.0
 40
3.0
 40
4.0
 40
4.0
 40
4.0
 40
5.0
 40
5.0
 40
5.0
 40
6.0
 40
6.0
 40
6.0
 40
7.0
 40
7.0
 40
7.0
 40
8.0
 40
8.0
 40
8.0
 40
9.0
 40
9.0
 40
9.0
 40
10.0
 40
10.0
 40
10.0
 40
11.0
 40
11.0
 40
11.0
 40
12.0
 40
12.0
 40
12.0
 40
13.0
 40
13.0
 40
13.0
 40
14.0
 40
14.0
 40
14.0
 40
15.0
 40
15.0
 40
15.0
 40
16.0
 40
16.0
 40
16.0
 40
17.0
 40
17.0
 40
17.0
 40
18.0
 40
18.0
 40
18.0
 40
19.0
 40
19.0
 40
19.0
 40
20.0
 40
20.0
 40
20.0
 40
21.0
 40
21.0
 40
21.0
 40
22.0
 40
22.0
 40
22.0
 40
23.0
 40
23.0
 40
23.0
 40
24.0
 40
24.0
 40
24.0
 40
25.0
 40
25.0
 40
25.0
 40
26.0
 40
26.0
 40
26.0
 40
27.0
 40
27.0
 40
27.0
 40
28.0
 40
28.0
 40
28.0
 40
29.0
 40
29.0
 40
29.0
 40
30.0
 40
30.0
 40
30.0
 40
31.0
 40
31.0
 40
31.0
 40
32.0
 40
32.0
 40
32.0
 40
33.0
 40
33.0
 40
33.0
 40
34.0
 40
34.0
 40
34.0
 40
35.0
 40
35.0
 40
35.0
 40
36.0
 40
36.0
 40
36.0
 40
37.0
 40
37.0
 40
37.0
 40
37.0
 10
117.9540704405797
 20
-84.07883377092501
 30
0.0
 10
117.9540704405797
 20
-84.07883377092501
 30
0.0
 10
117.9540704405797
 20
-84.06719849921975
 30
0.0
 10
117.9540704405797
 20
-84.06719849921975
 30
0.0
 10
117.9540704405797
 20
-84.06719849921975
 30
0.0
 10
69.17337145400573
 20
-84.06719849921975
 30
0.0
 10
69.17337145400573
 20
-84.06719849921975
 30
0.0
 10
69.17337145400573
 20
-84.06719849921975
 30
0.0
 10
69.17337145400573
 20
-84.07883377092501
 30
0.0
 10
69.17337145400573
 20
-84.07883377092501
 30
0.0
 10
68.62726864423624
 20
-84.05767065701835
 30
0.0
 10
68.29707239086014
 20
-84.14445476547648
 30
0.0
 10
68.27167019461811
 20
-84.58049081171351
 30
0.0
 10
68.27167019461811
 20
-84.58049081171351
 30
0.0
 10
68.27167019461811
 20
-89.44564927302161
 30
0.0
 10
68.27167019461811
 20
-89.44564927302161
 30
0.0
 10
68.27167019461811
 20
-89.7620866763035
 30
0.0
 10
68.41137016228542
 20
-89.82770767085497
 30
0.0
 10
68.69077009762003
 20
-89.82770767085497
 30
0.0
 10
68.97017003295464
 20
-89.82770767085497
 30
0.0
 10
69.16067035588472
 20
-89.46787013890149
 30
0.0
 10
69.27497216453126
 20
-89.46787013890149
 30
0.0
 10
69.27497216453126
 20
-89.46787013890149
 30
0.0
 10
69.79566874083745
 20
-89.46787013890149
 30
0.0
 10
69.79566874083745
 20
-89.46787013890149
 30
0.0
 10
69.92267164760503
 20
-89.46787013890149
 30
0.0
 10
70.16397232579787
 20
-89.82770767085497
 30
0.0
 10
70.35446861150667
 20
-89.82770767085497
 30
0.0
 10
70.57037113067877
 20
-89.82770767085497
 30
0.0
 10
70.71007109834607
 20
-89.65308170196554
 30
0.0
 10
70.91326848217589
 20
-89.43612143082022
 30
0.0
 10
71.141872099469
 20
-89.17259584952624
 30
0.0
 10
71.59907125961268
 20
-88.67094688318031
 30
0.0
 10
71.90386935396803
 20
-88.37673034577827
 30
0.0
 10
72.28486999982819
 20
-88.00525754211951
 30
0.0
 10
72.93256948290194
 20
-88.1364914567799
 30
0.0
 10
73.27547087162034
 20
-88.40953680583274
 30
0.0
 10
73.79617148514779
 20
-88.81382414398849
 30
0.0
 10
74.97726864264875
 20
-89.82770767085497
 30
0.0
 10
74.97726864264875
 20
-89.82770767085497
 30
0.0
 10
74.97726864264875
 20
-89.82770767085497
 30
0.0
 10
77.83476944937863
 20
-89.82770767085497
 30
0.0
 10
77.83476944937863
 20
-89.82770767085497
 30
0.0
 10
77.83476944937863
 20
-89.82770767085497
 30
0.0
 10
78.97777138695909
 20
-88.93235696052787
 30
0.0
 10
79.16827170988916
 20
-88.77995185751828
 30
0.0
 10
79.37146909371897
 20
-88.61696923477664
 30
0.0
 10
79.54927235574931
 20
-88.57357718054759
 30
0.0
 10
79.91757190348846
 20
-88.58522052669538
 30
0.0
 10
80.14617148356029
 20
-88.58522052669538
 30
0.0
 10
86.82636975395954
 20
-88.70375334323476
 30
0.0
 10
88.73137096464967
 20
-88.73761755526244
 30
0.0
 10
89.15047086765159
 20
-88.73761755526244
 30
0.0
 10
89.21397030242474
 20
-88.77043208975944
 30
0.0
 10
89.48067115824896
 20
-88.93235696052787
 30
0.0
 10
89.48067115824896
 20
-88.93235696052787
 30
0.0
 10
90.57287072195602
 20
-89.82770767085497
 30
0.0
 10
90.57287072195602
 20
-89.82770767085497
 30
0.0
 10
90.57287072195602
 20
-89.82770767085497
 30
0.0
 10
93.44307060819629
 20
-89.82770767085497
 30
0.0
 10
93.44307060819629
 20
-89.82770767085497
 30
0.0
 10
93.44307060819629
 20
-89.82770767085497
 30
0.0
 10
94.39557020423603
 20
-89.03183409266446
 30
0.0
 10
94.39557020423603
 20
-89.03183409266446
 30
0.0
 10
94.61147070479748
 20
-88.87943706409741
 30
0.0
 10
94.71307141532303
 20
-88.83498725789515
 30
0.0
 10
95.11947022020393
 20
-88.83498725789515
 30
0.0
 10
105.2794686027754
 20
-89.01067097875779
 30
0.0
 10
98.48708604628669
 20
-89.04241968683907
 30
0.0
 10
99.54330387540901
 20
-89.03183409266446
 30
0.0
 10
100.3561014851708
 20
-89.03183409266446
 30
0.0
 10
102.4600670531873
 20
-89.20540230958071
 30
0.0
 10
102.9045691524312
 20
-89.82770767085497
 30
0.0
 10
102.9045691524312
 20
-89.82770767085497
 30
0.0
 10
108.5814674715279
 20
-89.82770767085497
 30
0.0
 10
108.5814674715279
 20
-89.82770767085497
 30
0.0
 10
108.5814674715279
 20
-89.82770767085497
 30
0.0
 10
109.406970216632
 20
-89.82770767085497
 30
0.0
 10
109.406970216632
 20
-89.82770767085497
 30
0.0
 10
109.9022686339175
 20
-89.20540230958071
 30
0.0
 10
110.3594677940612
 20
-89.10804068139054
 30
0.0
 10
111.375466824874
 20
-89.03183409266446
 30
0.0
 10
112.2390688271199
 20
-88.96622117255553
 30
0.0
 10
113.0899697312447
 20
-88.83498725789515
 30
0.0
 10
113.7503703124395
 20
-88.62755482895124
 30
0.0
 10
114.3599705383715
 20
-88.43070799418192
 30
0.0
 10
114.6520675346058
 20
-88.50690650846544
 30
0.0
 10
115.033068180466
 20
-88.79159520366609
 30
0.0
 10
115.3124681158006
 20
-88.99902763261001
 30
0.0
 10
115.4013677282051
 20
-89.10804068139054
 30
0.0
 10
115.7823683740653
 20
-89.41283473852463
 30
0.0
 10
116.0109679541371
 20
-89.60968964773647
 30
0.0
 10
116.2014682770672
 20
-89.82770767085497
 30
0.0
 10
116.430067857139
 20
-89.82770767085497
 30
0.0
 10
116.6205681800691
 20
-89.82770767085497
 30
0.0
 10
116.861868858262
 20
-89.46787013890149
 30
0.0
 10
117.1412687935966
 20
-89.46787013890149
 30
0.0
 10
117.1412687935966
 20
-89.46787013890149
 30
0.0
 10
117.6111690518613
 20
-89.46787013890149
 30
0.0
 10
117.6111690518613
 20
-89.46787013890149
 30
0.0
 10
117.8524697300541
 20
-89.46787013890149
 30
0.0
 10
117.9667675014794
 20
-89.82770767085497
 30
0.0
 10
118.2334703759143
 20
-89.82770767085497
 30
0.0
 10
118.5128703112489
 20
-89.82770767085497
 30
0.0
 10
118.6652673398159
 20
-89.7620866763035
 30
0.0
 10
118.6652673398159
 20
-89.44564927302161
 30
0.0
 10
118.6652673398159
 20
-89.44564927302161
 30
0.0
 10
118.6652673398159
 20
-84.58049081171351
 30
0.0
 10
118.6652673398159
 20
-84.58049081171351
 30
0.0
 10
118.6398691807952
 20
-84.14445476547648
 30
0.0
 10
118.5001692131279
 20
-84.05767065701835
 30
0.0
 10
117.9540704405797
 20
-84.07883377092501
 30
0.0
  0
LINE
  5
E0
330
DB
100
AcDbEntity
  8
Capa 1
 62
    18
420
        0
370
     9
100
AcDbLine
 10
64.66751729603531
 20
-89.8278045641655
 30
0.0
 11
122.2673044190444
 21
-89.8278045641655
 31
0.0
  0
LWPOLYLINE
  5
E1
330
DB
100
AcDbEntity
  8
Capa 1
100
AcDbPolyline
 90
        4
 70
     1
 43
0.0
 10
64.27857978856275
 20
-167.9865674128713
 10
155.7037647785238
 20
-167.9865674128713
 10
155.7037647785238
 20
-69.41763242469611
 10
64.27857978856275
 20
-69.41763242469611
  0
ENDBLK
  5
DE
330
DB
100
AcDbEntity
  8
0
100
AcDbBlockEnd
  0
BLOCK
  5
F0
330
EE
100
AcDbEntity
  8
0
100
AcDbBlockBegin
  2
Block_2
 70
     0
 10
0.0
 20
0.0
 30
0.0
  3
Block_2
  1

  0
LINE
  5
F2
330
EE
100
AcDbEntity
  8
Capa 1
 62
    18
420
        0
370
     9
100
AcDbLine
 10
64.27857978856275
 20
-99.43175646097513
 30
0.0
 11
121.8783706333852
 21
-99.43175646097513
 31
0.0
  0
SPLINE
  5
F3
330
EE
100
AcDbEntity
  8
Capa 1
 62
    18
420
        0
370
     9
100
AcDbSpline
210
0.0
220
0.0
230
1.0
 70
     9
 71
     3
 72
    29
 73
    25
 74
     0
 42
0.0000000001
 43
0.0000000001
 40
0.0
 40
0.0
 40
0.0
 40
0.0
 40
1.0
 40
1.0
 40
1.0
 40
2.0
 40
2.0
 40
2.0
 40
3.0
 40
3.0
 40
3.0
 40
4.0
 40
4.0
 40
4.0
 40
5.0
 40
5.0
 40
5.0
 40
6.0
 40
6.0
 40
6.0
 40
7.0
 40
7.0
 40
7.0
 40
8.0
 40
8.0
 40
8.0
 40
8.0
 10
118.2764385219098
 20
-149.4039282637185
 30
0.0
 10
118.2764385219098
 20
-149.6240617907834
 30
0.0
 10
118.0986352598794
 20
-149.799745511646
 30
0.0
 10
117.8774439808413
 20
-149.799745511646
 30
0.0
 10
117.8774439808413
 20
-149.799745511646
 30
0.0
 10
68.27865458741829
 20
-149.799745511646
 30
0.0
 10
68.27865458741829
 20
-149.799745511646
 30
0.0
 10
68.05957881232657
 20
-149.799745511646
 30
0.0
 10
67.8807218355443
 20
-149.6240617907834
 30
0.0
 10
67.8807218355443
 20
-149.4039282637185
 30
0.0
 10
67.8807218355443
 20
-149.4039282637185
 30
0.0
 10
67.8807218355443
 20
-99.83689161559796
 30
0.0
 10
67.8807218355443
 20
-99.83689161559796
 30
0.0
 10
67.8807218355443
 20
-99.61675808853305
 30
0.0
 10
68.05957881232657
 20
-99.43895886372398
 30
0.0
 10
68.27865458741829
 20
-99.43895886372398
 30
0.0
 10
68.27865458741829
 20
-99.43895886372398
 30
0.0
 10
117.8774439808413
 20
-99.43895886372398
 30
0.0
 10
117.8774439808413
 20
-99.43895886372398
 30
0.0
 10
118.0986352598794
 20
-99.43895886372398
 30
0.0
 10
118.2764385219098
 20
-99.61675808853305
 30
0.0
 10
118.2764385219098
 20
-99.83689161559796
 30
0.0
 10
118.2764385219098
 20
-99.83689161559796
 30
0.0
 10
118.2764385219098
 20
-149.4039282637185
 30
0.0
 10
118.2764385219098
 20
-149.4039282637185
 30
0.0
  0
SPLINE
  5
F4
330
EE
100
AcDbEntity
  8
Capa 1
 62
    18
420
        0
370
     9
100
AcDbSpline
210
0.0
220
0.0
230
1.0
 70
     9
 71
     3
 72
    17
 73
    13
 74
     0
 42
0.0000000001
 43
0.0000000001
 40
0.0
 40
0.0
 40
0.0
 40
0.0
 40
1.0
 40
1.0
 40
1.0
 40
2.0
 40
2.0
 40
2.0
 40
3.0
 40
3.0
 40
3.0
 40
4.0
 40
4.0
 40
4.0
 40
4.0
 10
109.4881466247437
 20
-137.5821328984793
 30
0.0
 10
109.4881466247437
 20
-139.482901082666
 30
0.0
 10
107.9429768901751
 20
-141.0259512760669
 30
0.0
 10
106.0358621941492
 20
-141.0259512760669
 30
0.0
 10
104.1298012128752
 20
-141.0259512760669
 30
0.0
 10
102.584635515528
 20
-139.482901082666
 30
0.0
 10
102.584635515528
 20
-137.5821328984793
 30
0.0
 10
102.584635515528
 20
-135.678191458373
 30
0.0
 10
104.1298012128752
 20
-134.1362010355561
 30
0.0
 10
106.0358621941492
 20
-134.1362010355561
 30
0.0
 10
107.9429768901751
 20
-134.1362010355561
 30
0.0
 10
109.4881466247437
 20
-135.678191458373
 30
0.0
 10
109.4881466247437
 20
-137.5821328984793
 30
0.0
  0
SPLINE
  5
F5
330
EE
100
AcDbEntity
  8
Capa 1
 62
    18
420
        0
370
     9
100
AcDbSpline
210
0.0
220
0.0
230
1.0
 70
     9
 71
     3
 72
    17
 73
    13
 74
     0
 42
0.0000000001
 43
0.0000000001
 40
0.0
 40
0.0
 40
0.0
 40
0.0
 40
1.0
 40
1.0
 40
1.0
 40
2.0
 40
2.0
 40
2.0
 40
3.0
 40
3.0
 40
3.0
 40
4.0
 40
4.0
 40
4.0
 40
4.0
 10
108.2491557142054
 20
-137.5821328984793
 30
0.0
 10
108.2491557142054
 20
-138.8002755983701
 30
0.0
 10
107.2585548424133
 20
-139.7898166995784
 30
0.0
 10
106.0372388866029
 20
-139.7898166995784
 30
0.0
 10
104.8138033896248
 20
-139.7898166995784
 30
0.0
 10
103.8242602698059
 20
-138.8002755983701
 30
0.0
 10
103.8242602698059
 20
-137.5821328984793
 30
0.0
 10
103.8242602698059
 20
-136.362934465226
 30
0.0
 10
104.8138033896248
 20
-135.373391345407
 30
0.0
 10
106.0372388866029
 20
-135.373391345407
 30
0.0
 10
107.2585548424133
 20
-135.373391345407
 30
0.0
 10
108.2491557142054
 20
-136.362934465226
 30
0.0
 10
108.2491557142054
 20
-137.5821328984793
 30
0.0
  0
LWPOLYLINE
  5
F6
330
EE
100
AcDbEntity
  8
Capa 1
100
AcDbPolyline
 90
        4
 70
     1
 43
0.0
 10
64.27857978856275
 20
-167.9865674128713
 10
155.7037647785238
 20
-167.9865674128713
 10
155.7037647785238
 20
-69.41763242469611
 10
64.27857978856275
 20
-69.41763242469611
  0
ENDBLK
  5
F1
330
EE
100
AcDbEntity
  8
0
100
AcDbBlockEnd
  0
BLOCK
  5
FD
330
FB
100
AcDbEntity
  8
0
100
AcDbBlockBegin
  2
Block_3
 70
     0
 10
0.0
 20
0.0
 30
0.0
  3
Block_3
  1

  0
SPLINE
  5
FF
330
FB
100
AcDbEntity
  8
Capa 1
 62
    18
420
        0
370
     9
100
AcDbSpline
210
0.0
220
0.0
230
1.0
 70
     9
 71
     3
 72
    29
 73
    25
 74
     0
 42
0.0000000001
 43
0.0000000001
 40
0.0
 40
0.0
 40
0.0
 40
0.0
 40
1.0
 40
1.0
 40
1.0
 40
2.0
 40
2.0
 40
2.0
 40
3.0
 40
3.0
 40
3.0
 40
4.0
 40
4.0
 40
4.0
 40
5.0
 40
5.0
 40
5.0
 40
6.0
 40
6.0
 40
6.0
 40
7.0
 40
7.0
 40
7.0
 40
8.0
 40
8.0
 40
8.0
 40
8.0
 10
118.2764385219098
 20
-149.4039282637185
 30
0.0
 10
118.2764385219098
 20
-149.6240617907834
 30
0.0
 10
118.0986352598794
 20
-149.799745511646
 30
0.0
 10
117.8774439808413
 20
-149.799745511646
 30
0.0
 10
117.8774439808413
 20
-149.799745511646
 30
0.0
 10
68.27865458741829
 20
-149.799745511646
 30
0.0
 10
68.27865458741829
 20
-149.799745511646
 30
0.0
 10
68.05957881232657
 20
-149.799745511646
 30
0.0
 10
67.8807218355443
 20
-149.6240617907834
 30
0.0
 10
67.8807218355443
 20
-149.4039282637185
 30
0.0
 10
67.8807218355443
 20
-149.4039282637185
 30
0.0
 10
67.8807218355443
 20
-99.83689161559796
 30
0.0
 10
67.8807218355443
 20
-99.83689161559796
 30
0.0
 10
67.8807218355443
 20
-99.61675808853305
 30
0.0
 10
68.05957881232657
 20
-99.43895886372398
 30
0.0
 10
68.27865458741829
 20
-99.43895886372398
 30
0.0
 10
68.27865458741829
 20
-99.43895886372398
 30
0.0
 10
117.8774439808413
 20
-99.43895886372398
 30
0.0
 10
117.8774439808413
 20
-99.43895886372398
 30
0.0
 10
118.0986352598794
 20
-99.43895886372398
 30
0.0
 10
118.2764385219098
 20
-99.61675808853305
 30
0.0
 10
118.2764385219098
 20
-99.83689161559796
 30
0.0
 10
118.2764385219098
 20
-99.83689161559796
 30
0.0
 10
118.2764385219098
 20
-149.4039282637185
 30
0.0
 10
118.2764385219098
 20
-149.4039282637185
 30
0.0
  0
SPLINE
  5
100
330
FB
100
AcDbEntity
  8
Capa 1
 62
    18
420
        0
370
     9
100
AcDbSpline
210
0.0
220
0.0
230
1.0
 70
     9
 71
     3
 72
    47
 73
    43
 74
     0
 42
0.0000000001
 43
0.0000000001
 40
0.0
 40
0.0
 40
0.0
 40
0.0
 40
1.0
 40
1.0
 40
1.0
 40
2.0
 40
2.0
 40
2.0
 40
3.0
 40
3.0
 40
3.0
 40
4.0
 40
4.0
 40
4.0
 40
5.0
 40
5.0
 40
5.0
 40
6.0
 40
6.0
 40
6.0
 40
7.0
 40
7.0
 40
7.0
 40
8.0
 40
8.0
 40
8.0
 40
9.0
 40
9.0
 40
9.0
 40
10.0
 40
10.0
 40
10.0
 40
11.0
 40
11.0
 40
11.0
 40
12.0
 40
12.0
 40
12.0
 40
13.0
 40
13.0
 40
13.0
 40
14.0
 40
14.0
 40
14.0
 40
14.0
 10
80.65078477962504
 20
-135.8419149112181
 30
0.0
 10
80.61691753968142
 20
-135.8821316909169
 30
0.0
 10
80.57670075998261
 20
-135.8948327890379
 30
0.0
 10
80.47933408526585
 20
-135.8980080635681
 30
0.0
 10
80.23697565509978
 20
-135.9011833380984
 30
0.0
 10
80.05917643029071
 20
-135.9117669136624
 30
0.0
 10
79.79141782249328
 20
-135.9011833380984
 30
0.0
 10
79.68346757221254
 20
-135.8980080635681
 30
0.0
 10
79.63901776601028
 20
-135.8789584349973
 30
0.0
 10
79.46333404514763
 20
-135.7413739712763
 30
0.0
 10
79.40618415012967
 20
-135.6958664131009
 30
0.0
 10
79.35432604289369
 20
-135.6556496334021
 30
0.0
 10
79.33633416629603
 20
-135.6429485352811
 30
0.0
 10
79.16065145473869
 20
-135.5043083381976
 30
0.0
 10
79.09397573612996
 20
-135.4376316102836
 30
0.0
 10
79.06751780652538
 20
-135.3339153958116
 30
0.0
 10
78.99343479618827
 20
-135.0788578861352
 30
0.0
 10
78.95956755624464
 20
-134.9010566427155
 30
0.0
 10
78.90876720098187
 20
-134.6618734870797
 30
0.0
 10
78.884425784629
 20
-134.5676830961985
 30
0.0
 10
78.88760105915927
 20
-134.5274663164997
 30
0.0
 10
78.92146728979756
 20
-134.4851320142438
 30
0.0
 10
78.95427576846266
 20
-134.4427997305986
 30
0.0
 10
78.99343479618827
 20
-134.4322161550346
 30
0.0
 10
79.08974270962651
 20
-134.4311584030614
 30
0.0
 10
79.33527641432282
 20
-134.4248078540009
 30
0.0
 10
79.5141344004104
 20
-134.4152820304102
 30
0.0
 10
79.78189300820784
 20
-134.4248078540009
 30
0.0
 10
79.88984224918326
 20
-134.4279831285312
 30
0.0
 10
79.97027580858087
 20
-134.4756082092637
 30
0.0
 10
80.14807604269526
 20
-134.6142484063472
 30
0.0
 10
80.16183388348414
 20
-134.6269495044682
 30
0.0
 10
80.21369300002545
 20
-134.667166284167
 30
0.0
 10
80.27084289504342
 20
-134.7126738423424
 30
0.0
 10
80.44758436787928
 20
-134.8513160580366
 30
0.0
 10
80.47721757201411
 20
-134.8883575632051
 30
0.0
 10
80.50685077614897
 20
-134.9920737776771
 30
0.0
 10
80.57881727323433
 20
-135.2492488099105
 30
0.0
 10
80.61162575189944
 20
-135.4249325307732
 30
0.0
 10
80.66560138169247
 20
-135.6630579344358
 30
0.0
 10
80.68676752351507
 20
-135.759365847874
 30
0.0
 10
80.68359224898483
 20
-135.7985248755996
 30
0.0
 10
80.65078477962504
 20
-135.8419149112181
 30
0.0
  0
SPLINE
  5
101
330
FB
100
AcDbEntity
  8
Capa 1
 62
    18
420
        0
370
     9
100
AcDbSpline
210
0.0
220
0.0
230
1.0
 70
     9
 71
     3
 72
    47
 73
    43
 74
     0
 42
0.0000000001
 43
0.0000000001
 40
0.0
 40
0.0
 40
0.0
 40
0.0
 40
1.0
 40
1.0
 40
1.0
 40
2.0
 40
2.0
 40
2.0
 40
3.0
 40
3.0
 40
3.0
 40
4.0
 40
4.0
 40
4.0
 40
5.0
 40
5.0
 40
5.0
 40
6.0
 40
6.0
 40
6.0
 40
7.0
 40
7.0
 40
7.0
 40
8.0
 40
8.0
 40
8.0
 40
9.0
 40
9.0
 40
9.0
 40
10.0
 40
10.0
 40
10.0
 40
11.0
 40
11.0
 40
11.0
 40
12.0
 40
12.0
 40
12.0
 40
13.0
 40
13.0
 40
13.0
 40
14.0
 40
14.0
 40
14.0
 40
14.0
 10
80.65078477962504
 20
-131.8298798443449
 30
0.0
 10
80.61691753968142
 20
-131.8743336877684
 30
0.0
 10
80.57670075998261
 20
-131.8849152447218
 30
0.0
 10
80.47933408526585
 20
-131.885972996695
 30
0.0
 10
80.23697565509978
 20
-131.8923235457555
 30
0.0
 10
80.05917643029071
 20
-131.8997318467892
 30
0.0
 10
79.79141782249328
 20
-131.8923235457555
 30
0.0
 10
79.68346757221254
 20
-131.8880885006414
 30
0.0
 10
79.63901776601028
 20
-131.8690408906811
 30
0.0
 10
79.46333404514763
 20
-131.730398674987
 30
0.0
 10
79.40618415012967
 20
-131.6848911168116
 30
0.0
 10
79.35432604289369
 20
-131.6446723185021
 30
0.0
 10
79.33633416629603
 20
-131.6319752576024
 30
0.0
 10
79.16065145473869
 20
-131.4933330419083
 30
0.0
 10
79.09397573612996
 20
-131.4277160845781
 30
0.0
 10
79.06751780652538
 20
-131.3239998701061
 30
0.0
 10
78.99343479618827
 20
-131.0668248378727
 30
0.0
 10
78.95956755624464
 20
-130.89114111701
 30
0.0
 10
78.90876720098187
 20
-130.6508981907903
 30
0.0
 10
78.884425784629
 20
-130.5577635332717
 30
0.0
 10
78.88760105915927
 20
-130.5175487721836
 30
0.0
 10
78.92146728979756
 20
-130.4762722219009
 30
0.0
 10
78.95427576846266
 20
-130.428649159779
 30
0.0
 10
78.99343479618827
 20
-130.4191253547989
 30
0.0
 10
79.08974270962651
 20
-130.4191253547989
 30
0.0
 10
79.33527641432282
 20
-130.4138325577116
 30
0.0
 10
79.5141344004104
 20
-130.403246963537
 30
0.0
 10
79.78189300820784
 20
-130.4138325577116
 30
0.0
 10
79.88984224918326
 20
-130.415948061658
 30
0.0
 10
79.97027580858087
 20
-130.4667484169208
 30
0.0
 10
80.14807604269526
 20
-130.6043328806417
 30
0.0
 10
80.16183388348414
 20
-130.6170299415414
 30
0.0
 10
80.21369300002545
 20
-130.6561909878777
 30
0.0
 10
80.27084289504342
 20
-130.7038140499995
 30
0.0
 10
80.44758436787928
 20
-130.8435140176668
 30
0.0
 10
80.47721757201411
 20
-130.8773822669158
 30
0.0
 10
80.50685077614897
 20
-130.9800407294145
 30
0.0
 10
80.57881727323433
 20
-131.2393312655944
 30
0.0
 10
80.61162575189944
 20
-131.4150149864571
 30
0.0
 10
80.66560138169247
 20
-131.653138371509
 30
0.0
 10
80.68676752351507
 20
-131.7462730290277
 30
0.0
 10
80.68359224898483
 20
-131.7864918273371
 30
0.0
 10
80.65078477962504
 20
-131.8298798443449
 30
0.0
  0
SPLINE
  5
102
330
FB
100
AcDbEntity
  8
Capa 1
 62
    18
420
        0
370
     9
100
AcDbSpline
210
0.0
220
0.0
230
1.0
 70
     9
 71
     3
 72
    47
 73
    43
 74
     0
 42
0.0000000001
 43
0.0000000001
 40
0.0
 40
0.0
 40
0.0
 40
0.0
 40
1.0
 40
1.0
 40
1.0
 40
2.0
 40
2.0
 40
2.0
 40
3.0
 40
3.0
 40
3.0
 40
4.0
 40
4.0
 40
4.0
 40
5.0
 40
5.0
 40
5.0
 40
6.0
 40
6.0
 40
6.0
 40
7.0
 40
7.0
 40
7.0
 40
8.0
 40
8.0
 40
8.0
 40
9.0
 40
9.0
 40
9.0
 40
10.0
 40
10.0
 40
10.0
 40
11.0
 40
11.0
 40
11.0
 40
12.0
 40
12.0
 40
12.0
 40
13.0
 40
13.0
 40
13.0
 40
14.0
 40
14.0
 40
14.0
 40
14.0
 10
80.65078477962504
 20
-127.8193244190678
 30
0.0
 10
80.61691753968142
 20
-127.8627164732969
 30
0.0
 10
80.57670075998261
 20
-127.8743598194447
 30
0.0
 10
80.47933408526585
 20
-127.8754175714179
 30
0.0
 10
80.23697565509978
 20
-127.8817681204784
 30
0.0
 10
80.05917643029071
 20
-127.8891764215121
 30
0.0
 10
79.79141782249328
 20
-127.8817681204784
 30
0.0
 10
79.68346757221254
 20
-127.8775330753643
 30
0.0
 10
79.63901776601028
 20
-127.8574277134309
 30
0.0
 10
79.46333404514763
 20
-127.7187854977368
 30
0.0
 10
79.40618415012967
 20
-127.6743356915345
 30
0.0
 10
79.35432604289369
 20
-127.6341168932251
 30
0.0
 10
79.33633416629603
 20
-127.6203580431308
 30
0.0
 10
79.16065145473869
 20
-127.481719864658
 30
0.0
 10
79.09397573612996
 20
-127.4139833661601
 30
0.0
 10
79.06751780652538
 20
-127.3113249036614
 30
0.0
 10
78.99343479618827
 20
-127.0552116606224
 30
0.0
 10
78.95956755624464
 20
-126.8784661505653
 30
0.0
 10
78.90876720098187
 20
-126.6382272615669
 30
0.0
 10
78.884425784629
 20
-126.5440348520751
 30
0.0
 10
78.88760105915927
 20
-126.5048778429601
 30
0.0
 10
78.92146728979756
 20
-126.4636012926774
 30
0.0
 10
78.95427576846266
 20
-126.4170359825288
 30
0.0
 10
78.99343479618827
 20
-126.4053926363809
 30
0.0
 10
79.08974270962651
 20
-126.4043348844077
 30
0.0
 10
79.33527641432282
 20
-126.3990420873204
 30
0.0
 10
79.5141344004104
 20
-126.3905760343135
 30
0.0
 10
79.78189300820784
 20
-126.3990420873204
 30
0.0
 10
79.88984224918326
 20
-126.4032771324345
 30
0.0
 10
79.97027580858087
 20
-126.4540774876973
 30
0.0
 10
80.14807604269526
 20
-126.5916579141969
 30
0.0
 10
80.16183388348414
 20
-126.6033012603447
 30
0.0
 10
80.21369300002545
 20
-126.6435200586542
 30
0.0
 10
80.27084289504342
 20
-126.6900853688029
 30
0.0
 10
80.44758436787928
 20
-126.8287275844969
 30
0.0
 10
80.47721757201411
 20
-126.8657690896655
 30
0.0
 10
80.50685077614897
 20
-126.9684275521643
 30
0.0
 10
80.57881727323433
 20
-127.2277180883442
 30
0.0
 10
80.61162575189944
 20
-127.4012863052604
 30
0.0
 10
80.66560138169247
 20
-127.642582946232
 30
0.0
 10
80.68676752351507
 20
-127.7357176037506
 30
0.0
 10
80.68359224898483
 20
-127.77593640206
 30
0.0
 10
80.65078477962504
 20
-127.8193244190678
 30
0.0
  0
SPLINE
  5
103
330
FB
100
AcDbEntity
  8
Capa 1
 62
    18
420
        0
370
     9
100
AcDbSpline
210
0.0
220
0.0
230
1.0
 70
     9
 71
     3
 72
    47
 73
    43
 74
     0
 42
0.0000000001
 43
0.0000000001
 40
0.0
 40
0.0
 40
0.0
 40
0.0
 40
1.0
 40
1.0
 40
1.0
 40
2.0
 40
2.0
 40
2.0
 40
3.0
 40
3.0
 40
3.0
 40
4.0
 40
4.0
 40
4.0
 40
5.0
 40
5.0
 40
5.0
 40
6.0
 40
6.0
 40
6.0
 40
7.0
 40
7.0
 40
7.0
 40
8.0
 40
8.0
 40
8.0
 40
9.0
 40
9.0
 40
9.0
 40
10.0
 40
10.0
 40
10.0
 40
11.0
 40
11.0
 40
11.0
 40
12.0
 40
12.0
 40
12.0
 40
13.0
 40
13.0
 40
13.0
 40
14.0
 40
14.0
 40
14.0
 40
14.0
 10
80.65078477962504
 20
-123.8025274497046
 30
0.0
 10
80.61691753968142
 20
-123.8459195039337
 30
0.0
 10
80.57670075998261
 20
-123.8575628500815
 30
0.0
 10
80.47933408526585
 20
-123.8575628500815
 30
0.0
 10
80.23697565509978
 20
-123.863913399142
 30
0.0
 10
80.05917643029071
 20
-123.8723794521489
 30
0.0
 10
79.79141782249328
 20
-123.863913399142
 30
0.0
 10
79.68346757221254
 20
-123.8596783540279
 30
0.0
 10
79.63901776601028
 20
-123.8406307440676
 30
0.0
 10
79.46333404514763
 20
-123.7019885283735
 30
0.0
 10
79.40618415012967
 20
-123.6564809701981
 30
0.0
 10
79.35432604289369
 20
-123.6141466679422
 30
0.0
 10
79.33633416629603
 20
-123.6035610737676
 30
0.0
 10
79.16065145473869
 20
-123.4649228952948
 30
0.0
 10
79.09397573612996
 20
-123.3971863967969
 30
0.0
 10
79.06751780652538
 20
-123.2945279342982
 30
0.0
 10
78.99343479618827
 20
-123.0362951500915
 30
0.0
 10
78.95956755624464
 20
-122.861669181202
 30
0.0
 10
78.90876720098187
 20
-122.6214302922036
 30
0.0
 10
78.884425784629
 20
-122.5272378827118
 30
0.0
 10
78.88760105915927
 20
-122.4880808735969
 30
0.0
 10
78.92146728979756
 20
-122.4446888193678
 30
0.0
 10
78.95427576846266
 20
-122.3991812611923
 30
0.0
 10
78.99343479618827
 20
-122.3885956670177
 30
0.0
 10
79.08974270962651
 20
-122.3875379150445
 30
0.0
 10
79.33527641432282
 20
-122.3822451179572
 30
0.0
 10
79.5141344004104
 20
-122.3737790649503
 30
0.0
 10
79.78189300820784
 20
-122.3822451179572
 30
0.0
 10
79.88984224918326
 20
-122.3854224110981
 30
0.0
 10
79.97027580858087
 20
-122.4362227663609
 30
0.0
 10
80.14807604269526
 20
-122.5727454408873
 30
0.0
 10
80.16183388348414
 20
-122.5854465390083
 30
0.0
 10
80.21369300002545
 20
-122.626723089291
 30
0.0
 10
80.27084289504342
 20
-122.6722306474664
 30
0.0
 10
80.44758436787928
 20
-122.8119306151337
 30
0.0
 10
80.47721757201411
 20
-122.8479143683291
 30
0.0
 10
80.50685077614897
 20
-122.9505728308278
 30
0.0
 10
80.57881727323433
 20
-123.2098633670077
 30
0.0
 10
80.61162575189944
 20
-123.3855470878704
 30
0.0
 10
80.66560138169247
 20
-123.6247282248955
 30
0.0
 10
80.68676752351507
 20
-123.7189206343874
 30
0.0
 10
80.68359224898483
 20
-123.7580776435023
 30
0.0
 10
80.65078477962504
 20
-123.8025274497046
 30
0.0
  0
SPLINE
  5
104
330
FB
100
AcDbEntity
  8
Capa 1
 62
    18
420
        0
370
     9
100
AcDbSpline
210
0.0
220
0.0
230
1.0
 70
     9
 71
     3
 72
    47
 73
    43
 74
     0
 42
0.0000000001
 43
0.0000000001
 40
0.0
 40
0.0
 40
0.0
 40
0.0
 40
1.0
 40
1.0
 40
1.0
 40
2.0
 40
2.0
 40
2.0
 40
3.0
 40
3.0
 40
3.0
 40
4.0
 40
4.0
 40
4.0
 40
5.0
 40
5.0
 40
5.0
 40
6.0
 40
6.0
 40
6.0
 40
7.0
 40
7.0
 40
7.0
 40
8.0
 40
8.0
 40
8.0
 40
9.0
 40
9.0
 40
9.0
 40
10.0
 40
10.0
 40
10.0
 40
11.0
 40
11.0
 40
11.0
 40
12.0
 40
12.0
 40
12.0
 40
13.0
 40
13.0
 40
13.0
 40
14.0
 40
14.0
 40
14.0
 40
14.0
 10
80.65078477962504
 20
-115.7655422451098
 30
0.0
 10
80.61691753968142
 20
-115.8099960885334
 30
0.0
 10
80.57670075998261
 20
-115.8205776454867
 30
0.0
 10
80.47933408526585
 20
-115.8216353974599
 30
0.0
 10
80.23697565509978
 20
-115.8279859465204
 30
0.0
 10
80.05917643029071
 20
-115.8353942475541
 30
0.0
 10
79.79141782249328
 20
-115.8279859465204
 30
0.0
 10
79.68346757221254
 20
-115.8237509014063
 30
0.0
 10
79.63901776601028
 20
-115.8047032914461
 30
0.0
 10
79.46333404514763
 20
-115.6671188277252
 30
0.0
 10
79.40618415012967
 20
-115.6205535175765
 30
0.0
 10
79.35432604289369
 20
-115.5803347192671
 30
0.0
 10
79.33633416629603
 20
-115.5676376583673
 30
0.0
 10
79.16065145473869
 20
-115.4279376907
 30
0.0
 10
79.09397573612996
 20
-115.3623207333698
 30
0.0
 10
79.06751780652538
 20
-115.2586045188979
 30
0.0
 10
78.99343479618827
 20
-115.0014294866644
 30
0.0
 10
78.95956755624464
 20
-114.8257457658017
 30
0.0
 10
78.90876720098187
 20
-114.5844450876089
 30
0.0
 10
78.884425784629
 20
-114.490252678117
 30
0.0
 10
78.88760105915927
 20
-114.4510956690021
 30
0.0
 10
78.92146728979756
 20
-114.4098191187195
 30
0.0
 10
78.95427576846266
 20
-114.3621960565976
 30
0.0
 10
78.99343479618827
 20
-114.3526682143962
 30
0.0
 10
79.08974270962651
 20
-114.3526682143962
 30
0.0
 10
79.33527641432282
 20
-114.3473794545301
 30
0.0
 10
79.5141344004104
 20
-114.3367938603555
 30
0.0
 10
79.78189300820784
 20
-114.3473794545301
 30
0.0
 10
79.88984224918326
 20
-114.3494949584765
 30
0.0
 10
79.97027580858087
 20
-114.4002953137393
 30
0.0
 10
80.14807604269526
 20
-114.5378757402389
 30
0.0
 10
80.16183388348414
 20
-114.55057683836
 30
0.0
 10
80.21369300002545
 20
-114.5897378846962
 30
0.0
 10
80.27084289504342
 20
-114.6363031948449
 30
0.0
 10
80.44758436787928
 20
-114.7760031625122
 30
0.0
 10
80.47721757201411
 20
-114.8119869157075
 30
0.0
 10
80.50685077614897
 20
-114.9146453782063
 30
0.0
 10
80.57881727323433
 20
-115.1739359143862
 30
0.0
 10
80.61162575189944
 20
-115.3496196352488
 30
0.0
 10
80.66560138169247
 20
-115.588800772274
 30
0.0
 10
80.68676752351507
 20
-115.6819354297926
 30
0.0
 10
80.68359224898483
 20
-115.7221542281021
 30
0.0
 10
80.65078477962504
 20
-115.7655422451098
 30
0.0
  0
SPLINE
  5
105
330
FB
100
AcDbEntity
  8
Capa 1
 62
    18
420
        0
370
     9
100
AcDbSpline
210
0.0
220
0.0
230
1.0
 70
     9
 71
     3
 72
    47
 73
    43
 74
     0
 42
0.0000000001
 43
0.0000000001
 40
0.0
 40
0.0
 40
0.0
 40
0.0
 40
1.0
 40
1.0
 40
1.0
 40
2.0
 40
2.0
 40
2.0
 40
3.0
 40
3.0
 40
3.0
 40
4.0
 40
4.0
 40
4.0
 40
5.0
 40
5.0
 40
5.0
 40
6.0
 40
6.0
 40
6.0
 40
7.0
 40
7.0
 40
7.0
 40
8.0
 40
8.0
 40
8.0
 40
9.0
 40
9.0
 40
9.0
 40
10.0
 40
10.0
 40
10.0
 40
11.0
 40
11.0
 40
11.0
 40
12.0
 40
12.0
 40
12.0
 40
13.0
 40
13.0
 40
13.0
 40
14.0
 40
14.0
 40
14.0
 40
14.0
 10
80.65078477962504
 20
-111.7485313030192
 30
0.0
 10
80.61691753968142
 20
-111.7919233572483
 30
0.0
 10
80.57670075998261
 20
-111.8035667033961
 30
0.0
 10
80.47933408526585
 20
-111.8046244553693
 30
0.0
 10
80.23697565509978
 20
-111.8109750044298
 30
0.0
 10
80.05917643029071
 20
-111.8183833054635
 30
0.0
 10
79.79141782249328
 20
-111.8109750044298
 30
0.0
 10
79.68346757221254
 20
-111.8067399593157
 30
0.0
 10
79.63901776601028
 20
-111.7866345973822
 30
0.0
 10
79.46333404514763
 20
-111.6479923816881
 30
0.0
 10
79.40618415012967
 20
-111.6035425754859
 30
0.0
 10
79.35432604289369
 20
-111.5633237771764
 30
0.0
 10
79.33633416629603
 20
-111.5495649270822
 30
0.0
 10
79.16065145473869
 20
-111.4109267486094
 30
0.0
 10
79.09397573612996
 20
-111.3453097912792
 30
0.0
 10
79.06751780652538
 20
-111.2415935768072
 30
0.0
 10
78.99343479618827
 20
-110.9833567553793
 30
0.0
 10
78.95956755624464
 20
-110.8087348237111
 30
0.0
 10
78.90876720098187
 20
-110.5674341455183
 30
0.0
 10
78.884425784629
 20
-110.4732417360264
 30
0.0
 10
78.88760105915927
 20
-110.4340847269114
 30
0.0
 10
78.92146728979756
 20
-110.3928081766288
 30
0.0
 10
78.95427576846266
 20
-110.3462428664801
 30
0.0
 10
78.99343479618827
 20
-110.3345995203323
 30
0.0
 10
79.08974270962651
 20
-110.3335417683591
 30
0.0
 10
79.33527641432282
 20
-110.3282489712718
 30
0.0
 10
79.5141344004104
 20
-110.3197829182649
 30
0.0
 10
79.78189300820784
 20
-110.3282489712718
 30
0.0
 10
79.88984224918326
 20
-110.3324840163859
 30
0.0
 10
79.97027580858087
 20
-110.3832843716487
 30
0.0
 10
80.14807604269526
 20
-110.5208647981483
 30
0.0
 10
80.16183388348414
 20
-110.5325081442961
 30
0.0
 10
80.21369300002545
 20
-110.5727269426056
 30
0.0
 10
80.27084289504342
 20
-110.6192922527542
 30
0.0
 10
80.44758436787928
 20
-110.7589922204215
 30
0.0
 10
80.47721757201411
 20
-110.7949759736169
 30
0.0
 10
80.50685077614897
 20
-110.8976344361156
 30
0.0
 10
80.57881727323433
 20
-111.1569249722955
 30
0.0
 10
80.61162575189944
 20
-111.3326086931582
 30
0.0
 10
80.66560138169247
 20
-111.5717898301833
 30
0.0
 10
80.68676752351507
 20
-111.664924487702
 30
0.0
 10
80.68359224898483
 20
-111.7051432860114
 30
0.0
 10
80.65078477962504
 20
-111.7485313030192
 30
0.0
  0
SPLINE
  5
106
330
FB
100
AcDbEntity
  8
Capa 1
 62
    18
420
        0
370
     9
100
AcDbSpline
210
0.0
220
0.0
230
1.0
 70
     9
 71
     3
 72
    47
 73
    43
 74
     0
 42
0.0000000001
 43
0.0000000001
 40
0.0
 40
0.0
 40
0.0
 40
0.0
 40
1.0
 40
1.0
 40
1.0
 40
2.0
 40
2.0
 40
2.0
 40
3.0
 40
3.0
 40
3.0
 40
4.0
 40
4.0
 40
4.0
 40
5.0
 40
5.0
 40
5.0
 40
6.0
 40
6.0
 40
6.0
 40
7.0
 40
7.0
 40
7.0
 40
8.0
 40
8.0
 40
8.0
 40
9.0
 40
9.0
 40
9.0
 40
10.0
 40
10.0
 40
10.0
 40
11.0
 40
11.0
 40
11.0
 40
12.0
 40
12.0
 40
12.0
 40
13.0
 40
13.0
 40
13.0
 40
14.0
 40
14.0
 40
14.0
 40
14.0
 10
84.62514348828467
 20
-135.8419149112181
 30
0.0
 10
84.59127523903573
 20
-135.8821316909169
 30
0.0
 10
84.55105845933692
 20
-135.8948327890379
 30
0.0
 10
84.45369279392547
 20
-135.8980080635681
 30
0.0
 10
84.21133436375942
 20
-135.9011833380984
 30
0.0
 10
84.0324753683665
 20
-135.9117669136624
 30
0.0
 10
83.76365900859587
 20
-135.9011833380984
 30
0.0
 10
83.65782527156687
 20
-135.8980080635681
 30
0.0
 10
83.61337546536459
 20
-135.8789584349973
 30
0.0
 10
83.43663399252873
 20
-135.7413739712763
 30
0.0
 10
83.3805428587893
 20
-135.6958664131009
 30
0.0
 10
83.32868475155333
 20
-135.6556496334021
 30
0.0
 10
83.31069287495564
 20
-135.6429485352811
 30
0.0
 10
83.13500915409299
 20
-135.5043083381976
 30
0.0
 10
83.06833444478959
 20
-135.4376316102836
 30
0.0
 10
83.03975899262795
 20
-135.3339153958116
 30
0.0
 10
82.96779350484788
 20
-135.0788578861352
 30
0.0
 10
82.93392525559895
 20
-134.9010566427155
 30
0.0
 10
82.88100939638978
 20
-134.6618734870797
 30
0.0
 10
82.85878449328864
 20
-134.5676830961985
 30
0.0
 10
82.86089999723506
 20
-134.5274663164997
 30
0.0
 10
82.8958259984572
 20
-134.4851320142438
 30
0.0
 10
82.92863447712228
 20
-134.4427997305986
 30
0.0
 10
82.96779350484788
 20
-134.4322161550346
 30
0.0
 10
83.06410141828614
 20
-134.4311584030614
 30
0.0
 10
83.30963512298245
 20
-134.4248078540009
 30
0.0
 10
83.48849209976471
 20
-134.4152820304102
 30
0.0
 10
83.75625070756216
 20
-134.4248078540009
 30
0.0
 10
83.86314219656437
 20
-134.4279831285312
 30
0.0
 10
83.94463350793518
 20
-134.4756082092637
 30
0.0
 10
84.12243475135488
 20
-134.6142484063472
 30
0.0
 10
84.13619158283847
 20
-134.6269495044682
 30
0.0
 10
84.18805170868507
 20
-134.667166284167
 30
0.0
 10
84.24520059439771
 20
-134.7126738423424
 30
0.0
 10
84.42194206723359
 20
-134.8513160580366
 30
0.0
 10
84.45157527136842
 20
-134.8883575632051
 30
0.0
 10
84.48120847550326
 20
-134.9920737776771
 30
0.0
 10
84.55317598189397
 20
-135.2492488099105
 30
0.0
 10
84.58598446055907
 20
-135.4249325307732
 30
0.0
 10
84.63996009035209
 20
-135.6630579344358
 30
0.0
 10
84.66112522286939
 20
-135.759365847874
 30
0.0
 10
84.65794994833913
 20
-135.7985248755996
 30
0.0
 10
84.62514348828467
 20
-135.8419149112181
 30
0.0
  0
SPLINE
  5
107
330
FB
100
AcDbEntity
  8
Capa 1
 62
    18
420
        0
370
     9
100
AcDbSpline
210
0.0
220
0.0
230
1.0
 70
     9
 71
     3
 72
    47
 73
    43
 74
     0
 42
0.0000000001
 43
0.0000000001
 40
0.0
 40
0.0
 40
0.0
 40
0.0
 40
1.0
 40
1.0
 40
1.0
 40
2.0
 40
2.0
 40
2.0
 40
3.0
 40
3.0
 40
3.0
 40
4.0
 40
4.0
 40
4.0
 40
5.0
 40
5.0
 40
5.0
 40
6.0
 40
6.0
 40
6.0
 40
7.0
 40
7.0
 40
7.0
 40
8.0
 40
8.0
 40
8.0
 40
9.0
 40
9.0
 40
9.0
 40
10.0
 40
10.0
 40
10.0
 40
11.0
 40
11.0
 40
11.0
 40
12.0
 40
12.0
 40
12.0
 40
13.0
 40
13.0
 40
13.0
 40
14.0
 40
14.0
 40
14.0
 40
14.0
 10
84.62514348828467
 20
-131.8298798443449
 30
0.0
 10
84.59127523903573
 20
-131.8743336877684
 30
0.0
 10
84.55105845933692
 20
-131.8849152447218
 30
0.0
 10
84.45369279392547
 20
-131.885972996695
 30
0.0
 10
84.21133436375942
 20
-131.8923235457555
 30
0.0
 10
84.0324753683665
 20
-131.8997318467892
 30
0.0
 10
83.76365900859587
 20
-131.8923235457555
 30
0.0
 10
83.65782527156687
 20
-131.8880885006414
 30
0.0
 10
83.61337546536459
 20
-131.8690408906811
 30
0.0
 10
83.43663399252873
 20
-131.730398674987
 30
0.0
 10
83.3805428587893
 20
-131.6848911168116
 30
0.0
 10
83.32868475155333
 20
-131.6446723185021
 30
0.0
 10
83.31069287495564
 20
-131.6319752576024
 30
0.0
 10
83.13500915409299
 20
-131.4933330419083
 30
0.0
 10
83.06833444478959
 20
-131.4277160845781
 30
0.0
 10
83.03975899262795
 20
-131.3239998701061
 30
0.0
 10
82.96779350484788
 20
-131.0668248378727
 30
0.0
 10
82.93392525559895
 20
-130.89114111701
 30
0.0
 10
82.88100939638978
 20
-130.6508981907903
 30
0.0
 10
82.85878449328864
 20
-130.5577635332717
 30
0.0
 10
82.86089999723506
 20
-130.5175487721836
 30
0.0
 10
82.8958259984572
 20
-130.4762722219009
 30
0.0
 10
82.92863447712228
 20
-130.428649159779
 30
0.0
 10
82.96779350484788
 20
-130.4191253547989
 30
0.0
 10
83.06410141828614
 20
-130.4191253547989
 30
0.0
 10
83.30963512298245
 20
-130.4138325577116
 30
0.0
 10
83.48849209976471
 20
-130.403246963537
 30
0.0
 10
83.75625070756216
 20
-130.4138325577116
 30
0.0
 10
83.86314219656437
 20
-130.415948061658
 30
0.0
 10
83.94463350793518
 20
-130.4667484169208
 30
0.0
 10
84.12243475135488
 20
-130.6043328806417
 30
0.0
 10
84.13619158283847
 20
-130.6170299415414
 30
0.0
 10
84.18805170868507
 20
-130.6561909878777
 30
0.0
 10
84.24520059439771
 20
-130.7038140499995
 30
0.0
 10
84.42194206723359
 20
-130.8435140176668
 30
0.0
 10
84.45157527136842
 20
-130.8773822669158
 30
0.0
 10
84.48120847550326
 20
-130.9800407294145
 30
0.0
 10
84.55317598189397
 20
-131.2393312655944
 30
0.0
 10
84.58598446055907
 20
-131.4150149864571
 30
0.0
 10
84.63996009035209
 20
-131.653138371509
 30
0.0
 10
84.66112522286939
 20
-131.7462730290277
 30
0.0
 10
84.65794994833913
 20
-131.7864918273371
 30
0.0
 10
84.62514348828467
 20
-131.8298798443449
 30
0.0
  0
SPLINE
  5
108
330
FB
100
AcDbEntity
  8
Capa 1
 62
    18
420
        0
370
     9
100
AcDbSpline
210
0.0
220
0.0
230
1.0
 70
     9
 71
     3
 72
    47
 73
    43
 74
     0
 42
0.0000000001
 43
0.0000000001
 40
0.0
 40
0.0
 40
0.0
 40
0.0
 40
1.0
 40
1.0
 40
1.0
 40
2.0
 40
2.0
 40
2.0
 40
3.0
 40
3.0
 40
3.0
 40
4.0
 40
4.0
 40
4.0
 40
5.0
 40
5.0
 40
5.0
 40
6.0
 40
6.0
 40
6.0
 40
7.0
 40
7.0
 40
7.0
 40
8.0
 40
8.0
 40
8.0
 40
9.0
 40
9.0
 40
9.0
 40
10.0
 40
10.0
 40
10.0
 40
11.0
 40
11.0
 40
11.0
 40
12.0
 40
12.0
 40
12.0
 40
13.0
 40
13.0
 40
13.0
 40
14.0
 40
14.0
 40
14.0
 40
14.0
 10
84.62514348828467
 20
-127.8193244190678
 30
0.0
 10
84.59127523903573
 20
-127.8627164732969
 30
0.0
 10
84.55105845933692
 20
-127.8743598194447
 30
0.0
 10
84.45369279392547
 20
-127.8754175714179
 30
0.0
 10
84.21133436375942
 20
-127.8817681204784
 30
0.0
 10
84.0324753683665
 20
-127.8891764215121
 30
0.0
 10
83.76365900859587
 20
-127.8817681204784
 30
0.0
 10
83.65782527156687
 20
-127.8775330753643
 30
0.0
 10
83.61337546536459
 20
-127.8574277134309
 30
0.0
 10
83.43663399252873
 20
-127.7187854977368
 30
0.0
 10
83.3805428587893
 20
-127.6743356915345
 30
0.0
 10
83.32868475155333
 20
-127.6341168932251
 30
0.0
 10
83.31069287495564
 20
-127.6203580431308
 30
0.0
 10
83.13500915409299
 20
-127.481719864658
 30
0.0
 10
83.06833444478959
 20
-127.4139833661601
 30
0.0
 10
83.03975899262795
 20
-127.3113249036614
 30
0.0
 10
82.96779350484788
 20
-127.0552116606224
 30
0.0
 10
82.93392525559895
 20
-126.8784661505653
 30
0.0
 10
82.88100939638978
 20
-126.6382272615669
 30
0.0
 10
82.85878449328864
 20
-126.5440348520751
 30
0.0
 10
82.86089999723506
 20
-126.5048778429601
 30
0.0
 10
82.8958259984572
 20
-126.4636012926774
 30
0.0
 10
82.92863447712228
 20
-126.4170359825288
 30
0.0
 10
82.96779350484788
 20
-126.4053926363809
 30
0.0
 10
83.06410141828614
 20
-126.4043348844077
 30
0.0
 10
83.30963512298245
 20
-126.3990420873204
 30
0.0
 10
83.48849209976471
 20
-126.3905760343135
 30
0.0
 10
83.75625070756216
 20
-126.3990420873204
 30
0.0
 10
83.86314219656437
 20
-126.4032771324345
 30
0.0
 10
83.94463350793518
 20
-126.4540774876973
 30
0.0
 10
84.12243475135488
 20
-126.5916579141969
 30
0.0
 10
84.13619158283847
 20
-126.6033012603447
 30
0.0
 10
84.18805170868507
 20
-126.6435200586542
 30
0.0
 10
84.24520059439771
 20
-126.6900853688029
 30
0.0
 10
84.42194206723359
 20
-126.8287275844969
 30
0.0
 10
84.45157527136842
 20
-126.8657690896655
 30
0.0
 10
84.48120847550326
 20
-126.9684275521643
 30
0.0
 10
84.55317598189397
 20
-127.2277180883442
 30
0.0
 10
84.58598446055907
 20
-127.4012863052604
 30
0.0
 10
84.63996009035209
 20
-127.642582946232
 30
0.0
 10
84.66112522286939
 20
-127.7357176037506
 30
0.0
 10
84.65794994833913
 20
-127.77593640206
 30
0.0
 10
84.62514348828467
 20
-127.8193244190678
 30
0.0
  0
SPLINE
  5
109
330
FB
100
AcDbEntity
  8
Capa 1
 62
    18
420
        0
370
     9
100
AcDbSpline
210
0.0
220
0.0
230
1.0
 70
     9
 71
     3
 72
    47
 73
    43
 74
     0
 42
0.0000000001
 43
0.0000000001
 40
0.0
 40
0.0
 40
0.0
 40
0.0
 40
1.0
 40
1.0
 40
1.0
 40
2.0
 40
2.0
 40
2.0
 40
3.0
 40
3.0
 40
3.0
 40
4.0
 40
4.0
 40
4.0
 40
5.0
 40
5.0
 40
5.0
 40
6.0
 40
6.0
 40
6.0
 40
7.0
 40
7.0
 40
7.0
 40
8.0
 40
8.0
 40
8.0
 40
9.0
 40
9.0
 40
9.0
 40
10.0
 40
10.0
 40
10.0
 40
11.0
 40
11.0
 40
11.0
 40
12.0
 40
12.0
 40
12.0
 40
13.0
 40
13.0
 40
13.0
 40
14.0
 40
14.0
 40
14.0
 40
14.0
 10
84.62514348828467
 20
-119.7839298796542
 30
0.0
 10
84.59127523903573
 20
-119.8273219338832
 30
0.0
 10
84.55105845933692
 20
-119.838965280031
 30
0.0
 10
84.45369279392547
 20
-119.8400230320042
 30
0.0
 10
84.21133436375942
 20
-119.8463735810647
 30
0.0
 10
84.0324753683665
 20
-119.8537818820984
 30
0.0
 10
83.76365900859587
 20
-119.8463735810647
 30
0.0
 10
83.65782527156687
 20
-119.8410807839774
 30
0.0
 10
83.61337546536459
 20
-119.8220331740172
 30
0.0
 10
83.43663399252873
 20
-119.6833909583231
 30
0.0
 10
83.3805428587893
 20
-119.6378834001476
 30
0.0
 10
83.32868475155333
 20
-119.5987223538114
 30
0.0
 10
83.31069287495564
 20
-119.5849635037172
 30
0.0
 10
83.13500915409299
 20
-119.4463253252443
 30
0.0
 10
83.06833444478959
 20
-119.3807083679141
 30
0.0
 10
83.03975899262795
 20
-119.2759303642477
 30
0.0
 10
82.96779350484788
 20
-119.0198171212087
 30
0.0
 10
82.93392525559895
 20
-118.844133400346
 30
0.0
 10
82.88100939638978
 20
-118.6028327221532
 30
0.0
 10
82.85878449328864
 20
-118.5086403126614
 30
0.0
 10
82.86089999723506
 20
-118.4694833035464
 30
0.0
 10
82.8958259984572
 20
-118.4282067532637
 30
0.0
 10
82.92863447712228
 20
-118.3816414431151
 30
0.0
 10
82.96779350484788
 20
-118.3710558489405
 30
0.0
 10
83.06410141828614
 20
-118.3689403449941
 30
0.0
 10
83.30963512298245
 20
-118.36470529988
 30
0.0
 10
83.48849209976471
 20
-118.3551814948998
 30
0.0
 10
83.75625070756216
 20
-118.36470529988
 30
0.0
 10
83.86314219656437
 20
-118.3678825930209
 30
0.0
 10
83.94463350793518
 20
-118.4176251963104
 30
0.0
 10
84.12243475135488
 20
-118.5562633747832
 30
0.0
 10
84.13619158283847
 20
-118.567906720931
 30
0.0
 10
84.18805170868507
 20
-118.6081255192405
 30
0.0
 10
84.24520059439771
 20
-118.6546908293892
 30
0.0
 10
84.42194206723359
 20
-118.7943907970565
 30
0.0
 10
84.45157527136842
 20
-118.8293167982786
 30
0.0
 10
84.48120847550326
 20
-118.9330330127506
 30
0.0
 10
84.55317598189397
 20
-119.1912657969573
 30
0.0
 10
84.58598446055907
 20
-119.3680072697931
 30
0.0
 10
84.63996009035209
 20
-119.6071884068183
 30
0.0
 10
84.66112522286939
 20
-119.7003230643369
 30
0.0
 10
84.65794994833913
 20
-119.7405418626463
 30
0.0
 10
84.62514348828467
 20
-119.7839298796542
 30
0.0
  0
SPLINE
  5
10A
330
FB
100
AcDbEntity
  8
Capa 1
 62
    18
420
        0
370
     9
100
AcDbSpline
210
0.0
220
0.0
230
1.0
 70
     9
 71
     3
 72
    47
 73
    43
 74
     0
 42
0.0000000001
 43
0.0000000001
 40
0.0
 40
0.0
 40
0.0
 40
0.0
 40
1.0
 40
1.0
 40
1.0
 40
2.0
 40
2.0
 40
2.0
 40
3.0
 40
3.0
 40
3.0
 40
4.0
 40
4.0
 40
4.0
 40
5.0
 40
5.0
 40
5.0
 40
6.0
 40
6.0
 40
6.0
 40
7.0
 40
7.0
 40
7.0
 40
8.0
 40
8.0
 40
8.0
 40
9.0
 40
9.0
 40
9.0
 40
10.0
 40
10.0
 40
10.0
 40
11.0
 40
11.0
 40
11.0
 40
12.0
 40
12.0
 40
12.0
 40
13.0
 40
13.0
 40
13.0
 40
14.0
 40
14.0
 40
14.0
 40
14.0
 10
84.62514348828467
 20
-115.7655422451098
 30
0.0
 10
84.59127523903573
 20
-115.8099960885334
 30
0.0
 10
84.55105845933692
 20
-115.8205776454867
 30
0.0
 10
84.45369279392547
 20
-115.8216353974599
 30
0.0
 10
84.21133436375942
 20
-115.8279859465204
 30
0.0
 10
84.0324753683665
 20
-115.8353942475541
 30
0.0
 10
83.76365900859587
 20
-115.8279859465204
 30
0.0
 10
83.65782527156687
 20
-115.8237509014063
 30
0.0
 10
83.61337546536459
 20
-115.8047032914461
 30
0.0
 10
83.43663399252873
 20
-115.6671188277252
 30
0.0
 10
83.3805428587893
 20
-115.6205535175765
 30
0.0
 10
83.32868475155333
 20
-115.5803347192671
 30
0.0
 10
83.31069287495564
 20
-115.5676376583673
 30
0.0
 10
83.13500915409299
 20
-115.4279376907
 30
0.0
 10
83.06833444478959
 20
-115.3623207333698
 30
0.0
 10
83.03975899262795
 20
-115.2586045188979
 30
0.0
 10
82.96779350484788
 20
-115.0014294866644
 30
0.0
 10
82.93392525559895
 20
-114.8257457658017
 30
0.0
 10
82.88100939638978
 20
-114.5844450876089
 30
0.0
 10
82.85878449328864
 20
-114.490252678117
 30
0.0
 10
82.86089999723506
 20
-114.4510956690021
 30
0.0
 10
82.8958259984572
 20
-114.4098191187195
 30
0.0
 10
82.92863447712228
 20
-114.3621960565976
 30
0.0
 10
82.96779350484788
 20
-114.3526682143962
 30
0.0
 10
83.06410141828614
 20
-114.3526682143962
 30
0.0
 10
83.30963512298245
 20
-114.3473794545301
 30
0.0
 10
83.48849209976471
 20
-114.3367938603555
 30
0.0
 10
83.75625070756216
 20
-114.3473794545301
 30
0.0
 10
83.86314219656437
 20
-114.3494949584765
 30
0.0
 10
83.94463350793518
 20
-114.4002953137393
 30
0.0
 10
84.12243475135488
 20
-114.5378757402389
 30
0.0
 10
84.13619158283847
 20
-114.55057683836
 30
0.0
 10
84.18805170868507
 20
-114.5897378846962
 30
0.0
 10
84.24520059439771
 20
-114.6363031948449
 30
0.0
 10
84.42194206723359
 20
-114.7760031625122
 30
0.0
 10
84.45157527136842
 20
-114.8119869157075
 30
0.0
 10
84.48120847550326
 20
-114.9146453782063
 30
0.0
 10
84.55317598189397
 20
-115.1739359143862
 30
0.0
 10
84.58598446055907
 20
-115.3496196352488
 30
0.0
 10
84.63996009035209
 20
-115.588800772274
 30
0.0
 10
84.66112522286939
 20
-115.6819354297926
 30
0.0
 10
84.65794994833913
 20
-115.7221542281021
 30
0.0
 10
84.62514348828467
 20
-115.7655422451098
 30
0.0
  0
SPLINE
  5
10B
330
FB
100
AcDbEntity
  8
Capa 1
 62
    18
420
        0
370
     9
100
AcDbSpline
210
0.0
220
0.0
230
1.0
 70
     9
 71
     3
 72
    47
 73
    43
 74
     0
 42
0.0000000001
 43
0.0000000001
 40
0.0
 40
0.0
 40
0.0
 40
0.0
 40
1.0
 40
1.0
 40
1.0
 40
2.0
 40
2.0
 40
2.0
 40
3.0
 40
3.0
 40
3.0
 40
4.0
 40
4.0
 40
4.0
 40
5.0
 40
5.0
 40
5.0
 40
6.0
 40
6.0
 40
6.0
 40
7.0
 40
7.0
 40
7.0
 40
8.0
 40
8.0
 40
8.0
 40
9.0
 40
9.0
 40
9.0
 40
10.0
 40
10.0
 40
10.0
 40
11.0
 40
11.0
 40
11.0
 40
12.0
 40
12.0
 40
12.0
 40
13.0
 40
13.0
 40
13.0
 40
14.0
 40
14.0
 40
14.0
 40
14.0
 10
84.62514348828467
 20
-111.7485313030192
 30
0.0
 10
84.59127523903573
 20
-111.7919233572483
 30
0.0
 10
84.55105845933692
 20
-111.8035667033961
 30
0.0
 10
84.45369279392547
 20
-111.8046244553693
 30
0.0
 10
84.21133436375942
 20
-111.8109750044298
 30
0.0
 10
84.0324753683665
 20
-111.8183833054635
 30
0.0
 10
83.76365900859587
 20
-111.8109750044298
 30
0.0
 10
83.65782527156687
 20
-111.8067399593157
 30
0.0
 10
83.61337546536459
 20
-111.7866345973822
 30
0.0
 10
83.43663399252873
 20
-111.6479923816881
 30
0.0
 10
83.3805428587893
 20
-111.6035425754859
 30
0.0
 10
83.32868475155333
 20
-111.5633237771764
 30
0.0
 10
83.31069287495564
 20
-111.5495649270822
 30
0.0
 10
83.13500915409299
 20
-111.4109267486094
 30
0.0
 10
83.06833444478959
 20
-111.3453097912792
 30
0.0
 10
83.03975899262795
 20
-111.2415935768072
 30
0.0
 10
82.96779350484788
 20
-110.9833567553793
 30
0.0
 10
82.93392525559895
 20
-110.8087348237111
 30
0.0
 10
82.88100939638978
 20
-110.5674341455183
 30
0.0
 10
82.85878449328864
 20
-110.4732417360264
 30
0.0
 10
82.86089999723506
 20
-110.4340847269114
 30
0.0
 10
82.8958259984572
 20
-110.3928081766288
 30
0.0
 10
82.92863447712228
 20
-110.3462428664801
 30
0.0
 10
82.96779350484788
 20
-110.3345995203323
 30
0.0
 10
83.06410141828614
 20
-110.3335417683591
 30
0.0
 10
83.30963512298245
 20
-110.3282489712718
 30
0.0
 10
83.48849209976471
 20
-110.3197829182649
 30
0.0
 10
83.75625070756216
 20
-110.3282489712718
 30
0.0
 10
83.86314219656437
 20
-110.3324840163859
 30
0.0
 10
83.94463350793518
 20
-110.3832843716487
 30
0.0
 10
84.12243475135488
 20
-110.5208647981483
 30
0.0
 10
84.13619158283847
 20
-110.5325081442961
 30
0.0
 10
84.18805170868507
 20
-110.5727269426056
 30
0.0
 10
84.24520059439771
 20
-110.6192922527542
 30
0.0
 10
84.42194206723359
 20
-110.7589922204215
 30
0.0
 10
84.45157527136842
 20
-110.7949759736169
 30
0.0
 10
84.48120847550326
 20
-110.8976344361156
 30
0.0
 10
84.55317598189397
 20
-111.1569249722955
 30
0.0
 10
84.58598446055907
 20
-111.3326086931582
 30
0.0
 10
84.63996009035209
 20
-111.5717898301833
 30
0.0
 10
84.66112522286939
 20
-111.664924487702
 30
0.0
 10
84.65794994833913
 20
-111.7051432860114
 30
0.0
 10
84.62514348828467
 20
-111.7485313030192
 30
0.0
  0
SPLINE
  5
10C
330
FB
100
AcDbEntity
  8
Capa 1
 62
    18
420
        0
370
     9
100
AcDbSpline
210
0.0
220
0.0
230
1.0
 70
     9
 71
     3
 72
    47
 73
    43
 74
     0
 42
0.0000000001
 43
0.0000000001
 40
0.0
 40
0.0
 40
0.0
 40
0.0
 40
1.0
 40
1.0
 40
1.0
 40
2.0
 40
2.0
 40
2.0
 40
3.0
 40
3.0
 40
3.0
 40
4.0
 40
4.0
 40
4.0
 40
5.0
 40
5.0
 40
5.0
 40
6.0
 40
6.0
 40
6.0
 40
7.0
 40
7.0
 40
7.0
 40
8.0
 40
8.0
 40
8.0
 40
9.0
 40
9.0
 40
9.0
 40
10.0
 40
10.0
 40
10.0
 40
11.0
 40
11.0
 40
11.0
 40
12.0
 40
12.0
 40
12.0
 40
13.0
 40
13.0
 40
13.0
 40
14.0
 40
14.0
 40
14.0
 40
14.0
 10
88.59876237614624
 20
-135.8419149112181
 30
0.0
 10
88.56489412689731
 20
-135.8821316909169
 30
0.0
 10
88.5246773471985
 20
-135.8948327890379
 30
0.0
 10
88.42731168178705
 20
-135.8980080635681
 30
0.0
 10
88.184953251621
 20
-135.9011833380984
 30
0.0
 10
88.00715402681193
 20
-135.9117669136624
 30
0.0
 10
87.73939541901448
 20
-135.9011833380984
 30
0.0
 10
87.63144415942845
 20
-135.8980080635681
 30
0.0
 10
87.58699435322617
 20
-135.8789584349973
 30
0.0
 10
87.41131063236352
 20
-135.7413739712763
 30
0.0
 10
87.35416174665088
 20
-135.6958664131009
 30
0.0
 10
87.3023036394149
 20
-135.6556496334021
 30
0.0
 10
87.28536951479043
 20
-135.6429485352811
 30
0.0
 10
87.11074556451162
 20
-135.5043083381976
 30
0.0
 10
87.04301108462438
 20
-135.4376316102836
 30
0.0
 10
87.01549540304659
 20
-135.3339153958116
 30
0.0
 10
86.94141239270946
 20
-135.0788578861352
 30
0.0
 10
86.90754414346052
 20
-134.9010566427155
 30
0.0
 10
86.85674378819776
 20
-134.6618734870797
 30
0.0
 10
86.83240338115021
 20
-134.5676830961985
 30
0.0
 10
86.83557865568046
 20
-134.5274663164997
 30
0.0
 10
86.87050263829197
 20
-134.4851320142438
 30
0.0
 10
86.90225336498386
 20
-134.4427997305986
 30
0.0
 10
86.94141239270946
 20
-134.4322161550346
 30
0.0
 10
87.03772030614771
 20
-134.4311584030614
 30
0.0
 10
87.28325401084402
 20
-134.4248078540009
 30
0.0
 10
87.46211098762628
 20
-134.4152820304102
 30
0.0
 10
87.72986959542373
 20
-134.4248078540009
 30
0.0
 10
87.83781883639916
 20
-134.4279831285312
 30
0.0
 10
87.91825239579676
 20
-134.4756082092637
 30
0.0
 10
88.09605363921646
 20
-134.6142484063472
 30
0.0
 10
88.10981047070004
 20
-134.6269495044682
 30
0.0
 10
88.16167059654665
 20
-134.667166284167
 30
0.0
 10
88.21881948225929
 20
-134.7126738423424
 30
0.0
 10
88.39556095509516
 20
-134.8513160580366
 30
0.0
 10
88.42519415923
 20
-134.8883575632051
 30
0.0
 10
88.45482736336483
 20
-134.9920737776771
 30
0.0
 10
88.52679486975555
 20
-135.2492488099105
 30
0.0
 10
88.55960334842064
 20
-135.4249325307732
 30
0.0
 10
88.61357897821367
 20
-135.6630579344358
 30
0.0
 10
88.63474411073097
 20
-135.759365847874
 30
0.0
 10
88.63262860678455
 20
-135.7985248755996
 30
0.0
 10
88.59876237614624
 20
-135.8419149112181
 30
0.0
  0
SPLINE
  5
10D
330
FB
100
AcDbEntity
  8
Capa 1
 62
    18
420
        0
370
     9
100
AcDbSpline
210
0.0
220
0.0
230
1.0
 70
     9
 71
     3
 72
    47
 73
    43
 74
     0
 42
0.0000000001
 43
0.0000000001
 40
0.0
 40
0.0
 40
0.0
 40
0.0
 40
1.0
 40
1.0
 40
1.0
 40
2.0
 40
2.0
 40
2.0
 40
3.0
 40
3.0
 40
3.0
 40
4.0
 40
4.0
 40
4.0
 40
5.0
 40
5.0
 40
5.0
 40
6.0
 40
6.0
 40
6.0
 40
7.0
 40
7.0
 40
7.0
 40
8.0
 40
8.0
 40
8.0
 40
9.0
 40
9.0
 40
9.0
 40
10.0
 40
10.0
 40
10.0
 40
11.0
 40
11.0
 40
11.0
 40
12.0
 40
12.0
 40
12.0
 40
13.0
 40
13.0
 40
13.0
 40
14.0
 40
14.0
 40
14.0
 40
14.0
 10
88.59876237614624
 20
-131.8298798443449
 30
0.0
 10
88.56489412689731
 20
-131.8743336877684
 30
0.0
 10
88.5246773471985
 20
-131.8849152447218
 30
0.0
 10
88.42731168178705
 20
-131.885972996695
 30
0.0
 10
88.184953251621
 20
-131.8923235457555
 30
0.0
 10
88.00715402681193
 20
-131.8997318467892
 30
0.0
 10
87.73939541901448
 20
-131.8923235457555
 30
0.0
 10
87.63144415942845
 20
-131.8880885006414
 30
0.0
 10
87.58699435322617
 20
-131.8690408906811
 30
0.0
 10
87.41131063236352
 20
-131.730398674987
 30
0.0
 10
87.35416174665088
 20
-131.6848911168116
 30
0.0
 10
87.3023036394149
 20
-131.6446723185021
 30
0.0
 10
87.28536951479043
 20
-131.6319752576024
 30
0.0
 10
87.11074556451162
 20
-131.4933330419083
 30
0.0
 10
87.04301108462438
 20
-131.4277160845781
 30
0.0
 10
87.01549540304659
 20
-131.3239998701061
 30
0.0
 10
86.94141239270946
 20
-131.0668248378727
 30
0.0
 10
86.90754414346052
 20
-130.89114111701
 30
0.0
 10
86.85674378819776
 20
-130.6508981907903
 30
0.0
 10
86.83240338115021
 20
-130.5577635332717
 30
0.0
 10
86.83557865568046
 20
-130.5175487721836
 30
0.0
 10
86.87050263829197
 20
-130.4762722219009
 30
0.0
 10
86.90225336498386
 20
-130.428649159779
 30
0.0
 10
86.94141239270946
 20
-130.4191253547989
 30
0.0
 10
87.03772030614771
 20
-130.4191253547989
 30
0.0
 10
87.28325401084402
 20
-130.4138325577116
 30
0.0
 10
87.46211098762628
 20
-130.403246963537
 30
0.0
 10
87.72986959542373
 20
-130.4138325577116
 30
0.0
 10
87.83781883639916
 20
-130.415948061658
 30
0.0
 10
87.91825239579676
 20
-130.4667484169208
 30
0.0
 10
88.09605363921646
 20
-130.6043328806417
 30
0.0
 10
88.10981047070004
 20
-130.6170299415414
 30
0.0
 10
88.16167059654665
 20
-130.6561909878777
 30
0.0
 10
88.21881948225929
 20
-130.7038140499995
 30
0.0
 10
88.39556095509516
 20
-130.8435140176668
 30
0.0
 10
88.42519415923
 20
-130.8773822669158
 30
0.0
 10
88.45482736336483
 20
-130.9800407294145
 30
0.0
 10
88.52679486975555
 20
-131.2393312655944
 30
0.0
 10
88.55960334842064
 20
-131.4150149864571
 30
0.0
 10
88.61357897821367
 20
-131.653138371509
 30
0.0
 10
88.63474411073097
 20
-131.7462730290277
 30
0.0
 10
88.63262860678455
 20
-131.7864918273371
 30
0.0
 10
88.59876237614624
 20
-131.8298798443449
 30
0.0
  0
SPLINE
  5
10E
330
FB
100
AcDbEntity
  8
Capa 1
 62
    18
420
        0
370
     9
100
AcDbSpline
210
0.0
220
0.0
230
1.0
 70
     9
 71
     3
 72
    47
 73
    43
 74
     0
 42
0.0000000001
 43
0.0000000001
 40
0.0
 40
0.0
 40
0.0
 40
0.0
 40
1.0
 40
1.0
 40
1.0
 40
2.0
 40
2.0
 40
2.0
 40
3.0
 40
3.0
 40
3.0
 40
4.0
 40
4.0
 40
4.0
 40
5.0
 40
5.0
 40
5.0
 40
6.0
 40
6.0
 40
6.0
 40
7.0
 40
7.0
 40
7.0
 40
8.0
 40
8.0
 40
8.0
 40
9.0
 40
9.0
 40
9.0
 40
10.0
 40
10.0
 40
10.0
 40
11.0
 40
11.0
 40
11.0
 40
12.0
 40
12.0
 40
12.0
 40
13.0
 40
13.0
 40
13.0
 40
14.0
 40
14.0
 40
14.0
 40
14.0
 10
88.59876237614624
 20
-123.8025274497046
 30
0.0
 10
88.56489412689731
 20
-123.8459195039337
 30
0.0
 10
88.5246773471985
 20
-123.8575628500815
 30
0.0
 10
88.42731168178705
 20
-123.8575628500815
 30
0.0
 10
88.184953251621
 20
-123.863913399142
 30
0.0
 10
88.00715402681193
 20
-123.8723794521489
 30
0.0
 10
87.73939541901448
 20
-123.863913399142
 30
0.0
 10
87.63144415942845
 20
-123.8596783540279
 30
0.0
 10
87.58699435322617
 20
-123.8406307440676
 30
0.0
 10
87.41131063236352
 20
-123.7019885283735
 30
0.0
 10
87.35416174665088
 20
-123.6564809701981
 30
0.0
 10
87.3023036394149
 20
-123.6141466679422
 30
0.0
 10
87.28536951479043
 20
-123.6035610737676
 30
0.0
 10
87.11074556451162
 20
-123.4649228952948
 30
0.0
 10
87.04301108462438
 20
-123.3971863967969
 30
0.0
 10
87.01549540304659
 20
-123.2945279342982
 30
0.0
 10
86.94141239270946
 20
-123.0362951500915
 30
0.0
 10
86.90754414346052
 20
-122.861669181202
 30
0.0
 10
86.85674378819776
 20
-122.6214302922036
 30
0.0
 10
86.83240338115021
 20
-122.5272378827118
 30
0.0
 10
86.83557865568046
 20
-122.4880808735969
 30
0.0
 10
86.87050263829197
 20
-122.4446888193678
 30
0.0
 10
86.90225336498386
 20
-122.3991812611923
 30
0.0
 10
86.94141239270946
 20
-122.3885956670177
 30
0.0
 10
87.03772030614771
 20
-122.3875379150445
 30
0.0
 10
87.28325401084402
 20
-122.3822451179572
 30
0.0
 10
87.46211098762628
 20
-122.3737790649503
 30
0.0
 10
87.72986959542373
 20
-122.3822451179572
 30
0.0
 10
87.83781883639916
 20
-122.3854224110981
 30
0.0
 10
87.91825239579676
 20
-122.4362227663609
 30
0.0
 10
88.09605363921646
 20
-122.5727454408873
 30
0.0
 10
88.10981047070004
 20
-122.5854465390083
 30
0.0
 10
88.16167059654665
 20
-122.626723089291
 30
0.0
 10
88.21881948225929
 20
-122.6722306474664
 30
0.0
 10
88.39556095509516
 20
-122.8119306151337
 30
0.0
 10
88.42519415923
 20
-122.8479143683291
 30
0.0
 10
88.45482736336483
 20
-122.9505728308278
 30
0.0
 10
88.52679486975555
 20
-123.2098633670077
 30
0.0
 10
88.55960334842064
 20
-123.3855470878704
 30
0.0
 10
88.61357897821367
 20
-123.6247282248955
 30
0.0
 10
88.63474411073097
 20
-123.7189206343874
 30
0.0
 10
88.63262860678455
 20
-123.7580776435023
 30
0.0
 10
88.59876237614624
 20
-123.8025274497046
 30
0.0
  0
SPLINE
  5
10F
330
FB
100
AcDbEntity
  8
Capa 1
 62
    18
420
        0
370
     9
100
AcDbSpline
210
0.0
220
0.0
230
1.0
 70
     9
 71
     3
 72
    47
 73
    43
 74
     0
 42
0.0000000001
 43
0.0000000001
 40
0.0
 40
0.0
 40
0.0
 40
0.0
 40
1.0
 40
1.0
 40
1.0
 40
2.0
 40
2.0
 40
2.0
 40
3.0
 40
3.0
 40
3.0
 40
4.0
 40
4.0
 40
4.0
 40
5.0
 40
5.0
 40
5.0
 40
6.0
 40
6.0
 40
6.0
 40
7.0
 40
7.0
 40
7.0
 40
8.0
 40
8.0
 40
8.0
 40
9.0
 40
9.0
 40
9.0
 40
10.0
 40
10.0
 40
10.0
 40
11.0
 40
11.0
 40
11.0
 40
12.0
 40
12.0
 40
12.0
 40
13.0
 40
13.0
 40
13.0
 40
14.0
 40
14.0
 40
14.0
 40
14.0
 10
88.59876237614624
 20
-119.7839298796542
 30
0.0
 10
88.56489412689731
 20
-119.8273219338832
 30
0.0
 10
88.5246773471985
 20
-119.838965280031
 30
0.0
 10
88.42731168178705
 20
-119.8400230320042
 30
0.0
 10
88.184953251621
 20
-119.8463735810647
 30
0.0
 10
88.00715402681193
 20
-119.8537818820984
 30
0.0
 10
87.73939541901448
 20
-119.8463735810647
 30
0.0
 10
87.63144415942845
 20
-119.8410807839774
 30
0.0
 10
87.58699435322617
 20
-119.8220331740172
 30
0.0
 10
87.41131063236352
 20
-119.6833909583231
 30
0.0
 10
87.35416174665088
 20
-119.6378834001476
 30
0.0
 10
87.3023036394149
 20
-119.5987223538114
 30
0.0
 10
87.28536951479043
 20
-119.5849635037172
 30
0.0
 10
87.11074556451162
 20
-119.4463253252443
 30
0.0
 10
87.04301108462438
 20
-119.3807083679141
 30
0.0
 10
87.01549540304659
 20
-119.2759303642477
 30
0.0
 10
86.94141239270946
 20
-119.0198171212087
 30
0.0
 10
86.90754414346052
 20
-118.844133400346
 30
0.0
 10
86.85674378819776
 20
-118.6028327221532
 30
0.0
 10
86.83240338115021
 20
-118.5086403126614
 30
0.0
 10
86.83557865568046
 20
-118.4694833035464
 30
0.0
 10
86.87050263829197
 20
-118.4282067532637
 30
0.0
 10
86.90225336498386
 20
-118.3816414431151
 30
0.0
 10
86.94141239270946
 20
-118.3710558489405
 30
0.0
 10
87.03772030614771
 20
-118.3689403449941
 30
0.0
 10
87.28325401084402
 20
-118.36470529988
 30
0.0
 10
87.46211098762628
 20
-118.3551814948998
 30
0.0
 10
87.72986959542373
 20
-118.36470529988
 30
0.0
 10
87.83781883639916
 20
-118.3678825930209
 30
0.0
 10
87.91825239579676
 20
-118.4176251963104
 30
0.0
 10
88.09605363921646
 20
-118.5562633747832
 30
0.0
 10
88.10981047070004
 20
-118.567906720931
 30
0.0
 10
88.16167059654665
 20
-118.6081255192405
 30
0.0
 10
88.21881948225929
 20
-118.6546908293892
 30
0.0
 10
88.39556095509516
 20
-118.7943907970565
 30
0.0
 10
88.42519415923
 20
-118.8293167982786
 30
0.0
 10
88.45482736336483
 20
-118.9330330127506
 30
0.0
 10
88.52679486975555
 20
-119.1912657969573
 30
0.0
 10
88.55960334842064
 20
-119.3680072697931
 30
0.0
 10
88.61357897821367
 20
-119.6071884068183
 30
0.0
 10
88.63474411073097
 20
-119.7003230643369
 30
0.0
 10
88.63262860678455
 20
-119.7405418626463
 30
0.0
 10
88.59876237614624
 20
-119.7839298796542
 30
0.0
  0
SPLINE
  5
110
330
FB
100
AcDbEntity
  8
Capa 1
 62
    18
420
        0
370
     9
100
AcDbSpline
210
0.0
220
0.0
230
1.0
 70
     9
 71
     3
 72
    47
 73
    43
 74
     0
 42
0.0000000001
 43
0.0000000001
 40
0.0
 40
0.0
 40
0.0
 40
0.0
 40
1.0
 40
1.0
 40
1.0
 40
2.0
 40
2.0
 40
2.0
 40
3.0
 40
3.0
 40
3.0
 40
4.0
 40
4.0
 40
4.0
 40
5.0
 40
5.0
 40
5.0
 40
6.0
 40
6.0
 40
6.0
 40
7.0
 40
7.0
 40
7.0
 40
8.0
 40
8.0
 40
8.0
 40
9.0
 40
9.0
 40
9.0
 40
10.0
 40
10.0
 40
10.0
 40
11.0
 40
11.0
 40
11.0
 40
12.0
 40
12.0
 40
12.0
 40
13.0
 40
13.0
 40
13.0
 40
14.0
 40
14.0
 40
14.0
 40
14.0
 10
88.59876237614624
 20
-115.7655422451098
 30
0.0
 10
88.56489412689731
 20
-115.8099960885334
 30
0.0
 10
88.5246773471985
 20
-115.8205776454867
 30
0.0
 10
88.42731168178705
 20
-115.8216353974599
 30
0.0
 10
88.184953251621
 20
-115.8279859465204
 30
0.0
 10
88.00715402681193
 20
-115.8353942475541
 30
0.0
 10
87.73939541901448
 20
-115.8279859465204
 30
0.0
 10
87.63144415942845
 20
-115.8237509014063
 30
0.0
 10
87.58699435322617
 20
-115.8047032914461
 30
0.0
 10
87.41131063236352
 20
-115.6671188277252
 30
0.0
 10
87.35416174665088
 20
-115.6205535175765
 30
0.0
 10
87.3023036394149
 20
-115.5803347192671
 30
0.0
 10
87.28536951479043
 20
-115.5676376583673
 30
0.0
 10
87.11074556451162
 20
-115.4279376907
 30
0.0
 10
87.04301108462438
 20
-115.3623207333698
 30
0.0
 10
87.01549540304659
 20
-115.2586045188979
 30
0.0
 10
86.94141239270946
 20
-115.0014294866644
 30
0.0
 10
86.90754414346052
 20
-114.8257457658017
 30
0.0
 10
86.85674378819776
 20
-114.5844450876089
 30
0.0
 10
86.83240338115021
 20
-114.490252678117
 30
0.0
 10
86.83557865568046
 20
-114.4510956690021
 30
0.0
 10
86.87050263829197
 20
-114.4098191187195
 30
0.0
 10
86.90225336498386
 20
-114.3621960565976
 30
0.0
 10
86.94141239270946
 20
-114.3526682143962
 30
0.0
 10
87.03772030614771
 20
-114.3526682143962
 30
0.0
 10
87.28325401084402
 20
-114.3473794545301
 30
0.0
 10
87.46211098762628
 20
-114.3367938603555
 30
0.0
 10
87.72986959542373
 20
-114.3473794545301
 30
0.0
 10
87.83781883639916
 20
-114.3494949584765
 30
0.0
 10
87.91825239579676
 20
-114.4002953137393
 30
0.0
 10
88.09605363921646
 20
-114.5378757402389
 30
0.0
 10
88.10981047070004
 20
-114.55057683836
 30
0.0
 10
88.16167059654665
 20
-114.5897378846962
 30
0.0
 10
88.21881948225929
 20
-114.6363031948449
 30
0.0
 10
88.39556095509516
 20
-114.7760031625122
 30
0.0
 10
88.42519415923
 20
-114.8119869157075
 30
0.0
 10
88.45482736336483
 20
-114.9146453782063
 30
0.0
 10
88.52679486975555
 20
-115.1739359143862
 30
0.0
 10
88.55960334842064
 20
-115.3496196352488
 30
0.0
 10
88.61357897821367
 20
-115.588800772274
 30
0.0
 10
88.63474411073097
 20
-115.6819354297926
 30
0.0
 10
88.63262860678455
 20
-115.7221542281021
 30
0.0
 10
88.59876237614624
 20
-115.7655422451098
 30
0.0
  0
SPLINE
  5
111
330
FB
100
AcDbEntity
  8
Capa 1
 62
    18
420
        0
370
     9
100
AcDbSpline
210
0.0
220
0.0
230
1.0
 70
     9
 71
     3
 72
    47
 73
    43
 74
     0
 42
0.0000000001
 43
0.0000000001
 40
0.0
 40
0.0
 40
0.0
 40
0.0
 40
1.0
 40
1.0
 40
1.0
 40
2.0
 40
2.0
 40
2.0
 40
3.0
 40
3.0
 40
3.0
 40
4.0
 40
4.0
 40
4.0
 40
5.0
 40
5.0
 40
5.0
 40
6.0
 40
6.0
 40
6.0
 40
7.0
 40
7.0
 40
7.0
 40
8.0
 40
8.0
 40
8.0
 40
9.0
 40
9.0
 40
9.0
 40
10.0
 40
10.0
 40
10.0
 40
11.0
 40
11.0
 40
11.0
 40
12.0
 40
12.0
 40
12.0
 40
13.0
 40
13.0
 40
13.0
 40
14.0
 40
14.0
 40
14.0
 40
14.0
 10
92.5731220941112
 20
-135.8419149112181
 30
0.0
 10
92.53925384486226
 20
-135.8821316909169
 30
0.0
 10
92.49903706516345
 20
-135.8948327890379
 30
0.0
 10
92.40167139975199
 20
-135.8980080635681
 30
0.0
 10
92.15931296958594
 20
-135.9011833380984
 30
0.0
 10
91.98151374477687
 20
-135.9117669136624
 30
0.0
 10
91.71375513697944
 20
-135.9011833380984
 30
0.0
 10
91.60580387739338
 20
-135.8980080635681
 30
0.0
 10
91.56135407119112
 20
-135.8789584349973
 30
0.0
 10
91.38567035032847
 20
-135.7413739712763
 30
0.0
 10
91.32852146461582
 20
-135.6958664131009
 30
0.0
 10
91.27666335737984
 20
-135.6556496334021
 30
0.0
 10
91.25972923275538
 20
-135.6429485352811
 30
0.0
 10
91.08510528247656
 20
-135.5043083381976
 30
0.0
 10
91.01631305061612
 20
-135.4376316102836
 30
0.0
 10
90.98773759845448
 20
-135.3339153958116
 30
0.0
 10
90.91577211067441
 20
-135.0788578861352
 30
0.0
 10
90.88190386142548
 20
-134.9010566427155
 30
0.0
 10
90.82898800221629
 20
-134.6618734870797
 30
0.0
 10
90.80676309911515
 20
-134.5676830961985
 30
0.0
 10
90.80993837364541
 20
-134.5274663164997
 30
0.0
 10
90.84380460428372
 20
-134.4851320142438
 30
0.0
 10
90.87661308294881
 20
-134.4427997305986
 30
0.0
 10
90.91577211067441
 20
-134.4322161550346
 30
0.0
 10
91.01208002411267
 20
-134.4311584030614
 30
0.0
 10
91.25761372880896
 20
-134.4248078540009
 30
0.0
 10
91.43647070559124
 20
-134.4152820304102
 30
0.0
 10
91.70422931338867
 20
-134.4248078540009
 30
0.0
 10
91.81217855436409
 20
-134.4279831285312
 30
0.0
 10
91.89261211376171
 20
-134.4756082092637
 30
0.0
 10
92.07041335718141
 20
-134.6142484063472
 30
0.0
 10
92.08417018866498
 20
-134.6269495044682
 30
0.0
 10
92.1360303145116
 20
-134.667166284167
 30
0.0
 10
92.19317920022424
 20
-134.7126738423424
 30
0.0
 10
92.3699206730601
 20
-134.8513160580366
 30
0.0
 10
92.39955387719495
 20
-134.8883575632051
 30
0.0
 10
92.42918708132981
 20
-134.9920737776771
 30
0.0
 10
92.50115458772048
 20
-135.2492488099105
 30
0.0
 10
92.5339630663856
 20
-135.4249325307732
 30
0.0
 10
92.58793869617861
 20
-135.6630579344358
 30
0.0
 10
92.60910382869591
 20
-135.759365847874
 30
0.0
 10
92.60698832474949
 20
-135.7985248755996
 30
0.0
 10
92.5731220941112
 20
-135.8419149112181
 30
0.0
  0
SPLINE
  5
112
330
FB
100
AcDbEntity
  8
Capa 1
 62
    18
420
        0
370
     9
100
AcDbSpline
210
0.0
220
0.0
230
1.0
 70
     9
 71
     3
 72
    47
 73
    43
 74
     0
 42
0.0000000001
 43
0.0000000001
 40
0.0
 40
0.0
 40
0.0
 40
0.0
 40
1.0
 40
1.0
 40
1.0
 40
2.0
 40
2.0
 40
2.0
 40
3.0
 40
3.0
 40
3.0
 40
4.0
 40
4.0
 40
4.0
 40
5.0
 40
5.0
 40
5.0
 40
6.0
 40
6.0
 40
6.0
 40
7.0
 40
7.0
 40
7.0
 40
8.0
 40
8.0
 40
8.0
 40
9.0
 40
9.0
 40
9.0
 40
10.0
 40
10.0
 40
10.0
 40
11.0
 40
11.0
 40
11.0
 40
12.0
 40
12.0
 40
12.0
 40
13.0
 40
13.0
 40
13.0
 40
14.0
 40
14.0
 40
14.0
 40
14.0
 10
92.5731220941112
 20
-127.8193244190678
 30
0.0
 10
92.53925384486226
 20
-127.8627164732969
 30
0.0
 10
92.49903706516345
 20
-127.8743598194447
 30
0.0
 10
92.40167139975199
 20
-127.8754175714179
 30
0.0
 10
92.15931296958594
 20
-127.8817681204784
 30
0.0
 10
91.98151374477687
 20
-127.8891764215121
 30
0.0
 10
91.71375513697944
 20
-127.8817681204784
 30
0.0
 10
91.60580387739338
 20
-127.8775330753643
 30
0.0
 10
91.56135407119112
 20
-127.8574277134309
 30
0.0
 10
91.38567035032847
 20
-127.7187854977368
 30
0.0
 10
91.32852146461582
 20
-127.6743356915345
 30
0.0
 10
91.27666335737984
 20
-127.6341168932251
 30
0.0
 10
91.25972923275538
 20
-127.6203580431308
 30
0.0
 10
91.08510528247656
 20
-127.481719864658
 30
0.0
 10
91.01631305061612
 20
-127.4139833661601
 30
0.0
 10
90.98773759845448
 20
-127.3113249036614
 30
0.0
 10
90.91577211067441
 20
-127.0552116606224
 30
0.0
 10
90.88190386142548
 20
-126.8784661505653
 30
0.0
 10
90.82898800221629
 20
-126.6382272615669
 30
0.0
 10
90.80676309911515
 20
-126.5440348520751
 30
0.0
 10
90.80993837364541
 20
-126.5048778429601
 30
0.0
 10
90.84380460428372
 20
-126.4636012926774
 30
0.0
 10
90.87661308294881
 20
-126.4170359825288
 30
0.0
 10
90.91577211067441
 20
-126.4053926363809
 30
0.0
 10
91.01208002411267
 20
-126.4043348844077
 30
0.0
 10
91.25761372880896
 20
-126.3990420873204
 30
0.0
 10
91.43647070559124
 20
-126.3905760343135
 30
0.0
 10
91.70422931338867
 20
-126.3990420873204
 30
0.0
 10
91.81217855436409
 20
-126.4032771324345
 30
0.0
 10
91.89261211376171
 20
-126.4540774876973
 30
0.0
 10
92.07041335718141
 20
-126.5916579141969
 30
0.0
 10
92.08417018866498
 20
-126.6033012603447
 30
0.0
 10
92.1360303145116
 20
-126.6435200586542
 30
0.0
 10
92.19317920022424
 20
-126.6900853688029
 30
0.0
 10
92.3699206730601
 20
-126.8287275844969
 30
0.0
 10
92.39955387719495
 20
-126.8657690896655
 30
0.0
 10
92.42918708132981
 20
-126.9684275521643
 30
0.0
 10
92.50115458772048
 20
-127.2277180883442
 30
0.0
 10
92.5339630663856
 20
-127.4012863052604
 30
0.0
 10
92.58793869617861
 20
-127.642582946232
 30
0.0
 10
92.60910382869591
 20
-127.7357176037506
 30
0.0
 10
92.60698832474949
 20
-127.77593640206
 30
0.0
 10
92.5731220941112
 20
-127.8193244190678
 30
0.0
  0
SPLINE
  5
113
330
FB
100
AcDbEntity
  8
Capa 1
 62
    18
420
        0
370
     9
100
AcDbSpline
210
0.0
220
0.0
230
1.0
 70
     9
 71
     3
 72
    47
 73
    43
 74
     0
 42
0.0000000001
 43
0.0000000001
 40
0.0
 40
0.0
 40
0.0
 40
0.0
 40
1.0
 40
1.0
 40
1.0
 40
2.0
 40
2.0
 40
2.0
 40
3.0
 40
3.0
 40
3.0
 40
4.0
 40
4.0
 40
4.0
 40
5.0
 40
5.0
 40
5.0
 40
6.0
 40
6.0
 40
6.0
 40
7.0
 40
7.0
 40
7.0
 40
8.0
 40
8.0
 40
8.0
 40
9.0
 40
9.0
 40
9.0
 40
10.0
 40
10.0
 40
10.0
 40
11.0
 40
11.0
 40
11.0
 40
12.0
 40
12.0
 40
12.0
 40
13.0
 40
13.0
 40
13.0
 40
14.0
 40
14.0
 40
14.0
 40
14.0
 10
92.5731220941112
 20
-123.8025274497046
 30
0.0
 10
92.53925384486226
 20
-123.8459195039337
 30
0.0
 10
92.49903706516345
 20
-123.8575628500815
 30
0.0
 10
92.40167139975199
 20
-123.8575628500815
 30
0.0
 10
92.15931296958594
 20
-123.863913399142
 30
0.0
 10
91.98151374477687
 20
-123.8723794521489
 30
0.0
 10
91.71375513697944
 20
-123.863913399142
 30
0.0
 10
91.60580387739338
 20
-123.8596783540279
 30
0.0
 10
91.56135407119112
 20
-123.8406307440676
 30
0.0
 10
91.38567035032847
 20
-123.7019885283735
 30
0.0
 10
91.32852146461582
 20
-123.6564809701981
 30
0.0
 10
91.27666335737984
 20
-123.6141466679422
 30
0.0
 10
91.25972923275538
 20
-123.6035610737676
 30
0.0
 10
91.08510528247656
 20
-123.4649228952948
 30
0.0
 10
91.01631305061612
 20
-123.3971863967969
 30
0.0
 10
90.98773759845448
 20
-123.2945279342982
 30
0.0
 10
90.91577211067441
 20
-123.0362951500915
 30
0.0
 10
90.88190386142548
 20
-122.861669181202
 30
0.0
 10
90.82898800221629
 20
-122.6214302922036
 30
0.0
 10
90.80676309911515
 20
-122.5272378827118
 30
0.0
 10
90.80993837364541
 20
-122.4880808735969
 30
0.0
 10
90.84380460428372
 20
-122.4446888193678
 30
0.0
 10
90.87661308294881
 20
-122.3991812611923
 30
0.0
 10
90.91577211067441
 20
-122.3885956670177
 30
0.0
 10
91.01208002411267
 20
-122.3875379150445
 30
0.0
 10
91.25761372880896
 20
-122.3822451179572
 30
0.0
 10
91.43647070559124
 20
-122.3737790649503
 30
0.0
 10
91.70422931338867
 20
-122.3822451179572
 30
0.0
 10
91.81217855436409
 20
-122.3854224110981
 30
0.0
 10
91.89261211376171
 20
-122.4362227663609
 30
0.0
 10
92.07041335718141
 20
-122.5727454408873
 30
0.0
 10
92.08417018866498
 20
-122.5854465390083
 30
0.0
 10
92.1360303145116
 20
-122.626723089291
 30
0.0
 10
92.19317920022424
 20
-122.6722306474664
 30
0.0
 10
92.3699206730601
 20
-122.8119306151337
 30
0.0
 10
92.39955387719495
 20
-122.8479143683291
 30
0.0
 10
92.42918708132981
 20
-122.9505728308278
 30
0.0
 10
92.50115458772048
 20
-123.2098633670077
 30
0.0
 10
92.5339630663856
 20
-123.3855470878704
 30
0.0
 10
92.58793869617861
 20
-123.6247282248955
 30
0.0
 10
92.60910382869591
 20
-123.7189206343874
 30
0.0
 10
92.60698832474949
 20
-123.7580776435023
 30
0.0
 10
92.5731220941112
 20
-123.8025274497046
 30
0.0
  0
SPLINE
  5
114
330
FB
100
AcDbEntity
  8
Capa 1
 62
    18
420
        0
370
     9
100
AcDbSpline
210
0.0
220
0.0
230
1.0
 70
     9
 71
     3
 72
    47
 73
    43
 74
     0
 42
0.0000000001
 43
0.0000000001
 40
0.0
 40
0.0
 40
0.0
 40
0.0
 40
1.0
 40
1.0
 40
1.0
 40
2.0
 40
2.0
 40
2.0
 40
3.0
 40
3.0
 40
3.0
 40
4.0
 40
4.0
 40
4.0
 40
5.0
 40
5.0
 40
5.0
 40
6.0
 40
6.0
 40
6.0
 40
7.0
 40
7.0
 40
7.0
 40
8.0
 40
8.0
 40
8.0
 40
9.0
 40
9.0
 40
9.0
 40
10.0
 40
10.0
 40
10.0
 40
11.0
 40
11.0
 40
11.0
 40
12.0
 40
12.0
 40
12.0
 40
13.0
 40
13.0
 40
13.0
 40
14.0
 40
14.0
 40
14.0
 40
14.0
 10
92.5731220941112
 20
-119.7839298796542
 30
0.0
 10
92.53925384486226
 20
-119.8273219338832
 30
0.0
 10
92.49903706516345
 20
-119.838965280031
 30
0.0
 10
92.40167139975199
 20
-119.8400230320042
 30
0.0
 10
92.15931296958594
 20
-119.8463735810647
 30
0.0
 10
91.98151374477687
 20
-119.8537818820984
 30
0.0
 10
91.71375513697944
 20
-119.8463735810647
 30
0.0
 10
91.60580387739338
 20
-119.8410807839774
 30
0.0
 10
91.56135407119112
 20
-119.8220331740172
 30
0.0
 10
91.38567035032847
 20
-119.6833909583231
 30
0.0
 10
91.32852146461582
 20
-119.6378834001476
 30
0.0
 10
91.27666335737984
 20
-119.5987223538114
 30
0.0
 10
91.25972923275538
 20
-119.5849635037172
 30
0.0
 10
91.08510528247656
 20
-119.4463253252443
 30
0.0
 10
91.01631305061612
 20
-119.3807083679141
 30
0.0
 10
90.98773759845448
 20
-119.2759303642477
 30
0.0
 10
90.91577211067441
 20
-119.0198171212087
 30
0.0
 10
90.88190386142548
 20
-118.844133400346
 30
0.0
 10
90.82898800221629
 20
-118.6028327221532
 30
0.0
 10
90.80676309911515
 20
-118.5086403126614
 30
0.0
 10
90.80993837364541
 20
-118.4694833035464
 30
0.0
 10
90.84380460428372
 20
-118.4282067532637
 30
0.0
 10
90.87661308294881
 20
-118.3816414431151
 30
0.0
 10
90.91577211067441
 20
-118.3710558489405
 30
0.0
 10
91.01208002411267
 20
-118.3689403449941
 30
0.0
 10
91.25761372880896
 20
-118.36470529988
 30
0.0
 10
91.43647070559124
 20
-118.3551814948998
 30
0.0
 10
91.70422931338867
 20
-118.36470529988
 30
0.0
 10
91.81217855436409
 20
-118.3678825930209
 30
0.0
 10
91.89261211376171
 20
-118.4176251963104
 30
0.0
 10
92.07041335718141
 20
-118.5562633747832
 30
0.0
 10
92.08417018866498
 20
-118.567906720931
 30
0.0
 10
92.1360303145116
 20
-118.6081255192405
 30
0.0
 10
92.19317920022424
 20
-118.6546908293892
 30
0.0
 10
92.3699206730601
 20
-118.7943907970565
 30
0.0
 10
92.39955387719495
 20
-118.8293167982786
 30
0.0
 10
92.42918708132981
 20
-118.9330330127506
 30
0.0
 10
92.50115458772048
 20
-119.1912657969573
 30
0.0
 10
92.5339630663856
 20
-119.3680072697931
 30
0.0
 10
92.58793869617861
 20
-119.6071884068183
 30
0.0
 10
92.60910382869591
 20
-119.7003230643369
 30
0.0
 10
92.60698832474949
 20
-119.7405418626463
 30
0.0
 10
92.5731220941112
 20
-119.7839298796542
 30
0.0
  0
SPLINE
  5
115
330
FB
100
AcDbEntity
  8
Capa 1
 62
    18
420
        0
370
     9
100
AcDbSpline
210
0.0
220
0.0
230
1.0
 70
     9
 71
     3
 72
    47
 73
    43
 74
     0
 42
0.0000000001
 43
0.0000000001
 40
0.0
 40
0.0
 40
0.0
 40
0.0
 40
1.0
 40
1.0
 40
1.0
 40
2.0
 40
2.0
 40
2.0
 40
3.0
 40
3.0
 40
3.0
 40
4.0
 40
4.0
 40
4.0
 40
5.0
 40
5.0
 40
5.0
 40
6.0
 40
6.0
 40
6.0
 40
7.0
 40
7.0
 40
7.0
 40
8.0
 40
8.0
 40
8.0
 40
9.0
 40
9.0
 40
9.0
 40
10.0
 40
10.0
 40
10.0
 40
11.0
 40
11.0
 40
11.0
 40
12.0
 40
12.0
 40
12.0
 40
13.0
 40
13.0
 40
13.0
 40
14.0
 40
14.0
 40
14.0
 40
14.0
 10
92.5731220941112
 20
-111.7485313030192
 30
0.0
 10
92.53925384486226
 20
-111.7919233572483
 30
0.0
 10
92.49903706516345
 20
-111.8035667033961
 30
0.0
 10
92.40167139975199
 20
-111.8046244553693
 30
0.0
 10
92.15931296958594
 20
-111.8109750044298
 30
0.0
 10
91.98151374477687
 20
-111.8183833054635
 30
0.0
 10
91.71375513697944
 20
-111.8109750044298
 30
0.0
 10
91.60580387739338
 20
-111.8067399593157
 30
0.0
 10
91.56135407119112
 20
-111.7866345973822
 30
0.0
 10
91.38567035032847
 20
-111.6479923816881
 30
0.0
 10
91.32852146461582
 20
-111.6035425754859
 30
0.0
 10
91.27666335737984
 20
-111.5633237771764
 30
0.0
 10
91.25972923275538
 20
-111.5495649270822
 30
0.0
 10
91.08510528247656
 20
-111.4109267486094
 30
0.0
 10
91.01631305061612
 20
-111.3453097912792
 30
0.0
 10
90.98773759845448
 20
-111.2415935768072
 30
0.0
 10
90.91577211067441
 20
-110.9833567553793
 30
0.0
 10
90.88190386142548
 20
-110.8087348237111
 30
0.0
 10
90.82898800221629
 20
-110.5674341455183
 30
0.0
 10
90.80676309911515
 20
-110.4732417360264
 30
0.0
 10
90.80993837364541
 20
-110.4340847269114
 30
0.0
 10
90.84380460428372
 20
-110.3928081766288
 30
0.0
 10
90.87661308294881
 20
-110.3462428664801
 30
0.0
 10
90.91577211067441
 20
-110.3345995203323
 30
0.0
 10
91.01208002411267
 20
-110.3335417683591
 30
0.0
 10
91.25761372880896
 20
-110.3282489712718
 30
0.0
 10
91.43647070559124
 20
-110.3197829182649
 30
0.0
 10
91.70422931338867
 20
-110.3282489712718
 30
0.0
 10
91.81217855436409
 20
-110.3324840163859
 30
0.0
 10
91.89261211376171
 20
-110.3832843716487
 30
0.0
 10
92.07041335718141
 20
-110.5208647981483
 30
0.0
 10
92.08417018866498
 20
-110.5325081442961
 30
0.0
 10
92.1360303145116
 20
-110.5727269426056
 30
0.0
 10
92.19317920022424
 20
-110.6192922527542
 30
0.0
 10
92.3699206730601
 20
-110.7589922204215
 30
0.0
 10
92.39955387719495
 20
-110.7949759736169
 30
0.0
 10
92.42918708132981
 20
-110.8976344361156
 30
0.0
 10
92.50115458772048
 20
-111.1569249722955
 30
0.0
 10
92.5339630663856
 20
-111.3326086931582
 30
0.0
 10
92.58793869617861
 20
-111.5717898301833
 30
0.0
 10
92.60910382869591
 20
-111.664924487702
 30
0.0
 10
92.60698832474949
 20
-111.7051432860114
 30
0.0
 10
92.5731220941112
 20
-111.7485313030192
 30
0.0
  0
SPLINE
  5
116
330
FB
100
AcDbEntity
  8
Capa 1
 62
    18
420
        0
370
     9
100
AcDbSpline
210
0.0
220
0.0
230
1.0
 70
     9
 71
     3
 72
    47
 73
    43
 74
     0
 42
0.0000000001
 43
0.0000000001
 40
0.0
 40
0.0
 40
0.0
 40
0.0
 40
1.0
 40
1.0
 40
1.0
 40
2.0
 40
2.0
 40
2.0
 40
3.0
 40
3.0
 40
3.0
 40
4.0
 40
4.0
 40
4.0
 40
5.0
 40
5.0
 40
5.0
 40
6.0
 40
6.0
 40
6.0
 40
7.0
 40
7.0
 40
7.0
 40
8.0
 40
8.0
 40
8.0
 40
9.0
 40
9.0
 40
9.0
 40
10.0
 40
10.0
 40
10.0
 40
11.0
 40
11.0
 40
11.0
 40
12.0
 40
12.0
 40
12.0
 40
13.0
 40
13.0
 40
13.0
 40
14.0
 40
14.0
 40
14.0
 40
14.0
 10
96.5474797934655
 20
-131.8298798443449
 30
0.0
 10
96.51361154421657
 20
-131.8743336877684
 30
0.0
 10
96.47339476451776
 20
-131.8849152447218
 30
0.0
 10
96.37602909910631
 20
-131.885972996695
 30
0.0
 10
96.13367066894026
 20
-131.8923235457555
 30
0.0
 10
95.95587144413119
 20
-131.8997318467892
 30
0.0
 10
95.68811283633374
 20
-131.8923235457555
 30
0.0
 10
95.58016157674769
 20
-131.8880885006414
 30
0.0
 10
95.53571177054543
 20
-131.8690408906811
 30
0.0
 10
95.36002804968278
 20
-131.730398674987
 30
0.0
 10
95.30287916397012
 20
-131.6848911168116
 30
0.0
 10
95.25102105673417
 20
-131.6446723185021
 30
0.0
 10
95.23408693210969
 20
-131.6319752576024
 30
0.0
 10
95.05734545927383
 20
-131.4933330419083
 30
0.0
 10
94.99067074997043
 20
-131.4277160845781
 30
0.0
 10
94.96421282036584
 20
-131.3239998701061
 30
0.0
 10
94.89012981002872
 20
-131.0668248378727
 30
0.0
 10
94.85626156077978
 20
-130.89114111701
 30
0.0
 10
94.80546120551702
 20
-130.6508981907903
 30
0.0
 10
94.78112079846948
 20
-130.5577635332717
 30
0.0
 10
94.78429607299972
 20
-130.5175487721836
 30
0.0
 10
94.81816230363802
 20
-130.4762722219009
 30
0.0
 10
94.85097078230312
 20
-130.428649159779
 30
0.0
 10
94.89012981002872
 20
-130.4191253547989
 30
0.0
 10
94.98643772346698
 20
-130.4191253547989
 30
0.0
 10
95.23197142816327
 20
-130.4138325577116
 30
0.0
 10
95.41082840494555
 20
-130.403246963537
 30
0.0
 10
95.678587012743
 20
-130.4138325577116
 30
0.0
 10
95.7865362537184
 20
-130.415948061658
 30
0.0
 10
95.86696981311602
 20
-130.4667484169208
 30
0.0
 10
96.04477105653572
 20
-130.6043328806417
 30
0.0
 10
96.0585278880193
 20
-130.6170299415414
 30
0.0
 10
96.11038801386591
 20
-130.6561909878777
 30
0.0
 10
96.16753689957855
 20
-130.7038140499995
 30
0.0
 10
96.34427837241442
 20
-130.8435140176668
 30
0.0
 10
96.37391157654926
 20
-130.8773822669158
 30
0.0
 10
96.4035447806841
 20
-130.9800407294145
 30
0.0
 10
96.47551228707481
 20
-131.2393312655944
 30
0.0
 10
96.50832076573991
 20
-131.4150149864571
 30
0.0
 10
96.56229639553293
 20
-131.653138371509
 30
0.0
 10
96.58346152805023
 20
-131.7462730290277
 30
0.0
 10
96.58028625351997
 20
-131.7864918273371
 30
0.0
 10
96.5474797934655
 20
-131.8298798443449
 30
0.0
  0
SPLINE
  5
117
330
FB
100
AcDbEntity
  8
Capa 1
 62
    18
420
        0
370
     9
100
AcDbSpline
210
0.0
220
0.0
230
1.0
 70
     9
 71
     3
 72
    47
 73
    43
 74
     0
 42
0.0000000001
 43
0.0000000001
 40
0.0
 40
0.0
 40
0.0
 40
0.0
 40
1.0
 40
1.0
 40
1.0
 40
2.0
 40
2.0
 40
2.0
 40
3.0
 40
3.0
 40
3.0
 40
4.0
 40
4.0
 40
4.0
 40
5.0
 40
5.0
 40
5.0
 40
6.0
 40
6.0
 40
6.0
 40
7.0
 40
7.0
 40
7.0
 40
8.0
 40
8.0
 40
8.0
 40
9.0
 40
9.0
 40
9.0
 40
10.0
 40
10.0
 40
10.0
 40
11.0
 40
11.0
 40
11.0
 40
12.0
 40
12.0
 40
12.0
 40
13.0
 40
13.0
 40
13.0
 40
14.0
 40
14.0
 40
14.0
 40
14.0
 10
96.5474797934655
 20
-127.8193244190678
 30
0.0
 10
96.51361154421657
 20
-127.8627164732969
 30
0.0
 10
96.47339476451776
 20
-127.8743598194447
 30
0.0
 10
96.37602909910631
 20
-127.8754175714179
 30
0.0
 10
96.13367066894026
 20
-127.8817681204784
 30
0.0
 10
95.95587144413119
 20
-127.8891764215121
 30
0.0
 10
95.68811283633374
 20
-127.8817681204784
 30
0.0
 10
95.58016157674769
 20
-127.8775330753643
 30
0.0
 10
95.53571177054543
 20
-127.8574277134309
 30
0.0
 10
95.36002804968278
 20
-127.7187854977368
 30
0.0
 10
95.30287916397012
 20
-127.6743356915345
 30
0.0
 10
95.25102105673417
 20
-127.6341168932251
 30
0.0
 10
95.23408693210969
 20
-127.6203580431308
 30
0.0
 10
95.05734545927383
 20
-127.481719864658
 30
0.0
 10
94.99067074997043
 20
-127.4139833661601
 30
0.0
 10
94.96421282036584
 20
-127.3113249036614
 30
0.0
 10
94.89012981002872
 20
-127.0552116606224
 30
0.0
 10
94.85626156077978
 20
-126.8784661505653
 30
0.0
 10
94.80546120551702
 20
-126.6382272615669
 30
0.0
 10
94.78112079846948
 20
-126.5440348520751
 30
0.0
 10
94.78429607299972
 20
-126.5048778429601
 30
0.0
 10
94.81816230363802
 20
-126.4636012926774
 30
0.0
 10
94.85097078230312
 20
-126.4170359825288
 30
0.0
 10
94.89012981002872
 20
-126.4053926363809
 30
0.0
 10
94.98643772346698
 20
-126.4043348844077
 30
0.0
 10
95.23197142816327
 20
-126.3990420873204
 30
0.0
 10
95.41082840494555
 20
-126.3905760343135
 30
0.0
 10
95.678587012743
 20
-126.3990420873204
 30
0.0
 10
95.7865362537184
 20
-126.4032771324345
 30
0.0
 10
95.86696981311602
 20
-126.4540774876973
 30
0.0
 10
96.04477105653572
 20
-126.5916579141969
 30
0.0
 10
96.0585278880193
 20
-126.6033012603447
 30
0.0
 10
96.11038801386591
 20
-126.6435200586542
 30
0.0
 10
96.16753689957855
 20
-126.6900853688029
 30
0.0
 10
96.34427837241442
 20
-126.8287275844969
 30
0.0
 10
96.37391157654926
 20
-126.8657690896655
 30
0.0
 10
96.4035447806841
 20
-126.9684275521643
 30
0.0
 10
96.47551228707481
 20
-127.2277180883442
 30
0.0
 10
96.50832076573991
 20
-127.4012863052604
 30
0.0
 10
96.56229639553293
 20
-127.642582946232
 30
0.0
 10
96.58346152805023
 20
-127.7357176037506
 30
0.0
 10
96.58028625351997
 20
-127.77593640206
 30
0.0
 10
96.5474797934655
 20
-127.8193244190678
 30
0.0
  0
SPLINE
  5
118
330
FB
100
AcDbEntity
  8
Capa 1
 62
    18
420
        0
370
     9
100
AcDbSpline
210
0.0
220
0.0
230
1.0
 70
     9
 71
     3
 72
    47
 73
    43
 74
     0
 42
0.0000000001
 43
0.0000000001
 40
0.0
 40
0.0
 40
0.0
 40
0.0
 40
1.0
 40
1.0
 40
1.0
 40
2.0
 40
2.0
 40
2.0
 40
3.0
 40
3.0
 40
3.0
 40
4.0
 40
4.0
 40
4.0
 40
5.0
 40
5.0
 40
5.0
 40
6.0
 40
6.0
 40
6.0
 40
7.0
 40
7.0
 40
7.0
 40
8.0
 40
8.0
 40
8.0
 40
9.0
 40
9.0
 40
9.0
 40
10.0
 40
10.0
 40
10.0
 40
11.0
 40
11.0
 40
11.0
 40
12.0
 40
12.0
 40
12.0
 40
13.0
 40
13.0
 40
13.0
 40
14.0
 40
14.0
 40
14.0
 40
14.0
 10
96.5474797934655
 20
-123.8025274497046
 30
0.0
 10
96.51361154421657
 20
-123.8459195039337
 30
0.0
 10
96.47339476451776
 20
-123.8575628500815
 30
0.0
 10
96.37602909910631
 20
-123.8575628500815
 30
0.0
 10
96.13367066894026
 20
-123.863913399142
 30
0.0
 10
95.95587144413119
 20
-123.8723794521489
 30
0.0
 10
95.68811283633374
 20
-123.863913399142
 30
0.0
 10
95.58016157674769
 20
-123.8596783540279
 30
0.0
 10
95.53571177054543
 20
-123.8406307440676
 30
0.0
 10
95.36002804968278
 20
-123.7019885283735
 30
0.0
 10
95.30287916397012
 20
-123.6564809701981
 30
0.0
 10
95.25102105673417
 20
-123.6141466679422
 30
0.0
 10
95.23408693210969
 20
-123.6035610737676
 30
0.0
 10
95.05734545927383
 20
-123.4649228952948
 30
0.0
 10
94.99067074997043
 20
-123.3971863967969
 30
0.0
 10
94.96421282036584
 20
-123.2945279342982
 30
0.0
 10
94.89012981002872
 20
-123.0362951500915
 30
0.0
 10
94.85626156077978
 20
-122.861669181202
 30
0.0
 10
94.80546120551702
 20
-122.6214302922036
 30
0.0
 10
94.78112079846948
 20
-122.5272378827118
 30
0.0
 10
94.78429607299972
 20
-122.4880808735969
 30
0.0
 10
94.81816230363802
 20
-122.4446888193678
 30
0.0
 10
94.85097078230312
 20
-122.3991812611923
 30
0.0
 10
94.89012981002872
 20
-122.3885956670177
 30
0.0
 10
94.98643772346698
 20
-122.3875379150445
 30
0.0
 10
95.23197142816327
 20
-122.3822451179572
 30
0.0
 10
95.41082840494555
 20
-122.3737790649503
 30
0.0
 10
95.678587012743
 20
-122.3822451179572
 30
0.0
 10
95.7865362537184
 20
-122.3854224110981
 30
0.0
 10
95.86696981311602
 20
-122.4362227663609
 30
0.0
 10
96.04477105653572
 20
-122.5727454408873
 30
0.0
 10
96.0585278880193
 20
-122.5854465390083
 30
0.0
 10
96.11038801386591
 20
-122.626723089291
 30
0.0
 10
96.16753689957855
 20
-122.6722306474664
 30
0.0
 10
96.34427837241442
 20
-122.8119306151337
 30
0.0
 10
96.37391157654926
 20
-122.8479143683291
 30
0.0
 10
96.4035447806841
 20
-122.9505728308278
 30
0.0
 10
96.47551228707481
 20
-123.2098633670077
 30
0.0
 10
96.50832076573991
 20
-123.3855470878704
 30
0.0
 10
96.56229639553293
 20
-123.6247282248955
 30
0.0
 10
96.58346152805023
 20
-123.7189206343874
 30
0.0
 10
96.58028625351997
 20
-123.7580776435023
 30
0.0
 10
96.5474797934655
 20
-123.8025274497046
 30
0.0
  0
SPLINE
  5
119
330
FB
100
AcDbEntity
  8
Capa 1
 62
    18
420
        0
370
     9
100
AcDbSpline
210
0.0
220
0.0
230
1.0
 70
     9
 71
     3
 72
    47
 73
    43
 74
     0
 42
0.0000000001
 43
0.0000000001
 40
0.0
 40
0.0
 40
0.0
 40
0.0
 40
1.0
 40
1.0
 40
1.0
 40
2.0
 40
2.0
 40
2.0
 40
3.0
 40
3.0
 40
3.0
 40
4.0
 40
4.0
 40
4.0
 40
5.0
 40
5.0
 40
5.0
 40
6.0
 40
6.0
 40
6.0
 40
7.0
 40
7.0
 40
7.0
 40
8.0
 40
8.0
 40
8.0
 40
9.0
 40
9.0
 40
9.0
 40
10.0
 40
10.0
 40
10.0
 40
11.0
 40
11.0
 40
11.0
 40
12.0
 40
12.0
 40
12.0
 40
13.0
 40
13.0
 40
13.0
 40
14.0
 40
14.0
 40
14.0
 40
14.0
 10
100.5218415300411
 20
-127.8193244190678
 30
0.0
 10
100.4879732807921
 20
-127.8627164732969
 30
0.0
 10
100.4477544824827
 20
-127.8743598194447
 30
0.0
 10
100.3503888170712
 20
-127.8754175714179
 30
0.0
 10
100.1080303869052
 20
-127.8817681204784
 30
0.0
 10
99.93023116209613
 20
-127.8891764215121
 30
0.0
 10
99.66247457290933
 20
-127.8817681204784
 30
0.0
 10
99.55452331332329
 20
-127.8775330753643
 30
0.0
 10
99.51007350712103
 20
-127.8574277134309
 30
0.0
 10
99.33438978625837
 20
-127.7187854977368
 30
0.0
 10
99.27723888193508
 20
-127.6743356915345
 30
0.0
 10
99.2253807746991
 20
-127.6341168932251
 30
0.0
 10
99.20739091671208
 20
-127.6203580431308
 30
0.0
 10
99.03170719584942
 20
-127.481719864658
 30
0.0
 10
98.96503248654601
 20
-127.4139833661601
 30
0.0
 10
98.93857253833079
 20
-127.3113249036614
 30
0.0
 10
98.86448952799367
 20
-127.0552116606224
 30
0.0
 10
98.83062127874474
 20
-126.8784661505653
 30
0.0
 10
98.77982092348197
 20
-126.6382272615669
 30
0.0
 10
98.75548051643441
 20
-126.5440348520751
 30
0.0
 10
98.75865780957532
 20
-126.5048778429601
 30
0.0
 10
98.79252202160298
 20
-126.4636012926774
 30
0.0
 10
98.82533251887871
 20
-126.4170359825288
 30
0.0
 10
98.86448952799367
 20
-126.4053926363809
 30
0.0
 10
98.96079744143193
 20
-126.4043348844077
 30
0.0
 10
99.20633316473887
 20
-126.3990420873204
 30
0.0
 10
99.38519014152113
 20
-126.3905760343135
 30
0.0
 10
99.65294673070793
 20
-126.3990420873204
 30
0.0
 10
99.76089799029399
 20
-126.4032771324345
 30
0.0
 10
99.8413315496916
 20
-126.4540774876973
 30
0.0
 10
100.0191307745006
 20
-126.5916579141969
 30
0.0
 10
100.0328896245949
 20
-126.6033012603447
 30
0.0
 10
100.0847477318308
 20
-126.6435200586542
 30
0.0
 10
100.1418986361541
 20
-126.6900853688029
 30
0.0
 10
100.31864010899
 20
-126.8287275844969
 30
0.0
 10
100.3482733131248
 20
-126.8657690896655
 30
0.0
 10
100.3779065172597
 20
-126.9684275521643
 30
0.0
 10
100.4498740236503
 20
-127.2277180883442
 30
0.0
 10
100.4826804837048
 20
-127.4012863052604
 30
0.0
 10
100.5366581321085
 20
-127.642582946232
 30
0.0
 10
100.5578212460151
 20
-127.7357176037506
 30
0.0
 10
100.5546479900955
 20
-127.77593640206
 30
0.0
 10
100.5218415300411
 20
-127.8193244190678
 30
0.0
  0
SPLINE
  5
11A
330
FB
100
AcDbEntity
  8
Capa 1
 62
    18
420
        0
370
     9
100
AcDbSpline
210
0.0
220
0.0
230
1.0
 70
     9
 71
     3
 72
    47
 73
    43
 74
     0
 42
0.0000000001
 43
0.0000000001
 40
0.0
 40
0.0
 40
0.0
 40
0.0
 40
1.0
 40
1.0
 40
1.0
 40
2.0
 40
2.0
 40
2.0
 40
3.0
 40
3.0
 40
3.0
 40
4.0
 40
4.0
 40
4.0
 40
5.0
 40
5.0
 40
5.0
 40
6.0
 40
6.0
 40
6.0
 40
7.0
 40
7.0
 40
7.0
 40
8.0
 40
8.0
 40
8.0
 40
9.0
 40
9.0
 40
9.0
 40
10.0
 40
10.0
 40
10.0
 40
11.0
 40
11.0
 40
11.0
 40
12.0
 40
12.0
 40
12.0
 40
13.0
 40
13.0
 40
13.0
 40
14.0
 40
14.0
 40
14.0
 40
14.0
 10
96.5474797934655
 20
-115.7655422451098
 30
0.0
 10
96.51361154421657
 20
-115.8099960885334
 30
0.0
 10
96.47339476451776
 20
-115.8205776454867
 30
0.0
 10
96.37602909910631
 20
-115.8216353974599
 30
0.0
 10
96.13367066894026
 20
-115.8279859465204
 30
0.0
 10
95.95587144413119
 20
-115.8353942475541
 30
0.0
 10
95.68811283633374
 20
-115.8279859465204
 30
0.0
 10
95.58016157674769
 20
-115.8237509014063
 30
0.0
 10
95.53571177054543
 20
-115.8047032914461
 30
0.0
 10
95.36002804968278
 20
-115.6671188277252
 30
0.0
 10
95.30287916397012
 20
-115.6205535175765
 30
0.0
 10
95.25102105673417
 20
-115.5803347192671
 30
0.0
 10
95.23408693210969
 20
-115.5676376583673
 30
0.0
 10
95.05734545927383
 20
-115.4279376907
 30
0.0
 10
94.99067074997043
 20
-115.3623207333698
 30
0.0
 10
94.96421282036584
 20
-115.2586045188979
 30
0.0
 10
94.89012981002872
 20
-115.0014294866644
 30
0.0
 10
94.85626156077978
 20
-114.8257457658017
 30
0.0
 10
94.80546120551702
 20
-114.5844450876089
 30
0.0
 10
94.78112079846948
 20
-114.490252678117
 30
0.0
 10
94.78429607299972
 20
-114.4510956690021
 30
0.0
 10
94.81816230363802
 20
-114.4098191187195
 30
0.0
 10
94.85097078230312
 20
-114.3621960565976
 30
0.0
 10
94.89012981002872
 20
-114.3526682143962
 30
0.0
 10
94.98643772346698
 20
-114.3526682143962
 30
0.0
 10
95.23197142816327
 20
-114.3473794545301
 30
0.0
 10
95.41082840494555
 20
-114.3367938603555
 30
0.0
 10
95.678587012743
 20
-114.3473794545301
 30
0.0
 10
95.7865362537184
 20
-114.3494949584765
 30
0.0
 10
95.86696981311602
 20
-114.4002953137393
 30
0.0
 10
96.04477105653572
 20
-114.5378757402389
 30
0.0
 10
96.0585278880193
 20
-114.55057683836
 30
0.0
 10
96.11038801386591
 20
-114.5897378846962
 30
0.0
 10
96.16753689957855
 20
-114.6363031948449
 30
0.0
 10
96.34427837241442
 20
-114.7760031625122
 30
0.0
 10
96.37391157654926
 20
-114.8119869157075
 30
0.0
 10
96.4035447806841
 20
-114.9146453782063
 30
0.0
 10
96.47551228707481
 20
-115.1739359143862
 30
0.0
 10
96.50832076573991
 20
-115.3496196352488
 30
0.0
 10
96.56229639553293
 20
-115.588800772274
 30
0.0
 10
96.58346152805023
 20
-115.6819354297926
 30
0.0
 10
96.58028625351997
 20
-115.7221542281021
 30
0.0
 10
96.5474797934655
 20
-115.7655422451098
 30
0.0
  0
SPLINE
  5
11B
330
FB
100
AcDbEntity
  8
Capa 1
 62
    18
420
        0
370
     9
100
AcDbSpline
210
0.0
220
0.0
230
1.0
 70
     9
 71
     3
 72
    47
 73
    43
 74
     0
 42
0.0000000001
 43
0.0000000001
 40
0.0
 40
0.0
 40
0.0
 40
0.0
 40
1.0
 40
1.0
 40
1.0
 40
2.0
 40
2.0
 40
2.0
 40
3.0
 40
3.0
 40
3.0
 40
4.0
 40
4.0
 40
4.0
 40
5.0
 40
5.0
 40
5.0
 40
6.0
 40
6.0
 40
6.0
 40
7.0
 40
7.0
 40
7.0
 40
8.0
 40
8.0
 40
8.0
 40
9.0
 40
9.0
 40
9.0
 40
10.0
 40
10.0
 40
10.0
 40
11.0
 40
11.0
 40
11.0
 40
12.0
 40
12.0
 40
12.0
 40
13.0
 40
13.0
 40
13.0
 40
14.0
 40
14.0
 40
14.0
 40
14.0
 10
96.5474797934655
 20
-111.7485313030192
 30
0.0
 10
96.51361154421657
 20
-111.7919233572483
 30
0.0
 10
96.47339476451776
 20
-111.8035667033961
 30
0.0
 10
96.37602909910631
 20
-111.8046244553693
 30
0.0
 10
96.13367066894026
 20
-111.8109750044298
 30
0.0
 10
95.95587144413119
 20
-111.8183833054635
 30
0.0
 10
95.68811283633374
 20
-111.8109750044298
 30
0.0
 10
95.58016157674769
 20
-111.8067399593157
 30
0.0
 10
95.53571177054543
 20
-111.7866345973822
 30
0.0
 10
95.36002804968278
 20
-111.6479923816881
 30
0.0
 10
95.30287916397012
 20
-111.6035425754859
 30
0.0
 10
95.25102105673417
 20
-111.5633237771764
 30
0.0
 10
95.23408693210969
 20
-111.5495649270822
 30
0.0
 10
95.05734545927383
 20
-111.4109267486094
 30
0.0
 10
94.99067074997043
 20
-111.3453097912792
 30
0.0
 10
94.96421282036584
 20
-111.2415935768072
 30
0.0
 10
94.89012981002872
 20
-110.9833567553793
 30
0.0
 10
94.85626156077978
 20
-110.8087348237111
 30
0.0
 10
94.80546120551702
 20
-110.5674341455183
 30
0.0
 10
94.78112079846948
 20
-110.4732417360264
 30
0.0
 10
94.78429607299972
 20
-110.4340847269114
 30
0.0
 10
94.81816230363802
 20
-110.3928081766288
 30
0.0
 10
94.85097078230312
 20
-110.3462428664801
 30
0.0
 10
94.89012981002872
 20
-110.3345995203323
 30
0.0
 10
94.98643772346698
 20
-110.3335417683591
 30
0.0
 10
95.23197142816327
 20
-110.3282489712718
 30
0.0
 10
95.41082840494555
 20
-110.3197829182649
 30
0.0
 10
95.678587012743
 20
-110.3282489712718
 30
0.0
 10
95.7865362537184
 20
-110.3324840163859
 30
0.0
 10
95.86696981311602
 20
-110.3832843716487
 30
0.0
 10
96.04477105653572
 20
-110.5208647981483
 30
0.0
 10
96.0585278880193
 20
-110.5325081442961
 30
0.0
 10
96.11038801386591
 20
-110.5727269426056
 30
0.0
 10
96.16753689957855
 20
-110.6192922527542
 30
0.0
 10
96.34427837241442
 20
-110.7589922204215
 30
0.0
 10
96.37391157654926
 20
-110.7949759736169
 30
0.0
 10
96.4035447806841
 20
-110.8976344361156
 30
0.0
 10
96.47551228707481
 20
-111.1569249722955
 30
0.0
 10
96.50832076573991
 20
-111.3326086931582
 30
0.0
 10
96.56229639553293
 20
-111.5717898301833
 30
0.0
 10
96.58346152805023
 20
-111.664924487702
 30
0.0
 10
96.58028625351997
 20
-111.7051432860114
 30
0.0
 10
96.5474797934655
 20
-111.7485313030192
 30
0.0
  0
SPLINE
  5
11C
330
FB
100
AcDbEntity
  8
Capa 1
 62
    18
420
        0
370
     9
100
AcDbSpline
210
0.0
220
0.0
230
1.0
 70
     9
 71
     3
 72
    47
 73
    43
 74
     0
 42
0.0000000001
 43
0.0000000001
 40
0.0
 40
0.0
 40
0.0
 40
0.0
 40
1.0
 40
1.0
 40
1.0
 40
2.0
 40
2.0
 40
2.0
 40
3.0
 40
3.0
 40
3.0
 40
4.0
 40
4.0
 40
4.0
 40
5.0
 40
5.0
 40
5.0
 40
6.0
 40
6.0
 40
6.0
 40
7.0
 40
7.0
 40
7.0
 40
8.0
 40
8.0
 40
8.0
 40
9.0
 40
9.0
 40
9.0
 40
10.0
 40
10.0
 40
10.0
 40
11.0
 40
11.0
 40
11.0
 40
12.0
 40
12.0
 40
12.0
 40
13.0
 40
13.0
 40
13.0
 40
14.0
 40
14.0
 40
14.0
 40
14.0
 10
100.5212036490801
 20
-119.7839298796542
 30
0.0
 10
100.4873353998312
 20
-119.8273219338832
 30
0.0
 10
100.4471166015217
 20
-119.838965280031
 30
0.0
 10
100.3497509361103
 20
-119.8400230320042
 30
0.0
 10
100.1073925059442
 20
-119.8463735810647
 30
0.0
 10
99.92959328113521
 20
-119.8537818820984
 30
0.0
 10
99.6618366919484
 20
-119.8463735810647
 30
0.0
 10
99.55388543236233
 20
-119.8410807839774
 30
0.0
 10
99.50943562616007
 20
-119.8220331740172
 30
0.0
 10
99.33375190529742
 20
-119.6833909583231
 30
0.0
 10
99.27660100097414
 20
-119.6378834001476
 30
0.0
 10
99.22474289373816
 20
-119.5987223538114
 30
0.0
 10
99.20781078772433
 20
-119.5849635037172
 30
0.0
 10
99.03318481883488
 20
-119.4463253252443
 30
0.0
 10
98.96439460558507
 20
-119.3807083679141
 30
0.0
 10
98.93581915342345
 20
-119.2759303642477
 30
0.0
 10
98.86385164703273
 20
-119.0198171212087
 30
0.0
 10
98.8299833977838
 20
-118.844133400346
 30
0.0
 10
98.77706753857461
 20
-118.6028327221532
 30
0.0
 10
98.75484263547349
 20
-118.5086403126614
 30
0.0
 10
98.75801992861436
 20
-118.4694833035464
 30
0.0
 10
98.79294189261523
 20
-118.4282067532637
 30
0.0
 10
98.82469463791778
 20
-118.3816414431151
 30
0.0
 10
98.86385164703273
 20
-118.3710558489405
 30
0.0
 10
98.96015956047097
 20
-118.3689403449941
 30
0.0
 10
99.20569528377791
 20
-118.36470529988
 30
0.0
 10
99.38455226056019
 20
-118.3551814948998
 30
0.0
 10
99.65230884974701
 20
-118.36470529988
 30
0.0
 10
99.76026010933304
 20
-118.3678825930209
 30
0.0
 10
99.84069366873066
 20
-118.4176251963104
 30
0.0
 10
100.0184928935397
 20
-118.5562633747832
 30
0.0
 10
100.0322517436339
 20
-118.567906720931
 30
0.0
 10
100.0841098508699
 20
-118.6081255192405
 30
0.0
 10
100.1412607551932
 20
-118.6546908293892
 30
0.0
 10
100.318002228029
 20
-118.7943907970565
 30
0.0
 10
100.3476354321639
 20
-118.8293167982786
 30
0.0
 10
100.3772686362987
 20
-118.9330330127506
 30
0.0
 10
100.4492361426894
 20
-119.1912657969573
 30
0.0
 10
100.4820426027439
 20
-119.3680072697931
 30
0.0
 10
100.5360202511475
 20
-119.6071884068183
 30
0.0
 10
100.5571833650542
 20
-119.7003230643369
 30
0.0
 10
100.5550678611078
 20
-119.7405418626463
 30
0.0
 10
100.5212036490801
 20
-119.7839298796542
 30
0.0
  0
SPLINE
  5
11D
330
FB
100
AcDbEntity
  8
Capa 1
 62
    18
420
        0
370
     9
100
AcDbSpline
210
0.0
220
0.0
230
1.0
 70
     9
 71
     3
 72
    47
 73
    43
 74
     0
 42
0.0000000001
 43
0.0000000001
 40
0.0
 40
0.0
 40
0.0
 40
0.0
 40
1.0
 40
1.0
 40
1.0
 40
2.0
 40
2.0
 40
2.0
 40
3.0
 40
3.0
 40
3.0
 40
4.0
 40
4.0
 40
4.0
 40
5.0
 40
5.0
 40
5.0
 40
6.0
 40
6.0
 40
6.0
 40
7.0
 40
7.0
 40
7.0
 40
8.0
 40
8.0
 40
8.0
 40
9.0
 40
9.0
 40
9.0
 40
10.0
 40
10.0
 40
10.0
 40
11.0
 40
11.0
 40
11.0
 40
12.0
 40
12.0
 40
12.0
 40
13.0
 40
13.0
 40
13.0
 40
14.0
 40
14.0
 40
14.0
 40
14.0
 10
100.5212036490801
 20
-115.7655422451098
 30
0.0
 10
100.4873353998312
 20
-115.8099960885334
 30
0.0
 10
100.4471166015217
 20
-115.8205776454867
 30
0.0
 10
100.3497509361103
 20
-115.8216353974599
 30
0.0
 10
100.1073925059442
 20
-115.8279859465204
 30
0.0
 10
99.92959328113521
 20
-115.8353942475541
 30
0.0
 10
99.6618366919484
 20
-115.8279859465204
 30
0.0
 10
99.55388543236233
 20
-115.8237509014063
 30
0.0
 10
99.50943562616007
 20
-115.8047032914461
 30
0.0
 10
99.33375190529742
 20
-115.6671188277252
 30
0.0
 10
99.27660100097414
 20
-115.6205535175765
 30
0.0
 10
99.22474289373816
 20
-115.5803347192671
 30
0.0
 10
99.20781078772433
 20
-115.5676376583673
 30
0.0
 10
99.03318481883488
 20
-115.4279376907
 30
0.0
 10
98.96439460558507
 20
-115.3623207333698
 30
0.0
 10
98.93581915342345
 20
-115.2586045188979
 30
0.0
 10
98.86385164703273
 20
-115.0014294866644
 30
0.0
 10
98.8299833977838
 20
-114.8257457658017
 30
0.0
 10
98.77706753857461
 20
-114.5844450876089
 30
0.0
 10
98.75484263547349
 20
-114.490252678117
 30
0.0
 10
98.75801992861436
 20
-114.4510956690021
 30
0.0
 10
98.79294189261523
 20
-114.4098191187195
 30
0.0
 10
98.82469463791778
 20
-114.3621960565976
 30
0.0
 10
98.86385164703273
 20
-114.3526682143962
 30
0.0
 10
98.96015956047097
 20
-114.3526682143962
 30
0.0
 10
99.20569528377791
 20
-114.3473794545301
 30
0.0
 10
99.38455226056019
 20
-114.3367938603555
 30
0.0
 10
99.65230884974701
 20
-114.3473794545301
 30
0.0
 10
99.76026010933304
 20
-114.3494949584765
 30
0.0
 10
99.84069366873066
 20
-114.4002953137393
 30
0.0
 10
100.0184928935397
 20
-114.5378757402389
 30
0.0
 10
100.0322517436339
 20
-114.55057683836
 30
0.0
 10
100.0841098508699
 20
-114.5897378846962
 30
0.0
 10
100.1412607551932
 20
-114.6363031948449
 30
0.0
 10
100.318002228029
 20
-114.7760031625122
 30
0.0
 10
100.3476354321639
 20
-114.8119869157075
 30
0.0
 10
100.3772686362987
 20
-114.9146453782063
 30
0.0
 10
100.4492361426894
 20
-115.1739359143862
 30
0.0
 10
100.4820426027439
 20
-115.3496196352488
 30
0.0
 10
100.5360202511475
 20
-115.588800772274
 30
0.0
 10
100.5571833650542
 20
-115.6819354297926
 30
0.0
 10
100.5550678611078
 20
-115.7221542281021
 30
0.0
 10
100.5212036490801
 20
-115.7655422451098
 30
0.0
  0
SPLINE
  5
11E
330
FB
100
AcDbEntity
  8
Capa 1
 62
    18
420
        0
370
     9
100
AcDbSpline
210
0.0
220
0.0
230
1.0
 70
     9
 71
     3
 72
    47
 73
    43
 74
     0
 42
0.0000000001
 43
0.0000000001
 40
0.0
 40
0.0
 40
0.0
 40
0.0
 40
1.0
 40
1.0
 40
1.0
 40
2.0
 40
2.0
 40
2.0
 40
3.0
 40
3.0
 40
3.0
 40
4.0
 40
4.0
 40
4.0
 40
5.0
 40
5.0
 40
5.0
 40
6.0
 40
6.0
 40
6.0
 40
7.0
 40
7.0
 40
7.0
 40
8.0
 40
8.0
 40
8.0
 40
9.0
 40
9.0
 40
9.0
 40
10.0
 40
10.0
 40
10.0
 40
11.0
 40
11.0
 40
11.0
 40
12.0
 40
12.0
 40
12.0
 40
13.0
 40
13.0
 40
13.0
 40
14.0
 40
14.0
 40
14.0
 40
14.0
 10
100.5212036490801
 20
-111.7485313030192
 30
0.0
 10
100.4873353998312
 20
-111.7919233572483
 30
0.0
 10
100.4471166015217
 20
-111.8035667033961
 30
0.0
 10
100.3497509361103
 20
-111.8046244553693
 30
0.0
 10
100.1073925059442
 20
-111.8109750044298
 30
0.0
 10
99.92959328113521
 20
-111.8183833054635
 30
0.0
 10
99.6618366919484
 20
-111.8109750044298
 30
0.0
 10
99.55388543236233
 20
-111.8067399593157
 30
0.0
 10
99.50943562616007
 20
-111.7866345973822
 30
0.0
 10
99.33375190529742
 20
-111.6479923816881
 30
0.0
 10
99.27660100097414
 20
-111.6035425754859
 30
0.0
 10
99.22474289373816
 20
-111.5633237771764
 30
0.0
 10
99.20781078772433
 20
-111.5495649270822
 30
0.0
 10
99.03318481883488
 20
-111.4109267486094
 30
0.0
 10
98.96439460558507
 20
-111.3453097912792
 30
0.0
 10
98.93581915342345
 20
-111.2415935768072
 30
0.0
 10
98.86385164703273
 20
-110.9833567553793
 30
0.0
 10
98.8299833977838
 20
-110.8087348237111
 30
0.0
 10
98.77706753857461
 20
-110.5674341455183
 30
0.0
 10
98.75484263547349
 20
-110.4732417360264
 30
0.0
 10
98.75801992861436
 20
-110.4340847269114
 30
0.0
 10
98.79294189261523
 20
-110.3928081766288
 30
0.0
 10
98.82469463791778
 20
-110.3462428664801
 30
0.0
 10
98.86385164703273
 20
-110.3345995203323
 30
0.0
 10
98.96015956047097
 20
-110.3335417683591
 30
0.0
 10
99.20569528377791
 20
-110.3282489712718
 30
0.0
 10
99.38455226056019
 20
-110.3197829182649
 30
0.0
 10
99.65230884974701
 20
-110.3282489712718
 30
0.0
 10
99.76026010933304
 20
-110.3324840163859
 30
0.0
 10
99.84069366873066
 20
-110.3832843716487
 30
0.0
 10
100.0184928935397
 20
-110.5208647981483
 30
0.0
 10
100.0322517436339
 20
-110.5325081442961
 30
0.0
 10
100.0841098508699
 20
-110.5727269426056
 30
0.0
 10
100.1412607551932
 20
-110.6192922527542
 30
0.0
 10
100.318002228029
 20
-110.7589922204215
 30
0.0
 10
100.3476354321639
 20
-110.7949759736169
 30
0.0
 10
100.3772686362987
 20
-110.8976344361156
 30
0.0
 10
100.4492361426894
 20
-111.1569249722955
 30
0.0
 10
100.4820426027439
 20
-111.3326086931582
 30
0.0
 10
100.5360202511475
 20
-111.5717898301833
 30
0.0
 10
100.5571833650542
 20
-111.664924487702
 30
0.0
 10
100.5550678611078
 20
-111.7051432860114
 30
0.0
 10
100.5212036490801
 20
-111.7485313030192
 30
0.0
  0
SPLINE
  5
11F
330
FB
100
AcDbEntity
  8
Capa 1
 62
    18
420
        0
370
     9
100
AcDbSpline
210
0.0
220
0.0
230
1.0
 70
     9
 71
     3
 72
    47
 73
    43
 74
     0
 42
0.0000000001
 43
0.0000000001
 40
0.0
 40
0.0
 40
0.0
 40
0.0
 40
1.0
 40
1.0
 40
1.0
 40
2.0
 40
2.0
 40
2.0
 40
3.0
 40
3.0
 40
3.0
 40
4.0
 40
4.0
 40
4.0
 40
5.0
 40
5.0
 40
5.0
 40
6.0
 40
6.0
 40
6.0
 40
7.0
 40
7.0
 40
7.0
 40
8.0
 40
8.0
 40
8.0
 40
9.0
 40
9.0
 40
9.0
 40
10.0
 40
10.0
 40
10.0
 40
11.0
 40
11.0
 40
11.0
 40
12.0
 40
12.0
 40
12.0
 40
13.0
 40
13.0
 40
13.0
 40
14.0
 40
14.0
 40
14.0
 40
14.0
 10
104.4955653856557
 20
-119.7839298796542
 30
0.0
 10
104.4616971364068
 20
-119.8273219338832
 30
0.0
 10
104.4214783380973
 20
-119.838965280031
 30
0.0
 10
104.3241126726859
 20
-119.8400230320042
 30
0.0
 10
104.0817542425198
 20
-119.8463735810647
 30
0.0
 10
103.9039550177107
 20
-119.8537818820984
 30
0.0
 10
103.6361984285239
 20
-119.8463735810647
 30
0.0
 10
103.5282471689379
 20
-119.8410807839774
 30
0.0
 10
103.4837973627356
 20
-119.8220331740172
 30
0.0
 10
103.308113641873
 20
-119.6833909583231
 30
0.0
 10
103.2509627375497
 20
-119.6378834001476
 30
0.0
 10
103.1991046303137
 20
-119.5987223538114
 30
0.0
 10
103.1821725242999
 20
-119.5849635037172
 30
0.0
 10
103.0075465554104
 20
-119.4463253252443
 30
0.0
 10
102.9387563421606
 20
-119.3807083679141
 30
0.0
 10
102.9122963939454
 20
-119.2759303642477
 30
0.0
 10
102.8382133836083
 20
-119.0198171212087
 30
0.0
 10
102.8043451343594
 20
-118.844133400346
 30
0.0
 10
102.7535447790966
 20
-118.6028327221532
 30
0.0
 10
102.729204372049
 20
-118.5086403126614
 30
0.0
 10
102.7323816651899
 20
-118.4694833035464
 30
0.0
 10
102.7662458772176
 20
-118.4282067532637
 30
0.0
 10
102.7990563744933
 20
-118.3816414431151
 30
0.0
 10
102.8382133836083
 20
-118.3710558489405
 30
0.0
 10
102.9345212970465
 20
-118.3689403449941
 30
0.0
 10
103.1800570203535
 20
-118.36470529988
 30
0.0
 10
103.3589139971357
 20
-118.3551814948998
 30
0.0
 10
103.6266705863226
 20
-118.36470529988
 30
0.0
 10
103.7346218459086
 20
-118.3678825930209
 30
0.0
 10
103.8150554053062
 20
-118.4176251963104
 30
0.0
 10
103.9928546301153
 20
-118.5562633747832
 30
0.0
 10
104.0066134802095
 20
-118.567906720931
 30
0.0
 10
104.0584715874455
 20
-118.6081255192405
 30
0.0
 10
104.1156224917688
 20
-118.6546908293892
 30
0.0
 10
104.2923639646046
 20
-118.7943907970565
 30
0.0
 10
104.3219971687395
 20
-118.8293167982786
 30
0.0
 10
104.3516303728743
 20
-118.9330330127506
 30
0.0
 10
104.423597879265
 20
-119.1912657969573
 30
0.0
 10
104.4564043393195
 20
-119.3680072697931
 30
0.0
 10
104.5103819877231
 20
-119.6071884068183
 30
0.0
 10
104.5315451016298
 20
-119.7003230643369
 30
0.0
 10
104.5294295976834
 20
-119.7405418626463
 30
0.0
 10
104.4955653856557
 20
-119.7839298796542
 30
0.0
  0
SPLINE
  5
120
330
FB
100
AcDbEntity
  8
Capa 1
 62
    18
420
        0
370
     9
100
AcDbSpline
210
0.0
220
0.0
230
1.0
 70
     9
 71
     3
 72
    47
 73
    43
 74
     0
 42
0.0000000001
 43
0.0000000001
 40
0.0
 40
0.0
 40
0.0
 40
0.0
 40
1.0
 40
1.0
 40
1.0
 40
2.0
 40
2.0
 40
2.0
 40
3.0
 40
3.0
 40
3.0
 40
4.0
 40
4.0
 40
4.0
 40
5.0
 40
5.0
 40
5.0
 40
6.0
 40
6.0
 40
6.0
 40
7.0
 40
7.0
 40
7.0
 40
8.0
 40
8.0
 40
8.0
 40
9.0
 40
9.0
 40
9.0
 40
10.0
 40
10.0
 40
10.0
 40
11.0
 40
11.0
 40
11.0
 40
12.0
 40
12.0
 40
12.0
 40
13.0
 40
13.0
 40
13.0
 40
14.0
 40
14.0
 40
14.0
 40
14.0
 10
104.4955653856557
 20
-115.7655422451098
 30
0.0
 10
104.4616971364068
 20
-115.8099960885334
 30
0.0
 10
104.4214783380973
 20
-115.8205776454867
 30
0.0
 10
104.3241126726859
 20
-115.8216353974599
 30
0.0
 10
104.0817542425198
 20
-115.8279859465204
 30
0.0
 10
103.9039550177107
 20
-115.8353942475541
 30
0.0
 10
103.6361984285239
 20
-115.8279859465204
 30
0.0
 10
103.5282471689379
 20
-115.8237509014063
 30
0.0
 10
103.4837973627356
 20
-115.8047032914461
 30
0.0
 10
103.308113641873
 20
-115.6671188277252
 30
0.0
 10
103.2509627375497
 20
-115.6205535175765
 30
0.0
 10
103.1991046303137
 20
-115.5803347192671
 30
0.0
 10
103.1821725242999
 20
-115.5676376583673
 30
0.0
 10
103.0075465554104
 20
-115.4279376907
 30
0.0
 10
102.9387563421606
 20
-115.3623207333698
 30
0.0
 10
102.9122963939454
 20
-115.2586045188979
 30
0.0
 10
102.8382133836083
 20
-115.0014294866644
 30
0.0
 10
102.8043451343594
 20
-114.8257457658017
 30
0.0
 10
102.7535447790966
 20
-114.5844450876089
 30
0.0
 10
102.729204372049
 20
-114.490252678117
 30
0.0
 10
102.7323816651899
 20
-114.4510956690021
 30
0.0
 10
102.7662458772176
 20
-114.4098191187195
 30
0.0
 10
102.7990563744933
 20
-114.3621960565976
 30
0.0
 10
102.8382133836083
 20
-114.3526682143962
 30
0.0
 10
102.9345212970465
 20
-114.3526682143962
 30
0.0
 10
103.1800570203535
 20
-114.3473794545301
 30
0.0
 10
103.3589139971357
 20
-114.3367938603555
 30
0.0
 10
103.6266705863226
 20
-114.3473794545301
 30
0.0
 10
103.7346218459086
 20
-114.3494949584765
 30
0.0
 10
103.8150554053062
 20
-114.4002953137393
 30
0.0
 10
103.9928546301153
 20
-114.5378757402389
 30
0.0
 10
104.0066134802095
 20
-114.55057683836
 30
0.0
 10
104.0584715874455
 20
-114.5897378846962
 30
0.0
 10
104.1156224917688
 20
-114.6363031948449
 30
0.0
 10
104.2923639646046
 20
-114.7760031625122
 30
0.0
 10
104.3219971687395
 20
-114.8119869157075
 30
0.0
 10
104.3516303728743
 20
-114.9146453782063
 30
0.0
 10
104.423597879265
 20
-115.1739359143862
 30
0.0
 10
104.4564043393195
 20
-115.3496196352488
 30
0.0
 10
104.5103819877231
 20
-115.588800772274
 30
0.0
 10
104.5315451016298
 20
-115.6819354297926
 30
0.0
 10
104.5294295976834
 20
-115.7221542281021
 30
0.0
 10
104.4955653856557
 20
-115.7655422451098
 30
0.0
  0
SPLINE
  5
121
330
FB
100
AcDbEntity
  8
Capa 1
 62
    18
420
        0
370
     9
100
AcDbSpline
210
0.0
220
0.0
230
1.0
 70
     9
 71
     3
 72
    47
 73
    43
 74
     0
 42
0.0000000001
 43
0.0000000001
 40
0.0
 40
0.0
 40
0.0
 40
0.0
 40
1.0
 40
1.0
 40
1.0
 40
2.0
 40
2.0
 40
2.0
 40
3.0
 40
3.0
 40
3.0
 40
4.0
 40
4.0
 40
4.0
 40
5.0
 40
5.0
 40
5.0
 40
6.0
 40
6.0
 40
6.0
 40
7.0
 40
7.0
 40
7.0
 40
8.0
 40
8.0
 40
8.0
 40
9.0
 40
9.0
 40
9.0
 40
10.0
 40
10.0
 40
10.0
 40
11.0
 40
11.0
 40
11.0
 40
12.0
 40
12.0
 40
12.0
 40
13.0
 40
13.0
 40
13.0
 40
14.0
 40
14.0
 40
14.0
 40
14.0
 10
104.4955653856557
 20
-111.7485313030192
 30
0.0
 10
104.4616971364068
 20
-111.7919233572483
 30
0.0
 10
104.4214783380973
 20
-111.8035667033961
 30
0.0
 10
104.3241126726859
 20
-111.8046244553693
 30
0.0
 10
104.0817542425198
 20
-111.8109750044298
 30
0.0
 10
103.9039550177107
 20
-111.8183833054635
 30
0.0
 10
103.6361984285239
 20
-111.8109750044298
 30
0.0
 10
103.5282471689379
 20
-111.8067399593157
 30
0.0
 10
103.4837973627356
 20
-111.7866345973822
 30
0.0
 10
103.308113641873
 20
-111.6479923816881
 30
0.0
 10
103.2509627375497
 20
-111.6035425754859
 30
0.0
 10
103.1991046303137
 20
-111.5633237771764
 30
0.0
 10
103.1821725242999
 20
-111.5495649270822
 30
0.0
 10
103.0075465554104
 20
-111.4109267486094
 30
0.0
 10
102.9387563421606
 20
-111.3453097912792
 30
0.0
 10
102.9122963939454
 20
-111.2415935768072
 30
0.0
 10
102.8382133836083
 20
-110.9833567553793
 30
0.0
 10
102.8043451343594
 20
-110.8087348237111
 30
0.0
 10
102.7535447790966
 20
-110.5674341455183
 30
0.0
 10
102.729204372049
 20
-110.4732417360264
 30
0.0
 10
102.7323816651899
 20
-110.4340847269114
 30
0.0
 10
102.7662458772176
 20
-110.3928081766288
 30
0.0
 10
102.7990563744933
 20
-110.3462428664801
 30
0.0
 10
102.8382133836083
 20
-110.3345995203323
 30
0.0
 10
102.9345212970465
 20
-110.3335417683591
 30
0.0
 10
103.1800570203535
 20
-110.3282489712718
 30
0.0
 10
103.3589139971357
 20
-110.3197829182649
 30
0.0
 10
103.6266705863226
 20
-110.3282489712718
 30
0.0
 10
103.7346218459086
 20
-110.3324840163859
 30
0.0
 10
103.8150554053062
 20
-110.3832843716487
 30
0.0
 10
103.9928546301153
 20
-110.5208647981483
 30
0.0
 10
104.0066134802095
 20
-110.5325081442961
 30
0.0
 10
104.0584715874455
 20
-110.5727269426056
 30
0.0
 10
104.1156224917688
 20
-110.6192922527542
 30
0.0
 10
104.2923639646046
 20
-110.7589922204215
 30
0.0
 10
104.3219971687395
 20
-110.7949759736169
 30
0.0
 10
104.3516303728743
 20
-110.8976344361156
 30
0.0
 10
104.423597879265
 20
-111.1569249722955
 30
0.0
 10
104.4564043393195
 20
-111.3326086931582
 30
0.0
 10
104.5103819877231
 20
-111.5717898301833
 30
0.0
 10
104.5315451016298
 20
-111.664924487702
 30
0.0
 10
104.5294295976834
 20
-111.7051432860114
 30
0.0
 10
104.4955653856557
 20
-111.7485313030192
 30
0.0
  0
SPLINE
  5
122
330
FB
100
AcDbEntity
  8
Capa 1
 62
    18
420
        0
370
     9
100
AcDbSpline
210
0.0
220
0.0
230
1.0
 70
     9
 71
     3
 72
    47
 73
    43
 74
     0
 42
0.0000000001
 43
0.0000000001
 40
0.0
 40
0.0
 40
0.0
 40
0.0
 40
1.0
 40
1.0
 40
1.0
 40
2.0
 40
2.0
 40
2.0
 40
3.0
 40
3.0
 40
3.0
 40
4.0
 40
4.0
 40
4.0
 40
5.0
 40
5.0
 40
5.0
 40
6.0
 40
6.0
 40
6.0
 40
7.0
 40
7.0
 40
7.0
 40
8.0
 40
8.0
 40
8.0
 40
9.0
 40
9.0
 40
9.0
 40
10.0
 40
10.0
 40
10.0
 40
11.0
 40
11.0
 40
11.0
 40
12.0
 40
12.0
 40
12.0
 40
13.0
 40
13.0
 40
13.0
 40
14.0
 40
14.0
 40
14.0
 40
14.0
 10
104.4955653856557
 20
-123.8025274497046
 30
0.0
 10
104.4616971364068
 20
-123.8459195039337
 30
0.0
 10
104.4214783380973
 20
-123.8575628500815
 30
0.0
 10
104.3241126726859
 20
-123.8575628500815
 30
0.0
 10
104.0817542425198
 20
-123.863913399142
 30
0.0
 10
103.9039550177107
 20
-123.8723794521489
 30
0.0
 10
103.6361984285239
 20
-123.863913399142
 30
0.0
 10
103.5282471689379
 20
-123.8596783540279
 30
0.0
 10
103.4837973627356
 20
-123.8406307440676
 30
0.0
 10
103.308113641873
 20
-123.7019885283735
 30
0.0
 10
103.2509627375497
 20
-123.6564809701981
 30
0.0
 10
103.1991046303137
 20
-123.6141466679422
 30
0.0
 10
103.1821725242999
 20
-123.6035610737676
 30
0.0
 10
103.0075465554104
 20
-123.4649228952948
 30
0.0
 10
102.9387563421606
 20
-123.3971863967969
 30
0.0
 10
102.9122963939454
 20
-123.2945279342982
 30
0.0
 10
102.8382133836083
 20
-123.0362951500915
 30
0.0
 10
102.8043451343594
 20
-122.861669181202
 30
0.0
 10
102.7535447790966
 20
-122.6214302922036
 30
0.0
 10
102.729204372049
 20
-122.5272378827118
 30
0.0
 10
102.7323816651899
 20
-122.4880808735969
 30
0.0
 10
102.7662458772176
 20
-122.4446888193678
 30
0.0
 10
102.7990563744933
 20
-122.3991812611923
 30
0.0
 10
102.8382133836083
 20
-122.3885956670177
 30
0.0
 10
102.9345212970465
 20
-122.3875379150445
 30
0.0
 10
103.1800570203535
 20
-122.3822451179572
 30
0.0
 10
103.3589139971357
 20
-122.3737790649503
 30
0.0
 10
103.6266705863226
 20
-122.3822451179572
 30
0.0
 10
103.7346218459086
 20
-122.3854224110981
 30
0.0
 10
103.8150554053062
 20
-122.4362227663609
 30
0.0
 10
103.9928546301153
 20
-122.5727454408873
 30
0.0
 10
104.0066134802095
 20
-122.5854465390083
 30
0.0
 10
104.0584715874455
 20
-122.626723089291
 30
0.0
 10
104.1156224917688
 20
-122.6722306474664
 30
0.0
 10
104.2923639646046
 20
-122.8119306151337
 30
0.0
 10
104.3219971687395
 20
-122.8479143683291
 30
0.0
 10
104.3516303728743
 20
-122.9505728308278
 30
0.0
 10
104.423597879265
 20
-123.2098633670077
 30
0.0
 10
104.4564043393195
 20
-123.3855470878704
 30
0.0
 10
104.5103819877231
 20
-123.6247282248955
 30
0.0
 10
104.5315451016298
 20
-123.7189206343874
 30
0.0
 10
104.5294295976834
 20
-123.7580776435023
 30
0.0
 10
104.4955653856557
 20
-123.8025274497046
 30
0.0
  0
SPLINE
  5
123
330
FB
100
AcDbEntity
  8
Capa 1
 62
    18
420
        0
370
     9
100
AcDbSpline
210
0.0
220
0.0
230
1.0
 70
     9
 71
     3
 72
    29
 73
    25
 74
     0
 42
0.0000000001
 43
0.0000000001
 40
0.0
 40
0.0
 40
0.0
 40
0.0
 40
1.0
 40
1.0
 40
1.0
 40
2.0
 40
2.0
 40
2.0
 40
3.0
 40
3.0
 40
3.0
 40
4.0
 40
4.0
 40
4.0
 40
5.0
 40
5.0
 40
5.0
 40
6.0
 40
6.0
 40
6.0
 40
7.0
 40
7.0
 40
7.0
 40
8.0
 40
8.0
 40
8.0
 40
8.0
 10
114.6449822112739
 20
-143.2819989693912
 30
0.0
 10
114.6449822112739
 20
-144.8705587395782
 30
0.0
 10
113.3548720049924
 20
-146.1574916527188
 30
0.0
 10
111.7641987494697
 20
-146.1574916527188
 30
0.0
 10
111.7641987494697
 20
-146.1574916527188
 30
0.0
 10
74.39233180146604
 20
-146.1574916527188
 30
0.0
 10
74.39233180146604
 20
-146.1574916527188
 30
0.0
 10
72.8027162979165
 20
-146.1574916527188
 30
0.0
 10
71.51366384360823
 20
-144.8705587395782
 30
0.0
 10
71.51366384360823
 20
-143.2819989693912
 30
0.0
 10
71.51366384360823
 20
-143.2819989693912
 30
0.0
 10
71.51366384360823
 20
-105.9683406776841
 30
0.0
 10
71.51366384360823
 20
-105.9683406776841
 30
0.0
 10
71.51366384360823
 20
-104.3766056329668
 30
0.0
 10
72.8027162979165
 20
-103.0875572158798
 30
0.0
 10
74.39233180146604
 20
-103.0875572158798
 30
0.0
 10
74.39233180146604
 20
-103.0875572158798
 30
0.0
 10
111.7641987494697
 20
-103.0875572158798
 30
0.0
 10
111.7641987494697
 20
-103.0875572158798
 30
0.0
 10
113.3548720049924
 20
-103.0875572158798
 30
0.0
 10
114.6449822112739
 20
-104.3766056329668
 30
0.0
 10
114.6449822112739
 20
-105.9683406776841
 30
0.0
 10
114.6449822112739
 20
-105.9683406776841
 30
0.0
 10
114.6449822112739
 20
-143.2819989693912
 30
0.0
 10
114.6449822112739
 20
-143.2819989693912
 30
0.0
  0
LWPOLYLINE
  5
124
330
FB
100
AcDbEntity
  8
Capa 1
100
AcDbPolyline
 90
        4
 70
     1
 43
0.0
 10
64.27857978856275
 20
-167.9865674128713
 10
155.7037647785238
 20
-167.9865674128713
 10
155.7037647785238
 20
-69.41763242469611
 10
64.27857978856275
 20
-69.41763242469611
  0
ENDBLK
  5
FE
330
FB
100
AcDbEntity
  8
0
100
AcDbBlockEnd
  0
ENDSEC
  0
SECTION
  2
ENTITIES
  0
MTEXT
  5
79
330
70
100
AcDbEntity
  8
Capa 1
100
AcDbMText
 10
134.7173701399869
 20
-88.75419169432317
 30
0.0
 40
0.2
 41
0.0
 46
0.0
 71
     7
 72
     1
  1
\C18;\c0;\FArial Bold|b1|i0|c1;\H2.497667;\W1.000000;80
 11
-0.0000000000000002
 21
1.0
 31
0.0
 73
     1
 44
1.0
  0
LINE
  5
7A
330
70
100
AcDbEntity
  8
Capa 1
 62
    18
420
        0
370
     9
100
AcDbLine
 10
124.8715503353957
 20
-84.0679332734912
 30
0.0
 11
130.2711642231042
 21
-84.0679332734912
 31
0.0
  0
LINE
  5
7B
330
70
100
AcDbEntity
  8
Capa 1
 62
    18
420
        0
370
     9
100
AcDbLine
 10
124.8715503353957
 20
-89.8278045641655
 30
0.0
 11
130.2711642231042
 21
-89.8278045641655
 31
0.0
  0
LINE
  5
7C
330
70
100
AcDbEntity
  8
Capa 1
 62
    18
420
        0
370
     9
100
AcDbLine
 10
129.0014823564579
 20
-89.8278045641655
 30
0.0
 11
129.0014823564579
 21
-84.06836121894603
 31
0.0
  0
INSERT
  5
7E
330
70
100
AcDbEntity
  8
Capa 1
100
AcDbBlockReference
  2
Block_0
 10
0.0
 20
0.0
 30
0.0
  0
LINE
  5
D9
330
70
100
AcDbEntity
  8
Capa 1
 62
    18
420
        0
370
     9
100
AcDbLine
 10
101.6962732352223
 20
-88.75423475801706
 30
0.0
 11
110.7884144797449
 21
-88.75423475801706
 31
0.0
  0
LINE
  5
DA
330
70
100
AcDbEntity
  8
Capa 1
 62
    18
420
        0
370
     9
100
AcDbLine
 10
68.96170498925304
 20
-84.0679332734912
 30
0.0
 11
117.9784108476272
 21
-84.0679332734912
 31
0.0
  0
INSERT
  5
DC
330
70
100
AcDbEntity
  8
Capa 1
100
AcDbBlockReference
  2
Block_1
 10
0.0
 20
0.0
 30
0.0
  0
MTEXT
  5
E2
330
70
100
AcDbEntity
  8
Capa 1
100
AcDbMText
 10
146.1791442797046
 20
-129.4246151070753
 30
0.0
 40
0.2
 41
0.0
 46
0.0
 71
     7
 72
     1
  1
\C18;\c0;\FArial Bold|b1|i0|c1;\H2.497667;\W1.000000;700
 11
-0.0000000000000002
 21
1.0
 31
0.0
 73
     1
 44
1.0
  0
MTEXT
  5
E3
330
70
100
AcDbEntity
  8
Capa 1
100
AcDbMText
 10
89.82043125238282
 20
-164.5370282927416
 30
0.0
 40
0.2
 41
0.0
 46
0.0
 71
     7
 72
     1
  1
\C18;\c0;\FArial Bold|b1|i0|c1;\H2.497667;\W1.000000;700
 73
     1
 44
1.0
  0
MTEXT
  5
E4
330
70
100
AcDbEntity
  8
Capa 1
100
AcDbMText
 10
129.0014355919782
 20
-146.0243097787947
 30
0.0
 40
0.2
 41
0.0
 46
0.0
 71
     7
 72
     1
  1
\C18;\c0;\FArial Bold|b1|i0|c1;\H2.497667;\W1.000000;170
 11
-0.0000000000000002
 21
1.0
 31
0.0
 73
     1
 44
1.0
  0
LINE
  5
E5
330
70
100
AcDbEntity
  8
Capa 1
 62
    18
420
        0
370
     9
100
AcDbLine
 10
118.2764385219098
 20
-157.832388684763
 30
0.0
 11
67.8807218355443
 21
-157.832388684763
 31
0.0
  0
LINE
  5
E6
330
70
100
AcDbEntity
  8
Capa 1
 62
    18
420
        0
370
     9
100
AcDbLine
 10
67.88082907423433
 20
-159.1024944596428
 30
0.0
 11
67.88082907423433
 21
-153.7028775440184
 31
0.0
  0
LINE
  5
E7
330
70
100
AcDbEntity
  8
Capa 1
 62
    18
420
        0
370
     9
100
AcDbLine
 10
118.2764385219098
 20
-159.1024944596428
 30
0.0
 11
118.2764385219098
 21
-153.7028775440184
 31
0.0
  0
LINE
  5
E8
330
70
100
AcDbEntity
  8
Capa 1
 62
    18
420
        0
370
     9
100
AcDbLine
 10
120.9371974616234
 20
-99.4441345813944
 30
0.0
 11
141.1259643493273
 21
-99.4441345813944
 31
0.0
  0
LINE
  5
E9
330
70
100
AcDbEntity
  8
Capa 1
 62
    18
420
        0
370
     9
100
AcDbLine
 10
120.9371974616234
 20
-149.7243907766083
 30
0.0
 11
126.336811349332
 21
-149.7243907766083
 31
0.0
  0
LINE
  5
EA
330
70
100
AcDbEntity
  8
Capa 1
 62
    18
420
        0
370
     9
100
AcDbLine
 10
135.726027483917
 20
-149.7243907766083
 30
0.0
 11
141.1256413716255
 21
-149.7243907766083
 31
0.0
  0
LINE
  5
EB
330
70
100
AcDbEntity
  8
Capa 1
 62
    18
420
        0
370
     9
100
AcDbLine
 10
120.9371974616234
 20
-137.5807562060257
 30
0.0
 11
126.336811349332
 21
-137.5807562060257
 31
0.0
  0
LINE
  5
EC
330
70
100
AcDbEntity
  8
Capa 1
 62
    18
420
        0
370
     9
100
AcDbLine
 10
139.8559595049793
 20
-99.43175646097513
 30
0.0
 11
139.8559595049793
 21
-149.5321988579654
 31
0.0
  0
LINE
  5
ED
330
70
100
AcDbEntity
  8
Capa 1
 62
    18
420
        0
370
     9
100
AcDbLine
 10
125.0671294826857
 20
-149.7243907766083
 30
0.0
 11
125.0671294826857
 21
-137.5810751465061
 31
0.0
  0
INSERT
  5
EF
330
70
100
AcDbEntity
  8
Capa 1
100
AcDbBlockReference
  2
Block_2
 10
0.0
 20
0.0
 30
0.0
  0
LINE
  5
F7
330
70
100
AcDbEntity
  8
Capa 1
 62
    18
420
        0
370
     9
100
AcDbLine
 10
105.026423647903
 20
-137.5807562060257
 30
0.0
 11
101.464072453776
 21
-137.5807562060257
 31
0.0
  0
LINE
  5
F8
330
70
100
AcDbEntity
  8
Capa 1
 62
    18
420
        0
370
     9
100
AcDbLine
 10
106.0364960378889
 20
-138.5891370002987
 30
0.0
 11
106.0364960378889
 21
-142.1451376453651
 31
0.0
  0
LINE
  5
F9
330
70
100
AcDbEntity
  8
Capa 1
 62
    18
420
        0
370
     9
100
AcDbLine
 10
106.0364960378889
 20
-133.1320532677864
 30
0.0
 11
106.0364960378889
 21
-136.6859384089064
 31
0.0
  0
LINE
  5
FA
330
70
100
AcDbEntity
  8
Capa 1
 62
    18
420
        0
370
     9
100
AcDbLine
 10
107.0466774328491
 20
-137.5821328984793
 30
0.0
 11
110.6079668377816
 21
-137.5821328984793
 31
0.0
  0
INSERT
  5
FC
330
70
100
AcDbEntity
  8
Capa 1
100
AcDbBlockReference
  2
Block_3
 10
0.0
 20
0.0
 30
0.0
  0
ENDSEC
  0
SECTION
  2
OBJECTS
  0
DICTIONARY
  5
C
330
0
100
AcDbDictionary
281
     1
  3
ACAD_COLOR
350
63
  3
ACAD_DETAILVIEWSTYLE
350
6A
  3
ACAD_GROUP
350
D
  3
ACAD_LAYOUT
350
62
  3
ACAD_MATERIAL
350
10
  3
ACAD_MLEADERSTYLE
350
66
  3
ACAD_MLINESTYLE
350
5F
  3
ACAD_PLOTSETTINGS
350
61
  3
ACAD_PLOTSTYLENAME
350
E
  3
ACAD_SCALELIST
350
42
  3
ACAD_SECTIONVIEWSTYLE
350
68
  3
ACAD_TABLESTYLE
350
64
  3
ACAD_VISUALSTYLE
350
29
  3
ACDB_RECOMPOSE_DATA
350
12E
  3
AcDbVariableDictionary
350
125
  0
DICTIONARY
  5
63
102
{ACAD_REACTORS
330
C
102
}
330
C
100
AcDbDictionary
281
     1
  0
DICTIONARY
  5
6A
102
{ACAD_REACTORS
330
C
102
}
330
C
100
AcDbDictionary
281
     1
  3
Imperial24
350
6B
  0
DICTIONARY
  5
D
102
{ACAD_REACTORS
330
C
102
}
330
C
100
AcDbDictionary
281
     1
  0
DICTIONARY
  5
62
102
{ACAD_REACTORS
330
C
102
}
330
C
100
AcDbDictionary
281
     1
  3
Layout1
350
6F
  3
Layout2
350
77
  3
Model
350
73
  0
DICTIONARY
  5
10
102
{ACAD_REACTORS
330
C
102
}
330
C
100
AcDbDictionary
281
     1
  3
ByBlock
350
19
  3
ByLayer
350
11
  3
Global
350
21
  0
DICTIONARY
  5
66
102
{ACAD_REACTORS
330
C
102
}
330
C
100
AcDbDictionary
281
     1
  3
Standard
350
67
  0
DICTIONARY
  5
5F
102
{ACAD_REACTORS
330
C
102
}
330
C
100
AcDbDictionary
281
     1
  3
Standard
350
60
  0
DICTIONARY
  5
61
102
{ACAD_REACTORS
330
C
102
}
330
C
100
AcDbDictionary
281
     1
  0
ACDBDICTIONARYWDFLT
  5
E
102
{ACAD_REACTORS
330
C
102
}
330
C
100
AcDbDictionary
281
     1
  3
Normal
350
F
100
AcDbDictionaryWithDefault
340
F
  0
DICTIONARY
  5
42
102
{ACAD_REACTORS
330
C
102
}
330
C
100
AcDbDictionary
281
     1
  3
A0
350
43
  3
A1
350
44
  3
A2
350
45
  3
A3
350
46
  3
A4
350
47
  3
A5
350
48
  3
A6
350
49
  3
A7
350
4A
  3
A8
350
4B
  3
A9
350
4C
  3
B0
350
4D
  3
B1
350
4E
  3
B2
350
4F
  3
B3
350
50
  3
B4
350
51
  3
B5
350
52
  3
B6
350
53
  0
DICTIONARY
  5
68
102
{ACAD_REACTORS
330
C
102
}
330
C
100
AcDbDictionary
281
     1
  3
Imperial24
350
69
  0
DICTIONARY
  5
64
102
{ACAD_REACTORS
330
C
102
}
330
C
100
AcDbDictionary
281
     1
  3
Standard
350
65
  0
DICTIONARY
  5
29
102
{ACAD_REACTORS
330
C
102
}
330
C
100
AcDbDictionary
281
     1
  3
2dWireframe
350
2F
  3
Basic
350
2E
  3
Brighten
350
35
  3
ColorChange
350
39
  3
Conceptual
350
32
  3
Dim
350
34
  3
EdgeColorOff
350
41
  3
Facepattern
350
38
  3
Flat
350
2A
  3
FlatWithEdges
350
2B
  3
Gouraud
350
2C
  3
GouraudWithEdges
350
2D
  3
Hidden
350
31
  3
JitterOff
350
3F
  3
Linepattern
350
37
  3
OverhangOff
350
40
  3
Realistic
350
33
  3
Shaded
350
3E
  3
Shaded with edges
350
3D
  3
Shades of Gray
350
3A
  3
Sketchy
350
3B
  3
Thicken
350
36
  3
Wireframe
350
30
  3
X-Ray
350
3C
  0
XRECORD
  5
12E
102
{ACAD_REACTORS
330
C
102
}
330
C
100
AcDbXrecord
280
     1
 90
        1
330
65
  0
DICTIONARY
  5
125
102
{ACAD_REACTORS
330
C
102
}
330
C
100
AcDbDictionary
281
     1
  3
CANNOSCALE
350
12A
  3
CMLEADERSTYLE
350
127
  3
CTABLESTYLE
350
126
  3
CVIEWDETAILSTYLE
350
128
  3
CVIEWSECTIONSTYLE
350
129
  0
ACDBDETAILVIEWSTYLE
  5
6B
102
{ACAD_XDICTIONARY
360
163
102
}
102
{ACAD_REACTORS
330
6A
102
}
330
6A
100
AcDbModelDocViewStyle
 70
     0
  3
Imperial24
290
     0
100
AcDbDetailViewStyle
 70
     0
 71
     0
 90
        3
 71
     1
340
55
 62
   256
 40
0.24
340
0
 62
   256
 40
0.24
300

 40
0.36
280
     3
 71
     2
340
5D
 90
       25
 62
   256
 71
     3
340
55
 62
   256
 40
0.24
 90
        1
 40
0.75
 90
        1
300
%<\AcVar ViewType \f "%tc1">% %<\AcVar ViewDetailId>%\PSCALE %<\AcVar ViewScale \f "%sn">%
 71
     4
340
5D
 90
       25
 62
   256
340
5D
 90
       25
 62
   256
280
     0
  0
LAYOUT
  5
6F
102
{ACAD_REACTORS
330
62
102
}
330
62
100
AcDbPlotSettings
  1

  2

  4

  6

 40
0.0
 41
0.0
 42
0.0
 43
0.0
 44
0.0
 45
0.0
 46
0.0
 47
0.0
 48
0.0
 49
0.0
140
0.0
141
0.0
142
1.0
143
1.0
 70
   688
 72
     0
 73
     0
 74
     5
  7

 75
    16
147
1.0
 76
     0
 77
     2
 78
   300
148
0.0
149
0.0
100
AcDbLayout
  1
Layout1
 70
     1
 71
     1
 10
0.0
 20
0.0
 11
12.0
 21
9.0
 12
0.0
 22
0.0
 32
0.0
 14
0.0
 24
0.0
 34
0.0
 15
0.0
 25
0.0
 35
0.0
146
0.0
 13
0.0
 23
0.0
 33
0.0
 16
1.0
 26
0.0
 36
0.0
 17
0.0
 27
1.0
 37
0.0
 76
     0
330
6C
  0
LAYOUT
  5
77
102
{ACAD_REACTORS
330
62
102
}
330
62
100
AcDbPlotSettings
  1

  2

  4

  6

 40
0.0
 41
0.0
 42
0.0
 43
0.0
 44
0.0
 45
0.0
 46
0.0
 47
0.0
 48
0.0
 49
0.0
140
0.0
141
0.0
142
1.0
143
1.0
 70
   688
 72
     0
 73
     0
 74
     5
  7

 75
    16
147
1.0
 76
     0
 77
     2
 78
   300
148
0.0
149
0.0
100
AcDbLayout
  1
Layout2
 70
     1
 71
     2
 10
0.0
 20
0.0
 11
12.0
 21
9.0
 12
0.0
 22
0.0
 32
0.0
 14
0.0
 24
0.0
 34
0.0
 15
0.0
 25
0.0
 35
0.0
146
0.0
 13
0.0
 23
0.0
 33
0.0
 16
1.0
 26
0.0
 36
0.0
 17
0.0
 27
1.0
 37
0.0
 76
     0
330
74
  0
LAYOUT
  5
73
102
{ACAD_REACTORS
330
62
102
}
330
62
100
AcDbPlotSettings
  1

  2

  4

  6

 40
0.0
 41
0.0
 42
0.0
 43
0.0
 44
0.0
 45
0.0
 46
0.0
 47
0.0
 48
0.0
 49
0.0
140
0.0
141
0.0
142
1.0
143
1.0
 70
  1712
 72
     0
 73
     0
 74
     0
  7

 75
     0
147
1.0
 76
     0
 77
     2
 78
   300
148
0.0
149
0.0
100
AcDbLayout
  1
Model
 70
     1
 71
     0
 10
0.0
 20
0.0
 11
12.0
 21
9.0
 12
0.0
 22
0.0
 32
0.0
 14
0.0
 24
0.0
 34
0.0
 15
0.0
 25
0.0
 35
0.0
146
0.0
 13
0.0
 23
0.0
 33
0.0
 16
1.0
 26
0.0
 36
0.0
 17
0.0
 27
1.0
 37
0.0
 76
     0
330
70
  0
MATERIAL
  5
19
102
{ACAD_XDICTIONARY
360
1A
102
}
102
{ACAD_REACTORS
330
10
102
}
330
10
100
AcDbMaterial
  1
ByBlock
 72
     0
 43
0.0208333333333333
 43
0.0
 43
0.0
 43
0.0
 43
0.0
 43
0.0208333333333333
 43
0.0
 43
0.0
 43
0.0
 43
0.0
 43
1.0
 43
0.0
 43
0.0
 43
0.0
 43
0.0
 43
1.0
 77
     0
 47
0.0208333333333333
 47
0.0
 47
0.0
 47
0.0
 47
0.0
 47
0.0208333333333333
 47
0.0
 47
0.0
 47
0.0
 47
0.0
 47
1.0
 47
0.0
 47
0.0
 47
0.0
 47
0.0
 47
1.0
171
     0
 49
0.0208333333333333
 49
0.0
 49
0.0
 49
0.0
 49
0.0
 49
0.0208333333333333
 49
0.0
 49
0.0
 49
0.0
 49
0.0
 49
1.0
 49
0.0
 49
0.0
 49
0.0
 49
0.0
 49
1.0
175
     0
142
0.0208333333333333
142
0.0
142
0.0
142
0.0
142
0.0
142
0.0208333333333333
142
0.0
142
0.0
142
0.0
142
0.0
142
1.0
142
0.0
142
0.0
142
0.0
142
0.0
142
1.0
179
     0
144
0.0208333333333333
144
0.0
144
0.0
144
0.0
144
0.0
144
0.0208333333333333
144
0.0
144
0.0
144
0.0
144
0.0
144
1.0
144
0.0
144
0.0
144
0.0
144
0.0
144
1.0
147
0.0208333333333333
147
0.0
147
0.0
147
0.0
147
0.0
147
0.0208333333333333
147
0.0
147
0.0
147
0.0
147
0.0
147
1.0
147
0.0
147
0.0
147
0.0
147
0.0
147
1.0
  0
MATERIAL
  5
11
102
{ACAD_XDICTIONARY
360
12
102
}
102
{ACAD_REACTORS
330
10
102
}
330
10
100
AcDbMaterial
  1
ByLayer
 72
     0
 43
0.0208333333333333
 43
0.0
 43
0.0
 43
0.0
 43
0.0
 43
0.0208333333333333
 43
0.0
 43
0.0
 43
0.0
 43
0.0
 43
1.0
 43
0.0
 43
0.0
 43
0.0
 43
0.0
 43
1.0
 77
     0
 47
0.0208333333333333
 47
0.0
 47
0.0
 47
0.0
 47
0.0
 47
0.0208333333333333
 47
0.0
 47
0.0
 47
0.0
 47
0.0
 47
1.0
 47
0.0
 47
0.0
 47
0.0
 47
0.0
 47
1.0
171
     0
 49
0.0208333333333333
 49
0.0
 49
0.0
 49
0.0
 49
0.0
 49
0.0208333333333333
 49
0.0
 49
0.0
 49
0.0
 49
0.0
 49
1.0
 49
0.0
 49
0.0
 49
0.0
 49
0.0
 49
1.0
175
     0
142
0.0208333333333333
142
0.0
142
0.0
142
0.0
142
0.0
142
0.0208333333333333
142
0.0
142
0.0
142
0.0
142
0.0
142
1.0
142
0.0
142
0.0
142
0.0
142
0.0
142
1.0
179
     0
144
0.0208333333333333
144
0.0
144
0.0
144
0.0
144
0.0
144
0.0208333333333333
144
0.0
144
0.0
144
0.0
144
0.0
144
1.0
144
0.0
144
0.0
144
0.0
144
0.0
144
1.0
147
0.0208333333333333
147
0.0
147
0.0
147
0.0
147
0.0
147
0.0208333333333333
147
0.0
147
0.0
147
0.0
147
0.0
147
1.0
147
0.0
147
0.0
147
0.0
147
0.0
147
1.0
  0
MATERIAL
  5
21
102
{ACAD_XDICTIONARY
360
22
102
}
102
{ACAD_REACTORS
330
10
102
}
330
10
100
AcDbMaterial
  1
Global
 72
     0
 43
0.0208333333333333
 43
0.0
 43
0.0
 43
0.0
 43
0.0
 43
0.0208333333333333
 43
0.0
 43
0.0
 43
0.0
 43
0.0
 43
1.0
 43
0.0
 43
0.0
 43
0.0
 43
0.0
 43
1.0
 77
     0
 47
0.0208333333333333
 47
0.0
 47
0.0
 47
0.0
 47
0.0
 47
0.0208333333333333
 47
0.0
 47
0.0
 47
0.0
 47
0.0
 47
1.0
 47
0.0
 47
0.0
 47
0.0
 47
0.0
 47
1.0
171
     0
 49
0.0208333333333333
 49
0.0
 49
0.0
 49
0.0
 49
0.0
 49
0.0208333333333333
 49
0.0
 49
0.0
 49
0.0
 49
0.0
 49
1.0
 49
0.0
 49
0.0
 49
0.0
 49
0.0
 49
1.0
175
     0
142
0.0208333333333333
142
0.0
142
0.0
142
0.0
142
0.0
142
0.0208333333333333
142
0.0
142
0.0
142
0.0
142
0.0
142
1.0
142
0.0
142
0.0
142
0.0
142
0.0
142
1.0
179
     0
144
0.0208333333333333
144
0.0
144
0.0
144
0.0
144
0.0
144
0.0208333333333333
144
0.0
144
0.0
144
0.0
144
0.0
144
1.0
144
0.0
144
0.0
144
0.0
144
0.0
144
1.0
147
0.0208333333333333
147
0.0
147
0.0
147
0.0
147
0.0
147
0.0208333333333333
147
0.0
147
0.0
147
0.0
147
0.0
147
1.0
147
0.0
147
0.0
147
0.0
147
0.0
147
1.0
  0
MLEADERSTYLE
  5
67
102
{ACAD_XDICTIONARY
360
15F
102
}
102
{ACAD_REACTORS
330
66
102
}
330
66
100
AcDbMLeaderStyle
179
     2
170
     2
171
     1
172
     0
 90
        2
 40
0.0
 41
0.0
173
     1
 91
-1056964608
340
5B
 92
       -2
290
     1
 42
0.09
291
     1
 43
0.36
  3
Standard
 44
0.18
300

342
55
174
     1
178
     6
175
     1
176
     0
 93
-1056964608
 45
0.18
292
     0
297
     0
 46
0.18
 94
-1056964608
 47
1.0
 49
1.0
140
1.0
293
     1
141
0.0
294
     1
177
     0
142
1.0
295
     0
296
     0
143
0.125
271
     0
272
     9
273
     9
  0
MLINESTYLE
  5
60
102
{ACAD_REACTORS
330
5F
102
}
330
5F
100
AcDbMlineStyle
  2
STANDARD
 70
     0
  3

 62
   256
 51
90.0
 52
90.0
 71
     2
 49
0.5
 62
   256
  6
BYLAYER
 49
-0.5
 62
   256
  6
BYLAYER
  0
ACDBPLACEHOLDER
  5
F
102
{ACAD_REACTORS
330
E
102
}
330
E
  0
SCALE
  5
43
102
{ACAD_REACTORS
330
42
102
}
330
42
100
AcDbScale
 70
     0
300
1:1
140
1.0
141
1.0
290
     1
  0
SCALE
  5
44
102
{ACAD_REACTORS
330
42
102
}
330
42
100
AcDbScale
 70
     0
300
1/128" = 1'-0"
140
0.0078125
141
12.0
290
     0
  0
SCALE
  5
45
102
{ACAD_REACTORS
330
42
102
}
330
42
100
AcDbScale
 70
     0
300
1/64" = 1'-0"
140
0.015625
141
12.0
290
     0
  0
SCALE
  5
46
102
{ACAD_REACTORS
330
42
102
}
330
42
100
AcDbScale
 70
     0
300
1/32" = 1'-0"
140
0.03125
141
12.0
290
     0
  0
SCALE
  5
47
102
{ACAD_REACTORS
330
42
102
}
330
42
100
AcDbScale
 70
     0
300
1/16" = 1'-0"
140
0.0625
141
12.0
290
     0
  0
SCALE
  5
48
102
{ACAD_REACTORS
330
42
102
}
330
42
100
AcDbScale
 70
     0
300
3/32" = 1'-0"
140
0.09375
141
12.0
290
     0
  0
SCALE
  5
49
102
{ACAD_REACTORS
330
42
102
}
330
42
100
AcDbScale
 70
     0
300
1/8" = 1'-0"
140
0.125
141
12.0
290
     0
  0
SCALE
  5
4A
102
{ACAD_REACTORS
330
42
102
}
330
42
100
AcDbScale
 70
     0
300
3/16" = 1'-0"
140
0.1875
141
12.0
290
     0
  0
SCALE
  5
4B
102
{ACAD_REACTORS
330
42
102
}
330
42
100
AcDbScale
 70
     0
300
1/4" = 1'-0"
140
0.25
141
12.0
290
     0
  0
SCALE
  5
4C
102
{ACAD_REACTORS
330
42
102
}
330
42
100
AcDbScale
 70
     0
300
3/8" = 1'-0"
140
0.375
141
12.0
290
     0
  0
SCALE
  5
4D
102
{ACAD_REACTORS
330
42
102
}
330
42
100
AcDbScale
 70
     0
300
1/2" = 1'-0"
140
0.5
141
12.0
290
     0
  0
SCALE
  5
4E
102
{ACAD_REACTORS
330
42
102
}
330
42
100
AcDbScale
 70
     0
300
3/4" = 1'-0"
140
0.75
141
12.0
290
     0
  0
SCALE
  5
4F
102
{ACAD_REACTORS
330
42
102
}
330
42
100
AcDbScale
 70
     0
300
1" = 1'-0"
140
1.0
141
12.0
290
     0
  0
SCALE
  5
50
102
{ACAD_REACTORS
330
42
102
}
330
42
100
AcDbScale
 70
     0
300
1-1/2" = 1'-0"
140
1.5
141
12.0
290
     0
  0
SCALE
  5
51
102
{ACAD_REACTORS
330
42
102
}
330
42
100
AcDbScale
 70
     0
300
3" = 1'-0"
140
3.0
141
12.0
290
     0
  0
SCALE
  5
52
102
{ACAD_REACTORS
330
42
102
}
330
42
100
AcDbScale
 70
     0
300
6" = 1'-0"
140
6.0
141
12.0
290
     0
  0
SCALE
  5
53
102
{ACAD_REACTORS
330
42
102
}
330
42
100
AcDbScale
 70
     0
300
1'-0" = 1'-0"
140
12.0
141
12.0
290
     0
  0
ACDBSECTIONVIEWSTYLE
  5
69
102
{ACAD_XDICTIONARY
360
161
102
}
102
{ACAD_REACTORS
330
68
102
}
330
68
100
AcDbModelDocViewStyle
 70
     0
  3
Imperial24
290
     0
100
AcDbSectionViewStyle
 70
     0
 71
     0
 90
       78
 71
     1
340
55
 62
   256
 40
0.24
340
0
340
0
 62
   256
 40
0.24
300
I, O, Q, S, X, Z
 40
0.48
 90
        3
 40
0.18
 90
        1
 71
     2
340
5D
 90
       25
 62
   256
340
5D
 90
       50
 62
   256
 40
0.24
 40
0.0
 40
0.24
 71
     3
340
55
 62
   256
 40
0.24
 90
        1
 40
0.75
 90
        1
300
%<\AcVar ViewType \f "%tc1">% %<\AcVar ViewSectionStartId>%-%<\AcVar ViewSectionEndId>%\PSCALE %<\AcVar ViewScale \f "%sn">%
 71
     4
 62
   256
 62
   257
300
ANSI31
 40
1.0
 90
        0
290
     0
290
     0
 90
        6
 40
0.0
 40
1.570796326794896
 40
0.2617993877991494
 40
1.308996938995747
 40
-0.2617993877991494
 40
1.832595714594046
  0
TABLESTYLE
  5
65
102
{ACAD_XDICTIONARY
360
12B
102
}
102
{ACAD_REACTORS
330
64
102
}
330
64
100
AcDbTableStyle
280
     0
  3
Standard
 70
     0
 71
     0
 40
0.06
 41
0.06
280
     0
281
     0
  7
Standard
140
0.18
170
     2
 62
     0
 63
     7
283
     0
 90
      512
 91
        0
  1

274
    -2
284
     1
 64
     0
275
    -2
285
     1
 65
     0
276
    -2
286
     1
 66
     0
277
    -2
287
     1
 67
     0
278
    -2
288
     1
 68
     0
279
    -2
289
     1
 69
     0
  7
Standard
140
0.25
170
     5
 62
     0
 63
     7
283
     0
 90
      512
 91
        0
  1

274
    -2
284
     1
 64
     0
275
    -2
285
     1
 65
     0
276
    -2
286
     1
 66
     0
277
    -2
287
     1
 67
     0
278
    -2
288
     1
 68
     0
279
    -2
289
     1
 69
     0
  7
Standard
140
0.18
170
     5
 62
     0
 63
     7
283
     0
 90
      512
 91
        0
  1

274
    -2
284
     1
 64
     0
275
    -2
285
     1
 65
     0
276
    -2
286
     1
 66
     0
277
    -2
287
     1
 67
     0
278
    -2
288
     1
 68
     0
279
    -2
289
     1
 69
     0
  0
VISUALSTYLE
  5
2F
102
{ACAD_XDICTIONARY
360
139
102
}
102
{ACAD_REACTORS
330
29
102
}
330
29
100
AcDbVisualStyle
  2
2dWireframe
 70
     4
177
     2
291
     0
 71
     0
176
     1
 72
     2
176
     1
 73
     0
176
     1
 90
        0
176
     1
 40
0.6
176
     1
 41
30.0
176
     1
 63
     7
421
 16777215
176
     1
 74
     1
176
     1
 91
        4
176
     1
 64
     7
176
     1
 65
   257
176
     1
 75
     1
176
     1
175
     1
176
     1
 42
1.0
176
     1
 92
        0
176
     1
 66
   257
176
     1
 43
1.0
176
     1
 76
     1
176
     1
 77
     6
176
     1
 78
     2
176
     1
 67
     7
176
     1
 79
     5
176
     1
170
     0
176
     1
171
     0
176
     1
290
     0
176
     1
 93
        1
176
     1
 44
0.0
176
     1
173
     0
176
     1
1001
ACAD
1000
AcDbSavedByObjectVersion
1070
     0
  0
VISUALSTYLE
  5
2E
102
{ACAD_XDICTIONARY
360
137
102
}
102
{ACAD_REACTORS
330
29
102
}
330
29
100
AcDbVisualStyle
  2
Basic
 70
     7
177
     2
291
     1
 71
     1
176
     1
 72
     0
176
     1
 73
     1
176
     1
 90
        0
176
     1
 40
0.6
176
     1
 41
30.0
176
     1
 63
     7
421
 16777215
176
     1
 74
     0
176
     1
 91
        4
176
     1
 64
     7
176
     1
 65
   257
176
     1
 75
     1
176
     1
175
     1
176
     1
 42
1.0
176
     1
 92
        8
176
     1
 66
     7
176
     1
 43
1.0
176
     1
 76
     1
176
     1
 77
     6
176
     1
 78
     2
176
     1
 67
     7
176
     1
 79
     5
176
     1
170
     0
176
     1
171
     0
176
     1
290
     0
176
     1
 93
        1
176
     1
 44
0.0
176
     1
173
     0
176
     1
1001
ACAD
1000
AcDbSavedByObjectVersion
1070
     0
  0
VISUALSTYLE
  5
35
102
{ACAD_XDICTIONARY
360
145
102
}
102
{ACAD_REACTORS
330
29
102
}
330
29
100
AcDbVisualStyle
  2
Brighten
 70
    12
177
     2
291
     1
 71
     2
176
     1
 72
     2
176
     1
 73
     0
176
     1
 90
        0
176
     1
 40
0.6
176
     1
 41
30.0
176
     1
 63
     7
421
 16777215
176
     1
 74
     1
176
     1
 91
        4
176
     1
 64
     7
176
     1
 65
   257
176
     1
 75
     1
176
     1
175
     1
176
     1
 42
1.0
176
     1
 92
        8
176
     1
 66
     7
176
     1
 43
1.0
176
     1
 76
     1
176
     1
 77
     6
176
     1
 78
     2
176
     1
 67
     7
176
     1
 79
     5
176
     1
170
     0
176
     1
171
     0
176
     1
290
     0
176
     1
 93
        1
176
     1
 44
50.0
176
     1
173
     0
176
     1
1001
ACAD
1000
AcDbSavedByObjectVersion
1070
     0
  0
VISUALSTYLE
  5
39
102
{ACAD_XDICTIONARY
360
14D
102
}
102
{ACAD_REACTORS
330
29
102
}
330
29
100
AcDbVisualStyle
  2
ColorChange
 70
    16
177
     2
291
     1
 71
     2
176
     1
 72
     2
176
     1
 73
     3
176
     1
 90
        0
176
     1
 40
0.6
176
     1
 41
30.0
176
     1
 63
     8
421
  8421504
176
     1
 74
     1
176
     1
 91
        4
176
     1
 64
     7
176
     1
 65
   257
176
     1
 75
     1
176
     1
175
     1
176
     1
 42
1.0
176
     1
 92
        8
176
     1
 66
     8
424
  8421504
176
     1
 43
1.0
176
     1
 76
     1
176
     1
 77
     6
176
     1
 78
     2
176
     1
 67
     7
176
     1
 79
     5
176
     1
170
     0
176
     1
171
     0
176
     1
290
     0
176
     1
 93
        1
176
     1
 44
0.0
176
     1
173
     0
176
     1
1001
ACAD
1000
AcDbSavedByObjectVersion
1070
     0
  0
VISUALSTYLE
  5
32
102
{ACAD_XDICTIONARY
360
13F
102
}
102
{ACAD_REACTORS
330
29
102
}
330
29
100
AcDbVisualStyle
  2
Conceptual
 70
     9
177
     2
291
     0
 71
     3
176
     1
 72
     2
176
     1
 73
     0
176
     1
 90
        0
176
     1
 40
0.6
176
     1
 41
30.0
176
     1
 63
     7
421
 16777215
176
     1
 74
     2
176
     1
 91
        2
176
     1
 64
     7
176
     1
 65
   257
176
     1
 75
     1
176
     1
175
     1
176
     1
 42
179.0
176
     1
 92
        8
176
     1
 66
     7
176
     1
 43
1.0
176
     1
 76
     1
176
     1
 77
     6
176
     1
 78
     2
176
     1
 67
     7
176
     1
 79
     3
176
     1
170
     0
176
     1
171
     0
176
     1
290
     0
176
     1
 93
        1
176
     1
 44
0.0
176
     1
173
     0
176
     1
1001
ACAD
1000
AcDbSavedByObjectVersion
1070
     0
  0
VISUALSTYLE
  5
34
102
{ACAD_XDICTIONARY
360
143
102
}
102
{ACAD_REACTORS
330
29
102
}
330
29
100
AcDbVisualStyle
  2
Dim
 70
    11
177
     2
291
     1
 71
     2
176
     1
 72
     2
176
     1
 73
     0
176
     1
 90
        0
176
     1
 40
0.6
176
     1
 41
30.0
176
     1
 63
     7
421
 16777215
176
     1
 74
     1
176
     1
 91
        4
176
     1
 64
     7
176
     1
 65
   257
176
     1
 75
     1
176
     1
175
     1
176
     1
 42
1.0
176
     1
 92
        8
176
     1
 66
     7
176
     1
 43
1.0
176
     1
 76
     1
176
     1
 77
     6
176
     1
 78
     2
176
     1
 67
     7
176
     1
 79
     5
176
     1
170
     0
176
     1
171
     0
176
     1
290
     0
176
     1
 93
        1
176
     1
 44
-50.0
176
     1
173
     0
176
     1
1001
ACAD
1000
AcDbSavedByObjectVersion
1070
     0
  0
VISUALSTYLE
  5
41
102
{ACAD_XDICTIONARY
360
15D
102
}
102
{ACAD_REACTORS
330
29
102
}
330
29
100
AcDbVisualStyle
  2
EdgeColorOff
 70
    22
177
     2
291
     1
 71
     2
176
     0
 72
     2
176
     0
 73
     0
176
     0
 90
        0
176
     0
 40
0.6
176
     0
 41
30.0
176
     0
 63
     7
421
 16777215
176
     0
 74
     1
176
     0
 91
        4
176
     0
 64
     7
176
     0
 65
   257
176
     0
 75
     1
176
     0
175
     1
176
     0
 42
1.0
176
     0
 92
        8
176
     2
 66
     7
176
     0
 43
1.0
176
     0
 76
     1
176
     0
 77
     6
176
     0
 78
     2
176
     0
 67
     7
176
     0
 79
     5
176
     0
170
     0
176
     0
171
     0
176
     0
290
     0
176
     0
 93
        1
176
     0
 44
0.0
176
     0
173
     0
176
     0
1001
ACAD
1000
AcDbSavedByObjectVersion
1070
     0
  0
VISUALSTYLE
  5
38
102
{ACAD_XDICTIONARY
360
14B
102
}
102
{ACAD_REACTORS
330
29
102
}
330
29
100
AcDbVisualStyle
  2
Facepattern
 70
    15
177
     2
291
     1
 71
     2
176
     1
 72
     2
176
     1
 73
     0
176
     1
 90
        0
176
     1
 40
0.6
176
     1
 41
30.0
176
     1
 63
     7
421
 16777215
176
     1
 74
     1
176
     1
 91
        4
176
     1
 64
     7
176
     1
 65
   257
176
     1
 75
     1
176
     1
175
     1
176
     1
 42
1.0
176
     1
 92
        8
176
     1
 66
     7
176
     1
 43
1.0
176
     1
 76
     1
176
     1
 77
     6
176
     1
 78
     2
176
     1
 67
     7
176
     1
 79
     5
176
     1
170
     0
176
     1
171
     0
176
     1
290
     0
176
     1
 93
        1
176
     1
 44
0.0
176
     1
173
     0
176
     1
1001
ACAD
1000
AcDbSavedByObjectVersion
1070
     0
  0
VISUALSTYLE
  5
2A
102
{ACAD_XDICTIONARY
360
12F
102
}
102
{ACAD_REACTORS
330
29
102
}
330
29
100
AcDbVisualStyle
  2
Flat
 70
     0
177
     2
291
     1
 71
     2
176
     1
 72
     1
176
     1
 73
     1
176
     1
 90
        2
176
     1
 40
0.6
176
     1
 41
30.0
176
     1
 63
     7
421
 16777215
176
     1
 74
     0
176
     1
 91
        0
176
     1
 64
     7
176
     1
 65
   257
176
     1
 75
     1
176
     1
175
     1
176
     1
 42
1.0
176
     1
 92
        8
176
     1
 66
     7
176
     1
 43
1.0
176
     1
 76
     1
176
     1
 77
     6
176
     1
 78
     2
176
     1
 67
     7
176
     1
 79
     5
176
     1
170
     0
176
     1
171
     0
176
     1
290
     0
176
     1
 93
       13
176
     1
 44
0.0
176
     1
173
     0
176
     1
1001
ACAD
1000
AcDbSavedByObjectVersion
1070
     0
  0
VISUALSTYLE
  5
2B
102
{ACAD_XDICTIONARY
360
131
102
}
102
{ACAD_REACTORS
330
29
102
}
330
29
100
AcDbVisualStyle
  2
FlatWithEdges
 70
     1
177
     2
291
     1
 71
     2
176
     1
 72
     1
176
     1
 73
     1
176
     1
 90
        2
176
     1
 40
0.6
176
     1
 41
30.0
176
     1
 63
     7
421
 16777215
176
     1
 74
     1
176
     1
 91
        0
176
     1
 64
     7
176
     1
 65
   257
176
     1
 75
     1
176
     1
175
     1
176
     1
 42
1.0
176
     1
 92
        0
176
     1
 66
   257
176
     1
 43
1.0
176
     1
 76
     1
176
     1
 77
     6
176
     1
 78
     2
176
     1
 67
     7
176
     1
 79
     5
176
     1
170
     0
176
     1
171
     0
176
     1
290
     0
176
     1
 93
       13
176
     1
 44
0.0
176
     1
173
     0
176
     1
1001
ACAD
1000
AcDbSavedByObjectVersion
1070
     0
  0
VISUALSTYLE
  5
2C
102
{ACAD_XDICTIONARY
360
133
102
}
102
{ACAD_REACTORS
330
29
102
}
330
29
100
AcDbVisualStyle
  2
Gouraud
 70
     2
177
     2
291
     1
 71
     2
176
     1
 72
     2
176
     1
 73
     1
176
     1
 90
        2
176
     1
 40
0.6
176
     1
 41
30.0
176
     1
 63
     7
421
 16777215
176
     1
 74
     0
176
     1
 91
        0
176
     1
 64
     7
176
     1
 65
   257
176
     1
 75
     1
176
     1
175
     1
176
     1
 42
1.0
176
     1
 92
        0
176
     1
 66
     7
176
     1
 43
1.0
176
     1
 76
     1
176
     1
 77
     6
176
     1
 78
     2
176
     1
 67
     7
176
     1
 79
     5
176
     1
170
     0
176
     1
171
     0
176
     1
290
     0
176
     1
 93
       13
176
     1
 44
0.0
176
     1
173
     0
176
     1
1001
ACAD
1000
AcDbSavedByObjectVersion
1070
     0
  0
VISUALSTYLE
  5
2D
102
{ACAD_XDICTIONARY
360
135
102
}
102
{ACAD_REACTORS
330
29
102
}
330
29
100
AcDbVisualStyle
  2
GouraudWithEdges
 70
     3
177
     2
291
     1
 71
     2
176
     1
 72
     2
176
     1
 73
     1
176
     1
 90
        2
176
     1
 40
0.6
176
     1
 41
30.0
176
     1
 63
     7
421
 16777215
176
     1
 74
     1
176
     1
 91
        0
176
     1
 64
     7
176
     1
 65
   257
176
     1
 75
     1
176
     1
175
     1
176
     1
 42
1.0
176
     1
 92
        0
176
     1
 66
   257
176
     1
 43
1.0
176
     1
 76
     1
176
     1
 77
     6
176
     1
 78
     2
176
     1
 67
     7
176
     1
 79
     5
176
     1
170
     0
176
     1
171
     0
176
     1
290
     0
176
     1
 93
       13
176
     1
 44
0.0
176
     1
173
     0
176
     1
1001
ACAD
1000
AcDbSavedByObjectVersion
1070
     0
  0
VISUALSTYLE
  5
31
102
{ACAD_XDICTIONARY
360
13D
102
}
102
{ACAD_REACTORS
330
29
102
}
330
29
100
AcDbVisualStyle
  2
Hidden
 70
     6
177
     2
291
     0
 71
     1
176
     1
 72
     2
176
     1
 73
     2
176
     1
 90
        0
176
     1
 40
0.6
176
     1
 41
30.0
176
     1
 63
     7
421
 16777215
176
     1
 74
     2
176
     1
 91
        2
176
     1
 64
     7
176
     1
 65
   257
176
     1
 75
     2
176
     1
175
     1
176
     1
 42
40.0
176
     1
 92
        0
176
     1
 66
   257
176
     1
 43
1.0
176
     1
 76
     1
176
     1
 77
     6
176
     1
 78
     2
176
     1
 67
     7
176
     1
 79
     3
176
     1
170
     0
176
     1
171
     0
176
     1
290
     0
176
     1
 93
        1
176
     1
 44
0.0
176
     1
173
     0
176
     1
1001
ACAD
1000
AcDbSavedByObjectVersion
1070
     0
  0
VISUALSTYLE
  5
3F
102
{ACAD_XDICTIONARY
360
159
102
}
102
{ACAD_REACTORS
330
29
102
}
330
29
100
AcDbVisualStyle
  2
JitterOff
 70
    20
177
     2
291
     1
 71
     2
176
     0
 72
     2
176
     0
 73
     0
176
     0
 90
        0
176
     0
 40
0.6
176
     0
 41
30.0
176
     0
 63
     7
421
 16777215
176
     0
 74
     1
176
     0
 91
        4
176
     0
 64
     7
176
     0
 65
   257
176
     0
 75
     1
176
     0
175
     1
176
     0
 42
1.0
176
     0
 92
       10
176
     2
 66
     7
176
     0
 43
1.0
176
     0
 76
     1
176
     0
 77
     6
176
     0
 78
     2
176
     0
 67
     7
176
     0
 79
     5
176
     0
170
     0
176
     0
171
     0
176
     0
290
     0
176
     0
 93
        1
176
     0
 44
0.0
176
     0
173
     0
176
     0
1001
ACAD
1000
AcDbSavedByObjectVersion
1070
     0
  0
VISUALSTYLE
  5
37
102
{ACAD_XDICTIONARY
360
149
102
}
102
{ACAD_REACTORS
330
29
102
}
330
29
100
AcDbVisualStyle
  2
Linepattern
 70
    14
177
     2
291
     1
 71
     2
176
     1
 72
     2
176
     1
 73
     0
176
     1
 90
        0
176
     1
 40
0.6
176
     1
 41
30.0
176
     1
 63
     7
421
 16777215
176
     1
 74
     1
176
     1
 91
        4
176
     1
 64
     7
176
     1
 65
   257
176
     1
 75
     7
176
     1
175
     7
176
     1
 42
1.0
176
     1
 92
        8
176
     1
 66
     7
176
     1
 43
1.0
176
     1
 76
     1
176
     1
 77
     6
176
     1
 78
     2
176
     1
 67
     7
176
     1
 79
     5
176
     1
170
     0
176
     1
171
     0
176
     1
290
     0
176
     1
 93
        1
176
     1
 44
0.0
176
     1
173
     0
176
     1
1001
ACAD
1000
AcDbSavedByObjectVersion
1070
     0
  0
VISUALSTYLE
  5
40
102
{ACAD_XDICTIONARY
360
15B
102
}
102
{ACAD_REACTORS
330
29
102
}
330
29
100
AcDbVisualStyle
  2
OverhangOff
 70
    21
177
     2
291
     1
 71
     2
176
     0
 72
     2
176
     0
 73
     0
176
     0
 90
        0
176
     0
 40
0.6
176
     0
 41
30.0
176
     0
 63
     7
421
 16777215
176
     0
 74
     1
176
     0
 91
        4
176
     0
 64
     7
176
     0
 65
   257
176
     0
 75
     1
176
     0
175
     1
176
     0
 42
1.0
176
     0
 92
        9
176
     2
 66
     7
176
     0
 43
1.0
176
     0
 76
     1
176
     0
 77
     6
176
     0
 78
     2
176
     0
 67
     7
176
     0
 79
     5
176
     0
170
     0
176
     0
171
     0
176
     0
290
     0
176
     0
 93
        1
176
     0
 44
0.0
176
     0
173
     0
176
     0
1001
ACAD
1000
AcDbSavedByObjectVersion
1070
     0
  0
VISUALSTYLE
  5
33
102
{ACAD_XDICTIONARY
360
141
102
}
102
{ACAD_REACTORS
330
29
102
}
330
29
100
AcDbVisualStyle
  2
Realistic
 70
     8
177
     2
291
     0
 71
     2
176
     1
 72
     3
176
     1
 73
     0
176
     1
 90
        2
176
     1
 40
0.6
176
     1
 41
30.0
176
     1
 63
     7
421
 16777215
176
     1
 74
     0
176
     1
 91
        0
176
     1
 64
     7
176
     1
 65
   257
176
     1
 75
     1
176
     1
175
     1
176
     1
 42
1.0
176
     1
 92
        8
176
     1
 66
   257
176
     1
 43
1.0
176
     1
 76
     1
176
     1
 77
     6
176
     1
 78
     2
176
     1
 67
     7
176
     1
 79
     3
176
     1
170
     0
176
     1
171
     0
176
     1
290
     0
176
     1
 93
       13
176
     1
 44
0.0
176
     1
173
     0
176
     1
1001
ACAD
1000
AcDbSavedByObjectVersion
1070
     0
  0
VISUALSTYLE
  5
3E
102
{ACAD_XDICTIONARY
360
157
102
}
102
{ACAD_REACTORS
330
29
102
}
330
29
100
AcDbVisualStyle
  2
Shaded
 70
    27
177
     2
291
     0
 71
     2
176
     1
 72
     2
176
     1
 73
     1
176
     1
 90
        2
176
     1
 40
0.6
176
     1
 41
30.0
176
     1
 63
     7
421
 16777215
176
     1
 74
     0
176
     1
 91
        4
176
     1
 64
     7
176
     1
 65
   257
176
     1
 75
     1
176
     1
175
     1
176
     1
 42
1.0
176
     1
 92
        8
176
     1
 66
   257
176
     1
 43
1.0
176
     1
 76
     1
176
     1
 77
     6
176
     1
 78
     2
176
     1
 67
     8
425
  7895160
176
     1
 79
     3
176
     1
170
     0
176
     1
171
     0
176
     1
290
     0
176
     1
 93
        5
176
     1
 44
0.0
176
     1
173
     0
176
     1
1001
ACAD
1000
AcDbSavedByObjectVersion
1070
     0
  0
VISUALSTYLE
  5
3D
102
{ACAD_XDICTIONARY
360
155
102
}
102
{ACAD_REACTORS
330
29
102
}
330
29
100
AcDbVisualStyle
  2
Shaded with edges
 70
    26
177
     2
291
     0
 71
     2
176
     1
 72
     2
176
     1
 73
     1
176
     1
 90
        2
176
     1
 40
0.6
176
     1
 41
30.0
176
     1
 63
     7
421
 16777215
176
     1
 74
     1
176
     1
 91
        2
176
     1
 64
     7
176
     1
 65
   257
176
     1
 75
     2
176
     1
175
     1
176
     1
 42
1.0
176
     1
 92
        8
176
     1
 66
   257
176
     1
 43
1.0
176
     1
 76
     1
176
     1
 77
     6
176
     1
 78
     2
176
     1
 67
     7
176
     1
 79
     3
176
     1
170
     0
176
     1
171
     0
176
     1
290
     0
176
     1
 93
        5
176
     1
 44
0.0
176
     1
173
     0
176
     1
1001
ACAD
1000
AcDbSavedByObjectVersion
1070
     0
  0
VISUALSTYLE
  5
3A
102
{ACAD_XDICTIONARY
360
14F
102
}
102
{ACAD_REACTORS
330
29
102
}
330
29
100
AcDbVisualStyle
  2
Shades of Gray
 70
    23
177
     2
291
     0
 71
     2
176
     1
 72
     2
176
     1
 73
     3
176
     1
 90
        0
176
     1
 40
0.6
176
     1
 41
30.0
176
     1
 63
     7
421
 16777215
176
     1
 74
     2
176
     1
 91
        2
176
     1
 64
     7
176
     1
 65
     7
176
     1
 75
     1
176
     1
175
     1
176
     1
 42
40.0
176
     1
 92
        8
176
     1
 66
     7
176
     1
 43
1.0
176
     1
 76
     1
176
     1
 77
     6
176
     1
 78
     2
176
     1
 67
     7
176
     1
 79
     3
176
     1
170
     0
176
     1
171
     0
176
     1
290
     0
176
     1
 93
        1
176
     1
 44
0.0
176
     1
173
     0
176
     1
1001
ACAD
1000
AcDbSavedByObjectVersion
1070
     0
  0
VISUALSTYLE
  5
3B
102
{ACAD_XDICTIONARY
360
151
102
}
102
{ACAD_REACTORS
330
29
102
}
330
29
100
AcDbVisualStyle
  2
Sketchy
 70
    24
177
     2
291
     0
 71
     1
176
     1
 72
     2
176
     1
 73
     2
176
     1
 90
        0
176
     1
 40
0.6
176
     1
 41
30.0
176
     1
 63
     7
421
 16777215
176
     1
 74
     2
176
     1
 91
        2
176
     1
 64
     7
176
     1
 65
     7
176
     1
 75
     1
176
     1
175
     1
176
     1
 42
40.0
176
     1
 92
       11
176
     1
 66
     7
176
     1
 43
1.0
176
     1
 76
     1
176
     1
 77
     6
176
     1
 78
     2
176
     1
 67
     7
176
     1
 79
     6
176
     1
170
     0
176
     1
171
     0
176
     1
290
     0
176
     1
 93
        1
176
     1
 44
0.0
176
     1
173
     0
176
     1
1001
ACAD
1000
AcDbSavedByObjectVersion
1070
     0
  0
VISUALSTYLE
  5
36
102
{ACAD_XDICTIONARY
360
147
102
}
102
{ACAD_REACTORS
330
29
102
}
330
29
100
AcDbVisualStyle
  2
Thicken
 70
    13
177
     2
291
     1
 71
     2
176
     1
 72
     2
176
     1
 73
     0
176
     1
 90
        0
176
     1
 40
0.6
176
     1
 41
30.0
176
     1
 63
     7
421
 16777215
176
     1
 74
     1
176
     1
 91
        4
176
     1
 64
     7
176
     1
 65
   257
176
     1
 75
     1
176
     1
175
     1
176
     1
 42
1.0
176
     1
 92
       12
176
     1
 66
     7
176
     1
 43
1.0
176
     1
 76
     1
176
     1
 77
     6
176
     1
 78
     2
176
     1
 67
     7
176
     1
 79
     5
176
     1
170
     0
176
     1
171
     0
176
     1
290
     0
176
     1
 93
        1
176
     1
 44
0.0
176
     1
173
     0
176
     1
1001
ACAD
1000
AcDbSavedByObjectVersion
1070
     0
  0
VISUALSTYLE
  5
30
102
{ACAD_XDICTIONARY
360
13B
102
}
102
{ACAD_REACTORS
330
29
102
}
330
29
100
AcDbVisualStyle
  2
Wireframe
 70
     5
177
     2
291
     0
 71
     0
176
     1
 72
     2
176
     1
 73
     0
176
     1
 90
        0
176
     1
 40
0.6
176
     1
 41
30.0
176
     1
 63
     7
421
 16777215
176
     1
 74
     1
176
     1
 91
        4
176
     1
 64
     7
176
     1
 65
   257
176
     1
 75
     1
176
     1
175
     1
176
     1
 42
1.0
176
     1
 92
        0
176
     1
 66
   257
176
     1
 43
1.0
176
     1
 76
     1
176
     1
 77
     6
176
     1
 78
     2
176
     1
 67
     7
176
     1
 79
     3
176
     1
170
     0
176
     1
171
     0
176
     1
290
     0
176
     1
 93
        1
176
     1
 44
0.0
176
     1
173
     0
176
     1
1001
ACAD
1000
AcDbSavedByObjectVersion
1070
     0
  0
VISUALSTYLE
  5
3C
102
{ACAD_XDICTIONARY
360
153
102
}
102
{ACAD_REACTORS
330
29
102
}
330
29
100
AcDbVisualStyle
  2
X-Ray
 70
    25
177
     2
291
     0
 71
     2
176
     1
 72
     2
176
     1
 73
     1
176
     1
 90
        1
176
     1
 40
0.5
176
     1
 41
30.0
176
     1
 63
     7
421
 16777215
176
     1
 74
     1
176
     1
 91
        0
176
     1
 64
     7
176
     1
 65
   257
176
     1
 75
     1
176
     1
175
     1
176
     1
 42
1.0
176
     1
 92
        8
176
     1
 66
     7
176
     1
 43
1.0
176
     1
 76
     1
176
     1
 77
     6
176
     1
 78
     2
176
     1
 67
     7
176
     1
 79
     3
176
     1
170
     0
176
     1
171
     0
176
     1
290
     0
176
     1
 93
       13
176
     1
 44
0.0
176
     1
173
     0
176
     1
1001
ACAD
1000
AcDbSavedByObjectVersion
1070
     0
  0
DICTIONARYVAR
  5
12A
102
{ACAD_REACTORS
330
125
102
}
330
125
100
DictionaryVariables
280
     0
  1
1:1
  0
DICTIONARYVAR
  5
127
102
{ACAD_REACTORS
330
125
102
}
330
125
100
DictionaryVariables
280
     0
  1
STANDARD
  0
DICTIONARYVAR
  5
126
102
{ACAD_REACTORS
330
125
102
}
330
125
100
DictionaryVariables
280
     0
  1
STANDARD
  0
DICTIONARYVAR
  5
128
102
{ACAD_REACTORS
330
125
102
}
330
125
100
DictionaryVariables
280
     0
  1
Imperial24
  0
DICTIONARYVAR
  5
129
102
{ACAD_REACTORS
330
125
102
}
330
125
100
DictionaryVariables
280
     0
  1
Imperial24
  0
DICTIONARY
  5
163
330
6B
100
AcDbDictionary
280
     1
281
     1
  3
ACAD_XREC_ROUNDTRIP
360
164
  0
DICTIONARY
  5
1A
330
19
100
AcDbDictionary
280
     1
281
     1
  3
BUMPTILE
360
1C
  3
DIFFUSETILE
360
1B
  3
OPACITYTILE
360
1F
  3
REFLECTIONTILE
360
1E
  3
REFRACTIONTILE
360
20
  3
SPECULARTILE
360
1D
  0
DICTIONARY
  5
12
330
11
100
AcDbDictionary
280
     1
281
     1
  3
BUMPTILE
360
14
  3
DIFFUSETILE
360
13
  3
OPACITYTILE
360
17
  3
REFLECTIONTILE
360
16
  3
REFRACTIONTILE
360
18
  3
SPECULARTILE
360
15
  0
DICTIONARY
  5
22
330
21
100
AcDbDictionary
280
     1
281
     1
  3
BUMPTILE
360
24
  3
DIFFUSETILE
360
23
  3
OPACITYTILE
360
27
  3
REFLECTIONTILE
360
26
  3
REFRACTIONTILE
360
28
  3
SPECULARTILE
360
25
  0
DICTIONARY
  5
15F
330
67
100
AcDbDictionary
280
     1
281
     1
  3
ACAD_XREC_ROUNDTRIP
360
160
  0
DICTIONARY
  5
161
330
69
100
AcDbDictionary
280
     1
281
     1
  3
ACAD_XREC_ROUNDTRIP
360
162
  0
DICTIONARY
  5
12B
330
65
100
AcDbDictionary
280
     1
281
     1
  3
ACAD_ROUNDTRIP_2008_TABLESTYLE_CELLSTYLEMAP
360
12C
  0
DICTIONARY
  5
139
330
2F
100
AcDbDictionary
280
     1
281
     1
  3
ACAD_XREC_ROUNDTRIP
360
13A
  0
DICTIONARY
  5
137
330
2E
100
AcDbDictionary
280
     1
281
     1
  3
ACAD_XREC_ROUNDTRIP
360
138
  0
DICTIONARY
  5
145
330
35
100
AcDbDictionary
280
     1
281
     1
  3
ACAD_XREC_ROUNDTRIP
360
146
  0
DICTIONARY
  5
14D
330
39
100
AcDbDictionary
280
     1
281
     1
  3
ACAD_XREC_ROUNDTRIP
360
14E
  0
DICTIONARY
  5
13F
330
32
100
AcDbDictionary
280
     1
281
     1
  3
ACAD_XREC_ROUNDTRIP
360
140
  0
DICTIONARY
  5
143
330
34
100
AcDbDictionary
280
     1
281
     1
  3
ACAD_XREC_ROUNDTRIP
360
144
  0
DICTIONARY
  5
15D
330
41
100
AcDbDictionary
280
     1
281
     1
  3
ACAD_XREC_ROUNDTRIP
360
15E
  0
DICTIONARY
  5
14B
330
38
100
AcDbDictionary
280
     1
281
     1
  3
ACAD_XREC_ROUNDTRIP
360
14C
  0
DICTIONARY
  5
12F
330
2A
100
AcDbDictionary
280
     1
281
     1
  3
ACAD_XREC_ROUNDTRIP
360
130
  0
DICTIONARY
  5
131
330
2B
100
AcDbDictionary
280
     1
281
     1
  3
ACAD_XREC_ROUNDTRIP
360
132
  0
DICTIONARY
  5
133
330
2C
100
AcDbDictionary
280
     1
281
     1
  3
ACAD_XREC_ROUNDTRIP
360
134
  0
DICTIONARY
  5
135
330
2D
100
AcDbDictionary
280
     1
281
     1
  3
ACAD_XREC_ROUNDTRIP
360
136
  0
DICTIONARY
  5
13D
330
31
100
AcDbDictionary
280
     1
281
     1
  3
ACAD_XREC_ROUNDTRIP
360
13E
  0
DICTIONARY
  5
159
330
3F
100
AcDbDictionary
280
     1
281
     1
  3
ACAD_XREC_ROUNDTRIP
360
15A
  0
DICTIONARY
  5
149
330
37
100
AcDbDictionary
280
     1
281
     1
  3
ACAD_XREC_ROUNDTRIP
360
14A
  0
DICTIONARY
  5
15B
330
40
100
AcDbDictionary
280
     1
281
     1
  3
ACAD_XREC_ROUNDTRIP
360
15C
  0
DICTIONARY
  5
141
330
33
100
AcDbDictionary
280
     1
281
     1
  3
ACAD_XREC_ROUNDTRIP
360
142
  0
DICTIONARY
  5
157
330
3E
100
AcDbDictionary
280
     1
281
     1
  3
ACAD_XREC_ROUNDTRIP
360
158
  0
DICTIONARY
  5
155
330
3D
100
AcDbDictionary
280
     1
281
     1
  3
ACAD_XREC_ROUNDTRIP
360
156
  0
DICTIONARY
  5
14F
330
3A
100
AcDbDictionary
280
     1
281
     1
  3
ACAD_XREC_ROUNDTRIP
360
150
  0
DICTIONARY
  5
151
330
3B
100
AcDbDictionary
280
     1
281
     1
  3
ACAD_XREC_ROUNDTRIP
360
152
  0
DICTIONARY
  5
147
330
36
100
AcDbDictionary
280
     1
281
     1
  3
ACAD_XREC_ROUNDTRIP
360
148
  0
DICTIONARY
  5
13B
330
30
100
AcDbDictionary
280
     1
281
     1
  3
ACAD_XREC_ROUNDTRIP
360
13C
  0
DICTIONARY
  5
153
330
3C
100
AcDbDictionary
280
     1
281
     1
  3
ACAD_XREC_ROUNDTRIP
360
154
  0
XRECORD
  5
164
102
{ACAD_REACTORS
330
163
102
}
330
163
100
AcDbXrecord
280
     1
102
DISPLAYNAME
  1
Imperial24
102
FLAGS
 90
        0
  0
XRECORD
  5
1C
102
{ACAD_REACTORS
330
1A
102
}
330
1A
100
AcDbXrecord
280
     1
270
     1
271
     1
  0
XRECORD
  5
1B
102
{ACAD_REACTORS
330
1A
102
}
330
1A
100
AcDbXrecord
280
     1
270
     1
271
     1
  0
XRECORD
  5
1F
102
{ACAD_REACTORS
330
1A
102
}
330
1A
100
AcDbXrecord
280
     1
270
     1
271
     1
  0
XRECORD
  5
1E
102
{ACAD_REACTORS
330
1A
102
}
330
1A
100
AcDbXrecord
280
     1
270
     1
271
     1
  0
XRECORD
  5
20
102
{ACAD_REACTORS
330
1A
102
}
330
1A
100
AcDbXrecord
280
     1
270
     1
271
     1
  0
XRECORD
  5
1D
102
{ACAD_REACTORS
330
1A
102
}
330
1A
100
AcDbXrecord
280
     1
270
     1
271
     1
  0
XRECORD
  5
14
102
{ACAD_REACTORS
330
12
102
}
330
12
100
AcDbXrecord
280
     1
270
     1
271
     1
  0
XRECORD
  5
13
102
{ACAD_REACTORS
330
12
102
}
330
12
100
AcDbXrecord
280
     1
270
     1
271
     1
  0
XRECORD
  5
17
102
{ACAD_REACTORS
330
12
102
}
330
12
100
AcDbXrecord
280
     1
270
     1
271
     1
  0
XRECORD
  5
16
102
{ACAD_REACTORS
330
12
102
}
330
12
100
AcDbXrecord
280
     1
270
     1
271
     1
  0
XRECORD
  5
18
102
{ACAD_REACTORS
330
12
102
}
330
12
100
AcDbXrecord
280
     1
270
     1
271
     1
  0
XRECORD
  5
15
102
{ACAD_REACTORS
330
12
102
}
330
12
100
AcDbXrecord
280
     1
270
     1
271
     1
  0
XRECORD
  5
24
102
{ACAD_REACTORS
330
22
102
}
330
22
100
AcDbXrecord
280
     1
270
     1
271
     1
  0
XRECORD
  5
23
102
{ACAD_REACTORS
330
22
102
}
330
22
100
AcDbXrecord
280
     1
270
     1
271
     1
  0
XRECORD
  5
27
102
{ACAD_REACTORS
330
22
102
}
330
22
100
AcDbXrecord
280
     1
270
     1
271
     1
  0
XRECORD
  5
26
102
{ACAD_REACTORS
330
22
102
}
330
22
100
AcDbXrecord
280
     1
270
     1
271
     1
  0
XRECORD
  5
28
102
{ACAD_REACTORS
330
22
102
}
330
22
100
AcDbXrecord
280
     1
270
     1
271
     1
  0
XRECORD
  5
25
102
{ACAD_REACTORS
330
22
102
}
330
22
100
AcDbXrecord
280
     1
270
     1
271
     1
  0
XRECORD
  5
160
102
{ACAD_REACTORS
330
15F
102
}
330
15F
100
AcDbXrecord
280
     1
102
ACAD_ROUNDTRIP_2012_MLEADER_STYLE
298
     1
  0
XRECORD
  5
162
102
{ACAD_REACTORS
330
161
102
}
330
161
100
AcDbXrecord
280
     1
102
DISPLAYNAME
  1
Imperial24
102
FLAGS
 90
        0
  0
CELLSTYLEMAP
  5
12C
102
{ACAD_REACTORS
330
12B
102
}
330
12B
100
AcDbCellStyleMap
 90
        3
300
CELLSTYLE
  1
TABLEFORMAT_BEGIN
 90
        5
170
     1
 91
        0
 92
    32768
 62
   257
 93
        1
300
CONTENTFORMAT
  1
CONTENTFORMAT_BEGIN
 90
        0
 91
        0
 92
      512
 93
        0
300

 40
0.0
140
1.0
 94
        5
 62
     0
340
55
144
0.25
309
CONTENTFORMAT_END
171
     0
 94
        0
309
TABLEFORMAT_END
  1
CELLSTYLE_BEGIN
 90
        1
 91
        1
300
_TITLE
309
CELLSTYLE_END
300
CELLSTYLE
  1
TABLEFORMAT_BEGIN
 90
        5
170
     1
 91
        0
 92
        0
 62
   257
 93
        1
300
CONTENTFORMAT
  1
CONTENTFORMAT_BEGIN
 90
        0
 91
        0
 92
      512
 93
        0
300

 40
0.0
140
1.0
 94
        5
 62
     0
340
55
144
0.18
309
CONTENTFORMAT_END
171
     0
 94
        0
309
TABLEFORMAT_END
  1
CELLSTYLE_BEGIN
 90
        2
 91
        1
300
_HEADER
309
CELLSTYLE_END
300
CELLSTYLE
  1
TABLEFORMAT_BEGIN
 90
        5
170
     1
 91
        0
 92
        0
 62
   257
 93
        1
300
CONTENTFORMAT
  1
CONTENTFORMAT_BEGIN
 90
        0
 91
        0
 92
      512
 93
        0
300

 40
0.0
140
1.0
 94
        2
 62
     0
340
55
144
0.18
309
CONTENTFORMAT_END
171
     0
 94
        0
309
TABLEFORMAT_END
  1
CELLSTYLE_BEGIN
 90
        3
 91
        2
300
_DATA
309
CELLSTYLE_END
  0
XRECORD
  5
13A
102
{ACAD_REACTORS
330
139
102
}
330
139
100
AcDbXrecord
280
     1
102
RTVSPost2010Prop28
280
     1
102
RTVSPost2010PropOp28
 70
     1
102
RTVSPost2010Prop29
280
     1
102
RTVSPost2010PropOp29
 70
     1
102
RTVSPost2010Prop30
280
     0
102
RTVSPost2010PropOp30
 70
     1
102
RTVSPost2010Prop31
280
     0
102
RTVSPost2010PropOp31
 70
     1
102
RTVSPost2010Prop32
280
     0
102
RTVSPost2010PropOp32
 70
     1
102
RTVSPost2010Prop33
280
     0
102
RTVSPost2010PropOp33
 70
     1
102
RTVSPost2010Prop34
280
     0
102
RTVSPost2010PropOp34
 70
     1
102
RTVSPost2010Prop35
280
     0
102
RTVSPost2010PropOp35
 70
     1
102
RTVSPost2010Prop36
280
     0
102
RTVSPost2010PropOp36
 70
     1
102
RTVSPost2010Prop37
 90
       50
102
RTVSPost2010PropOp37
 70
     1
102
RTVSPost2010Prop38
140
0.0
102
RTVSPost2010PropOp38
 70
     1
102
RTVSPost2010Prop39
140
1.0
102
RTVSPost2010PropOp39
 70
     1
102
RTVSPost2010Prop40
 90
        0
102
RTVSPost2010PropOp40
 70
     1
102
RTVSPost2010Prop41ColorIndex
 90
       18
102
RTVSPost2010Prop41ColorRGB
 90
        0
102
RTVSPost2010PropOp41
 70
     1
102
RTVSPost2010Prop42
 90
       50
102
RTVSPost2010PropOp42
 70
     1
102
RTVSPost2010Prop43
 90
        3
102
RTVSPost2010PropOp43
 70
     1
102
RTVSPost2010Prop44ColorIndex
 90
        5
102
RTVSPost2010Prop44ColorRGB
 90
      255
102
RTVSPost2010PropOp44
 70
     1
102
RTVSPost2010Prop45
280
     0
102
RTVSPost2010PropOp45
 70
     1
102
RTVSPost2010Prop46
 90
       50
102
RTVSPost2010PropOp46
 70
     1
102
RTVSPost2010Prop47
 90
       50
102
RTVSPost2010PropOp47
 70
     1
102
RTVSPost2010Prop48
 90
       50
102
RTVSPost2010PropOp48
 70
     1
102
RTVSPost2010Prop49
280
     0
102
RTVSPost2010PropOp49
 70
     1
102
RTVSPost2010Prop50
 90
       50
102
RTVSPost2010PropOp50
 70
     1
102
RTVSPost2010Prop51ColorIndex
 90
      256
102
RTVSPost2010Prop51ColorRGB
 90
-16777216
102
RTVSPost2010PropOp51
 70
     0
102
RTVSPost2010Prop52
140
1.0
102
RTVSPost2010PropOp52
 70
     0
102
RTVSPost2010Prop53
 90
        2
102
RTVSPost2010PropOp53
 70
     1
102
RTVSPost2010Prop54
  1
strokes_ogs.tif
102
RTVSPost2010PropOp54
 70
     1
102
RTVSPost2010Prop55
280
     0
102
RTVSPost2010PropOp55
 70
     1
102
RTVSPost2010Prop56
140
1.0
102
RTVSPost2010PropOp56
 70
     1
102
RTVSPost2010Prop57
140
1.0
102
RTVSPost2010PropOp57
 70
     1
  0
XRECORD
  5
138
102
{ACAD_REACTORS
330
137
102
}
330
137
100
AcDbXrecord
280
     1
102
RTVSPost2010Prop28
280
     0
102
RTVSPost2010PropOp28
 70
     1
102
RTVSPost2010Prop29
280
     1
102
RTVSPost2010PropOp29
 70
     1
102
RTVSPost2010Prop30
280
     1
102
RTVSPost2010PropOp30
 70
     1
102
RTVSPost2010Prop31
280
     0
102
RTVSPost2010PropOp31
 70
     1
102
RTVSPost2010Prop32
280
     0
102
RTVSPost2010PropOp32
 70
     1
102
RTVSPost2010Prop33
280
     0
102
RTVSPost2010PropOp33
 70
     1
102
RTVSPost2010Prop34
280
     0
102
RTVSPost2010PropOp34
 70
     1
102
RTVSPost2010Prop35
280
     0
102
RTVSPost2010PropOp35
 70
     1
102
RTVSPost2010Prop36
280
     0
102
RTVSPost2010PropOp36
 70
     1
102
RTVSPost2010Prop37
 90
       50
102
RTVSPost2010PropOp37
 70
     1
102
RTVSPost2010Prop38
140
0.0
102
RTVSPost2010PropOp38
 70
     1
102
RTVSPost2010Prop39
140
1.0
102
RTVSPost2010PropOp39
 70
     1
102
RTVSPost2010Prop40
 90
        0
102
RTVSPost2010PropOp40
 70
     1
102
RTVSPost2010Prop41ColorIndex
 90
       18
102
RTVSPost2010Prop41ColorRGB
 90
        0
102
RTVSPost2010PropOp41
 70
     1
102
RTVSPost2010Prop42
 90
       50
102
RTVSPost2010PropOp42
 70
     1
102
RTVSPost2010Prop43
 90
        3
102
RTVSPost2010PropOp43
 70
     1
102
RTVSPost2010Prop44ColorIndex
 90
        5
102
RTVSPost2010Prop44ColorRGB
 90
      255
102
RTVSPost2010PropOp44
 70
     1
102
RTVSPost2010Prop45
280
     0
102
RTVSPost2010PropOp45
 70
     1
102
RTVSPost2010Prop46
 90
       50
102
RTVSPost2010PropOp46
 70
     1
102
RTVSPost2010Prop47
 90
       50
102
RTVSPost2010PropOp47
 70
     1
102
RTVSPost2010Prop48
 90
       50
102
RTVSPost2010PropOp48
 70
     1
102
RTVSPost2010Prop49
280
     0
102
RTVSPost2010PropOp49
 70
     1
102
RTVSPost2010Prop50
 90
       50
102
RTVSPost2010PropOp50
 70
     1
102
RTVSPost2010Prop51ColorIndex
 90
      256
102
RTVSPost2010Prop51ColorRGB
 90
-16777216
102
RTVSPost2010PropOp51
 70
     0
102
RTVSPost2010Prop52
140
1.0
102
RTVSPost2010PropOp52
 70
     0
102
RTVSPost2010Prop53
 90
        2
102
RTVSPost2010PropOp53
 70
     1
102
RTVSPost2010Prop54
  1
strokes_ogs.tif
102
RTVSPost2010PropOp54
 70
     1
102
RTVSPost2010Prop55
280
     0
102
RTVSPost2010PropOp55
 70
     1
102
RTVSPost2010Prop56
140
1.0
102
RTVSPost2010PropOp56
 70
     1
102
RTVSPost2010Prop57
140
1.0
102
RTVSPost2010PropOp57
 70
     1
  0
XRECORD
  5
146
102
{ACAD_REACTORS
330
145
102
}
330
145
100
AcDbXrecord
280
     1
102
RTVSPost2010Prop28
280
     0
102
RTVSPost2010PropOp28
 70
     1
102
RTVSPost2010Prop29
280
     1
102
RTVSPost2010PropOp29
 70
     1
102
RTVSPost2010Prop30
280
     1
102
RTVSPost2010PropOp30
 70
     1
102
RTVSPost2010Prop31
280
     0
102
RTVSPost2010PropOp31
 70
     1
102
RTVSPost2010Prop32
280
     0
102
RTVSPost2010PropOp32
 70
     1
102
RTVSPost2010Prop33
280
     0
102
RTVSPost2010PropOp33
 70
     1
102
RTVSPost2010Prop34
280
     0
102
RTVSPost2010PropOp34
 70
     1
102
RTVSPost2010Prop35
280
     0
102
RTVSPost2010PropOp35
 70
     1
102
RTVSPost2010Prop36
280
     0
102
RTVSPost2010PropOp36
 70
     1
102
RTVSPost2010Prop37
 90
       50
102
RTVSPost2010PropOp37
 70
     1
102
RTVSPost2010Prop38
140
0.0
102
RTVSPost2010PropOp38
 70
     1
102
RTVSPost2010Prop39
140
1.0
102
RTVSPost2010PropOp39
 70
     1
102
RTVSPost2010Prop40
 90
        0
102
RTVSPost2010PropOp40
 70
     1
102
RTVSPost2010Prop41ColorIndex
 90
       18
102
RTVSPost2010Prop41ColorRGB
 90
        0
102
RTVSPost2010PropOp41
 70
     1
102
RTVSPost2010Prop42
 90
       50
102
RTVSPost2010PropOp42
 70
     1
102
RTVSPost2010Prop43
 90
        3
102
RTVSPost2010PropOp43
 70
     1
102
RTVSPost2010Prop44ColorIndex
 90
        5
102
RTVSPost2010Prop44ColorRGB
 90
      255
102
RTVSPost2010PropOp44
 70
     1
102
RTVSPost2010Prop45
280
     0
102
RTVSPost2010PropOp45
 70
     1
102
RTVSPost2010Prop46
 90
       50
102
RTVSPost2010PropOp46
 70
     1
102
RTVSPost2010Prop47
 90
       50
102
RTVSPost2010PropOp47
 70
     1
102
RTVSPost2010Prop48
 90
       50
102
RTVSPost2010PropOp48
 70
     1
102
RTVSPost2010Prop49
280
     0
102
RTVSPost2010PropOp49
 70
     1
102
RTVSPost2010Prop50
 90
       50
102
RTVSPost2010PropOp50
 70
     1
102
RTVSPost2010Prop51ColorIndex
 90
      256
102
RTVSPost2010Prop51ColorRGB
 90
-16777216
102
RTVSPost2010PropOp51
 70
     0
102
RTVSPost2010Prop52
140
1.0
102
RTVSPost2010PropOp52
 70
     0
102
RTVSPost2010Prop53
 90
        2
102
RTVSPost2010PropOp53
 70
     1
102
RTVSPost2010Prop54
  1
strokes_ogs.tif
102
RTVSPost2010PropOp54
 70
     1
102
RTVSPost2010Prop55
280
     0
102
RTVSPost2010PropOp55
 70
     1
102
RTVSPost2010Prop56
140
1.0
102
RTVSPost2010PropOp56
 70
     1
102
RTVSPost2010Prop57
140
1.0
102
RTVSPost2010PropOp57
 70
     1
  0
XRECORD
  5
14E
102
{ACAD_REACTORS
330
14D
102
}
330
14D
100
AcDbXrecord
280
     1
102
RTVSPost2010Prop28
280
     0
102
RTVSPost2010PropOp28
 70
     1
102
RTVSPost2010Prop29
280
     1
102
RTVSPost2010PropOp29
 70
     1
102
RTVSPost2010Prop30
280
     1
102
RTVSPost2010PropOp30
 70
     1
102
RTVSPost2010Prop31
280
     0
102
RTVSPost2010PropOp31
 70
     1
102
RTVSPost2010Prop32
280
     0
102
RTVSPost2010PropOp32
 70
     1
102
RTVSPost2010Prop33
280
     0
102
RTVSPost2010PropOp33
 70
     1
102
RTVSPost2010Prop34
280
     0
102
RTVSPost2010PropOp34
 70
     1
102
RTVSPost2010Prop35
280
     0
102
RTVSPost2010PropOp35
 70
     1
102
RTVSPost2010Prop36
280
     0
102
RTVSPost2010PropOp36
 70
     1
102
RTVSPost2010Prop37
 90
       50
102
RTVSPost2010PropOp37
 70
     1
102
RTVSPost2010Prop38
140
0.0
102
RTVSPost2010PropOp38
 70
     1
102
RTVSPost2010Prop39
140
1.0
102
RTVSPost2010PropOp39
 70
     1
102
RTVSPost2010Prop40
 90
        0
102
RTVSPost2010PropOp40
 70
     1
102
RTVSPost2010Prop41ColorIndex
 90
       18
102
RTVSPost2010Prop41ColorRGB
 90
        0
102
RTVSPost2010PropOp41
 70
     1
102
RTVSPost2010Prop42
 90
       50
102
RTVSPost2010PropOp42
 70
     1
102
RTVSPost2010Prop43
 90
        3
102
RTVSPost2010PropOp43
 70
     1
102
RTVSPost2010Prop44ColorIndex
 90
        5
102
RTVSPost2010Prop44ColorRGB
 90
      255
102
RTVSPost2010PropOp44
 70
     1
102
RTVSPost2010Prop45
280
     0
102
RTVSPost2010PropOp45
 70
     1
102
RTVSPost2010Prop46
 90
       50
102
RTVSPost2010PropOp46
 70
     1
102
RTVSPost2010Prop47
 90
       50
102
RTVSPost2010PropOp47
 70
     1
102
RTVSPost2010Prop48
 90
       50
102
RTVSPost2010PropOp48
 70
     1
102
RTVSPost2010Prop49
280
     0
102
RTVSPost2010PropOp49
 70
     1
102
RTVSPost2010Prop50
 90
       50
102
RTVSPost2010PropOp50
 70
     1
102
RTVSPost2010Prop51ColorIndex
 90
      256
102
RTVSPost2010Prop51ColorRGB
 90
-16777216
102
RTVSPost2010PropOp51
 70
     0
102
RTVSPost2010Prop52
140
1.0
102
RTVSPost2010PropOp52
 70
     0
102
RTVSPost2010Prop53
 90
        2
102
RTVSPost2010PropOp53
 70
     1
102
RTVSPost2010Prop54
  1
strokes_ogs.tif
102
RTVSPost2010PropOp54
 70
     1
102
RTVSPost2010Prop55
280
     0
102
RTVSPost2010PropOp55
 70
     1
102
RTVSPost2010Prop56
140
1.0
102
RTVSPost2010PropOp56
 70
     1
102
RTVSPost2010Prop57
140
1.0
102
RTVSPost2010PropOp57
 70
     1
  0
XRECORD
  5
140
102
{ACAD_REACTORS
330
13F
102
}
330
13F
100
AcDbXrecord
280
     1
102
RTVSPost2010Prop28
280
     0
102
RTVSPost2010PropOp28
 70
     1
102
RTVSPost2010Prop29
280
     1
102
RTVSPost2010PropOp29
 70
     1
102
RTVSPost2010Prop30
280
     1
102
RTVSPost2010PropOp30
 70
     1
102
RTVSPost2010Prop31
280
     0
102
RTVSPost2010PropOp31
 70
     1
102
RTVSPost2010Prop32
280
     0
102
RTVSPost2010PropOp32
 70
     1
102
RTVSPost2010Prop33
280
     0
102
RTVSPost2010PropOp33
 70
     1
102
RTVSPost2010Prop34
280
     0
102
RTVSPost2010PropOp34
 70
     1
102
RTVSPost2010Prop35
280
     0
102
RTVSPost2010PropOp35
 70
     1
102
RTVSPost2010Prop36
280
     0
102
RTVSPost2010PropOp36
 70
     1
102
RTVSPost2010Prop37
 90
       50
102
RTVSPost2010PropOp37
 70
     1
102
RTVSPost2010Prop38
140
0.0
102
RTVSPost2010PropOp38
 70
     1
102
RTVSPost2010Prop39
140
1.0
102
RTVSPost2010PropOp39
 70
     1
102
RTVSPost2010Prop40
 90
        0
102
RTVSPost2010PropOp40
 70
     1
102
RTVSPost2010Prop41ColorIndex
 90
       18
102
RTVSPost2010Prop41ColorRGB
 90
        0
102
RTVSPost2010PropOp41
 70
     1
102
RTVSPost2010Prop42
 90
       50
102
RTVSPost2010PropOp42
 70
     1
102
RTVSPost2010Prop43
 90
        3
102
RTVSPost2010PropOp43
 70
     1
102
RTVSPost2010Prop44ColorIndex
 90
        5
102
RTVSPost2010Prop44ColorRGB
 90
      255
102
RTVSPost2010PropOp44
 70
     1
102
RTVSPost2010Prop45
280
     0
102
RTVSPost2010PropOp45
 70
     1
102
RTVSPost2010Prop46
 90
       50
102
RTVSPost2010PropOp46
 70
     1
102
RTVSPost2010Prop47
 90
       50
102
RTVSPost2010PropOp47
 70
     1
102
RTVSPost2010Prop48
 90
       50
102
RTVSPost2010PropOp48
 70
     1
102
RTVSPost2010Prop49
280
     0
102
RTVSPost2010PropOp49
 70
     1
102
RTVSPost2010Prop50
 90
       50
102
RTVSPost2010PropOp50
 70
     1
102
RTVSPost2010Prop51ColorIndex
 90
      256
102
RTVSPost2010Prop51ColorRGB
 90
-16777216
102
RTVSPost2010PropOp51
 70
     0
102
RTVSPost2010Prop52
140
1.0
102
RTVSPost2010PropOp52
 70
     0
102
RTVSPost2010Prop53
 90
        2
102
RTVSPost2010PropOp53
 70
     1
102
RTVSPost2010Prop54
  1
strokes_ogs.tif
102
RTVSPost2010PropOp54
 70
     1
102
RTVSPost2010Prop55
280
     0
102
RTVSPost2010PropOp55
 70
     1
102
RTVSPost2010Prop56
140
1.0
102
RTVSPost2010PropOp56
 70
     1
102
RTVSPost2010Prop57
140
1.0
102
RTVSPost2010PropOp57
 70
     1
  0
XRECORD
  5
144
102
{ACAD_REACTORS
330
143
102
}
330
143
100
AcDbXrecord
280
     1
102
RTVSPost2010Prop28
280
     0
102
RTVSPost2010PropOp28
 70
     1
102
RTVSPost2010Prop29
280
     1
102
RTVSPost2010PropOp29
 70
     1
102
RTVSPost2010Prop30
280
     1
102
RTVSPost2010PropOp30
 70
     1
102
RTVSPost2010Prop31
280
     0
102
RTVSPost2010PropOp31
 70
     1
102
RTVSPost2010Prop32
280
     0
102
RTVSPost2010PropOp32
 70
     1
102
RTVSPost2010Prop33
280
     0
102
RTVSPost2010PropOp33
 70
     1
102
RTVSPost2010Prop34
280
     0
102
RTVSPost2010PropOp34
 70
     1
102
RTVSPost2010Prop35
280
     0
102
RTVSPost2010PropOp35
 70
     1
102
RTVSPost2010Prop36
280
     0
102
RTVSPost2010PropOp36
 70
     1
102
RTVSPost2010Prop37
 90
       50
102
RTVSPost2010PropOp37
 70
     1
102
RTVSPost2010Prop38
140
0.0
102
RTVSPost2010PropOp38
 70
     1
102
RTVSPost2010Prop39
140
1.0
102
RTVSPost2010PropOp39
 70
     1
102
RTVSPost2010Prop40
 90
        0
102
RTVSPost2010PropOp40
 70
     1
102
RTVSPost2010Prop41ColorIndex
 90
       18
102
RTVSPost2010Prop41ColorRGB
 90
        0
102
RTVSPost2010PropOp41
 70
     1
102
RTVSPost2010Prop42
 90
       50
102
RTVSPost2010PropOp42
 70
     1
102
RTVSPost2010Prop43
 90
        3
102
RTVSPost2010PropOp43
 70
     1
102
RTVSPost2010Prop44ColorIndex
 90
        5
102
RTVSPost2010Prop44ColorRGB
 90
      255
102
RTVSPost2010PropOp44
 70
     1
102
RTVSPost2010Prop45
280
     0
102
RTVSPost2010PropOp45
 70
     1
102
RTVSPost2010Prop46
 90
       50
102
RTVSPost2010PropOp46
 70
     1
102
RTVSPost2010Prop47
 90
       50
102
RTVSPost2010PropOp47
 70
     1
102
RTVSPost2010Prop48
 90
       50
102
RTVSPost2010PropOp48
 70
     1
102
RTVSPost2010Prop49
280
     0
102
RTVSPost2010PropOp49
 70
     1
102
RTVSPost2010Prop50
 90
       50
102
RTVSPost2010PropOp50
 70
     1
102
RTVSPost2010Prop51ColorIndex
 90
      256
102
RTVSPost2010Prop51ColorRGB
 90
-16777216
102
RTVSPost2010PropOp51
 70
     0
102
RTVSPost2010Prop52
140
1.0
102
RTVSPost2010PropOp52
 70
     0
102
RTVSPost2010Prop53
 90
        2
102
RTVSPost2010PropOp53
 70
     1
102
RTVSPost2010Prop54
  1
strokes_ogs.tif
102
RTVSPost2010PropOp54
 70
     1
102
RTVSPost2010Prop55
280
     0
102
RTVSPost2010PropOp55
 70
     1
102
RTVSPost2010Prop56
140
1.0
102
RTVSPost2010PropOp56
 70
     1
102
RTVSPost2010Prop57
140
1.0
102
RTVSPost2010PropOp57
 70
     1
  0
XRECORD
  5
15E
102
{ACAD_REACTORS
330
15D
102
}
330
15D
100
AcDbXrecord
280
     1
102
RTVSPost2010Prop28
280
     0
102
RTVSPost2010PropOp28
 70
     0
102
RTVSPost2010Prop29
280
     1
102
RTVSPost2010PropOp29
 70
     0
102
RTVSPost2010Prop30
280
     1
102
RTVSPost2010PropOp30
 70
     0
102
RTVSPost2010Prop31
280
     0
102
RTVSPost2010PropOp31
 70
     0
102
RTVSPost2010Prop32
280
     0
102
RTVSPost2010PropOp32
 70
     0
102
RTVSPost2010Prop33
280
     0
102
RTVSPost2010PropOp33
 70
     0
102
RTVSPost2010Prop34
280
     0
102
RTVSPost2010PropOp34
 70
     0
102
RTVSPost2010Prop35
280
     0
102
RTVSPost2010PropOp35
 70
     0
102
RTVSPost2010Prop36
280
     0
102
RTVSPost2010PropOp36
 70
     0
102
RTVSPost2010Prop37
 90
       50
102
RTVSPost2010PropOp37
 70
     0
102
RTVSPost2010Prop38
140
0.0
102
RTVSPost2010PropOp38
 70
     0
102
RTVSPost2010Prop39
140
1.0
102
RTVSPost2010PropOp39
 70
     0
102
RTVSPost2010Prop40
 90
        0
102
RTVSPost2010PropOp40
 70
     0
102
RTVSPost2010Prop41ColorIndex
 90
       18
102
RTVSPost2010Prop41ColorRGB
 90
        0
102
RTVSPost2010PropOp41
 70
     0
102
RTVSPost2010Prop42
 90
       50
102
RTVSPost2010PropOp42
 70
     0
102
RTVSPost2010Prop43
 90
        3
102
RTVSPost2010PropOp43
 70
     0
102
RTVSPost2010Prop44ColorIndex
 90
        5
102
RTVSPost2010Prop44ColorRGB
 90
      255
102
RTVSPost2010PropOp44
 70
     0
102
RTVSPost2010Prop45
280
     0
102
RTVSPost2010PropOp45
 70
     0
102
RTVSPost2010Prop46
 90
       50
102
RTVSPost2010PropOp46
 70
     0
102
RTVSPost2010Prop47
 90
       50
102
RTVSPost2010PropOp47
 70
     0
102
RTVSPost2010Prop48
 90
       50
102
RTVSPost2010PropOp48
 70
     0
102
RTVSPost2010Prop49
280
     0
102
RTVSPost2010PropOp49
 70
     0
102
RTVSPost2010Prop50
 90
       50
102
RTVSPost2010PropOp50
 70
     0
102
RTVSPost2010Prop51ColorIndex
 90
      256
102
RTVSPost2010Prop51ColorRGB
 90
-16777216
102
RTVSPost2010PropOp51
 70
     0
102
RTVSPost2010Prop52
140
1.0
102
RTVSPost2010PropOp52
 70
     0
102
RTVSPost2010Prop53
 90
        2
102
RTVSPost2010PropOp53
 70
     0
102
RTVSPost2010Prop54
  1
strokes_ogs.tif
102
RTVSPost2010PropOp54
 70
     0
102
RTVSPost2010Prop55
280
     0
102
RTVSPost2010PropOp55
 70
     0
102
RTVSPost2010Prop56
140
1.0
102
RTVSPost2010PropOp56
 70
     0
102
RTVSPost2010Prop57
140
1.0
102
RTVSPost2010PropOp57
 70
     0
  0
XRECORD
  5
14C
102
{ACAD_REACTORS
330
14B
102
}
330
14B
100
AcDbXrecord
280
     1
102
RTVSPost2010Prop28
280
     0
102
RTVSPost2010PropOp28
 70
     1
102
RTVSPost2010Prop29
280
     1
102
RTVSPost2010PropOp29
 70
     1
102
RTVSPost2010Prop30
280
     1
102
RTVSPost2010PropOp30
 70
     1
102
RTVSPost2010Prop31
280
     0
102
RTVSPost2010PropOp31
 70
     1
102
RTVSPost2010Prop32
280
     0
102
RTVSPost2010PropOp32
 70
     1
102
RTVSPost2010Prop33
280
     0
102
RTVSPost2010PropOp33
 70
     1
102
RTVSPost2010Prop34
280
     0
102
RTVSPost2010PropOp34
 70
     1
102
RTVSPost2010Prop35
280
     0
102
RTVSPost2010PropOp35
 70
     1
102
RTVSPost2010Prop36
280
     0
102
RTVSPost2010PropOp36
 70
     1
102
RTVSPost2010Prop37
 90
       50
102
RTVSPost2010PropOp37
 70
     1
102
RTVSPost2010Prop38
140
0.0
102
RTVSPost2010PropOp38
 70
     1
102
RTVSPost2010Prop39
140
1.0
102
RTVSPost2010PropOp39
 70
     1
102
RTVSPost2010Prop40
 90
        0
102
RTVSPost2010PropOp40
 70
     1
102
RTVSPost2010Prop41ColorIndex
 90
       18
102
RTVSPost2010Prop41ColorRGB
 90
        0
102
RTVSPost2010PropOp41
 70
     1
102
RTVSPost2010Prop42
 90
       50
102
RTVSPost2010PropOp42
 70
     1
102
RTVSPost2010Prop43
 90
        3
102
RTVSPost2010PropOp43
 70
     1
102
RTVSPost2010Prop44ColorIndex
 90
        5
102
RTVSPost2010Prop44ColorRGB
 90
      255
102
RTVSPost2010PropOp44
 70
     1
102
RTVSPost2010Prop45
280
     0
102
RTVSPost2010PropOp45
 70
     1
102
RTVSPost2010Prop46
 90
       50
102
RTVSPost2010PropOp46
 70
     1
102
RTVSPost2010Prop47
 90
       50
102
RTVSPost2010PropOp47
 70
     1
102
RTVSPost2010Prop48
 90
       50
102
RTVSPost2010PropOp48
 70
     1
102
RTVSPost2010Prop49
280
     0
102
RTVSPost2010PropOp49
 70
     1
102
RTVSPost2010Prop50
 90
       50
102
RTVSPost2010PropOp50
 70
     1
102
RTVSPost2010Prop51ColorIndex
 90
      256
102
RTVSPost2010Prop51ColorRGB
 90
-16777216
102
RTVSPost2010PropOp51
 70
     0
102
RTVSPost2010Prop52
140
1.0
102
RTVSPost2010PropOp52
 70
     0
102
RTVSPost2010Prop53
 90
        2
102
RTVSPost2010PropOp53
 70
     1
102
RTVSPost2010Prop54
  1
strokes_ogs.tif
102
RTVSPost2010PropOp54
 70
     1
102
RTVSPost2010Prop55
280
     0
102
RTVSPost2010PropOp55
 70
     1
102
RTVSPost2010Prop56
140
1.0
102
RTVSPost2010PropOp56
 70
     1
102
RTVSPost2010Prop57
140
1.0
102
RTVSPost2010PropOp57
 70
     1
  0
XRECORD
  5
130
102
{ACAD_REACTORS
330
12F
102
}
330
12F
100
AcDbXrecord
280
     1
102
RTVSPost2010Prop28
280
     0
102
RTVSPost2010PropOp28
 70
     1
102
RTVSPost2010Prop29
280
     1
102
RTVSPost2010PropOp29
 70
     1
102
RTVSPost2010Prop30
280
     1
102
RTVSPost2010PropOp30
 70
     1
102
RTVSPost2010Prop31
280
     0
102
RTVSPost2010PropOp31
 70
     1
102
RTVSPost2010Prop32
280
     0
102
RTVSPost2010PropOp32
 70
     1
102
RTVSPost2010Prop33
280
     0
102
RTVSPost2010PropOp33
 70
     1
102
RTVSPost2010Prop34
280
     0
102
RTVSPost2010PropOp34
 70
     1
102
RTVSPost2010Prop35
280
     0
102
RTVSPost2010PropOp35
 70
     1
102
RTVSPost2010Prop36
280
     0
102
RTVSPost2010PropOp36
 70
     1
102
RTVSPost2010Prop37
 90
       50
102
RTVSPost2010PropOp37
 70
     1
102
RTVSPost2010Prop38
140
0.0
102
RTVSPost2010PropOp38
 70
     1
102
RTVSPost2010Prop39
140
1.0
102
RTVSPost2010PropOp39
 70
     1
102
RTVSPost2010Prop40
 90
        0
102
RTVSPost2010PropOp40
 70
     1
102
RTVSPost2010Prop41ColorIndex
 90
       18
102
RTVSPost2010Prop41ColorRGB
 90
        0
102
RTVSPost2010PropOp41
 70
     1
102
RTVSPost2010Prop42
 90
       50
102
RTVSPost2010PropOp42
 70
     1
102
RTVSPost2010Prop43
 90
        3
102
RTVSPost2010PropOp43
 70
     1
102
RTVSPost2010Prop44ColorIndex
 90
        5
102
RTVSPost2010Prop44ColorRGB
 90
      255
102
RTVSPost2010PropOp44
 70
     1
102
RTVSPost2010Prop45
280
     0
102
RTVSPost2010PropOp45
 70
     1
102
RTVSPost2010Prop46
 90
       50
102
RTVSPost2010PropOp46
 70
     1
102
RTVSPost2010Prop47
 90
       50
102
RTVSPost2010PropOp47
 70
     1
102
RTVSPost2010Prop48
 90
       50
102
RTVSPost2010PropOp48
 70
     1
102
RTVSPost2010Prop49
280
     0
102
RTVSPost2010PropOp49
 70
     1
102
RTVSPost2010Prop50
 90
       50
102
RTVSPost2010PropOp50
 70
     1
102
RTVSPost2010Prop51ColorIndex
 90
      256
102
RTVSPost2010Prop51ColorRGB
 90
-16777216
102
RTVSPost2010PropOp51
 70
     0
102
RTVSPost2010Prop52
140
1.0
102
RTVSPost2010PropOp52
 70
     0
102
RTVSPost2010Prop53
 90
        2
102
RTVSPost2010PropOp53
 70
     1
102
RTVSPost2010Prop54
  1
strokes_ogs.tif
102
RTVSPost2010PropOp54
 70
     1
102
RTVSPost2010Prop55
280
     0
102
RTVSPost2010PropOp55
 70
     1
102
RTVSPost2010Prop56
140
1.0
102
RTVSPost2010PropOp56
 70
     1
102
RTVSPost2010Prop57
140
1.0
102
RTVSPost2010PropOp57
 70
     1
  0
XRECORD
  5
132
102
{ACAD_REACTORS
330
131
102
}
330
131
100
AcDbXrecord
280
     1
102
RTVSPost2010Prop28
280
     0
102
RTVSPost2010PropOp28
 70
     1
102
RTVSPost2010Prop29
280
     1
102
RTVSPost2010PropOp29
 70
     1
102
RTVSPost2010Prop30
280
     1
102
RTVSPost2010PropOp30
 70
     1
102
RTVSPost2010Prop31
280
     0
102
RTVSPost2010PropOp31
 70
     1
102
RTVSPost2010Prop32
280
     0
102
RTVSPost2010PropOp32
 70
     1
102
RTVSPost2010Prop33
280
     0
102
RTVSPost2010PropOp33
 70
     1
102
RTVSPost2010Prop34
280
     0
102
RTVSPost2010PropOp34
 70
     1
102
RTVSPost2010Prop35
280
     0
102
RTVSPost2010PropOp35
 70
     1
102
RTVSPost2010Prop36
280
     0
102
RTVSPost2010PropOp36
 70
     1
102
RTVSPost2010Prop37
 90
       50
102
RTVSPost2010PropOp37
 70
     1
102
RTVSPost2010Prop38
140
0.0
102
RTVSPost2010PropOp38
 70
     1
102
RTVSPost2010Prop39
140
1.0
102
RTVSPost2010PropOp39
 70
     1
102
RTVSPost2010Prop40
 90
        0
102
RTVSPost2010PropOp40
 70
     1
102
RTVSPost2010Prop41ColorIndex
 90
       18
102
RTVSPost2010Prop41ColorRGB
 90
        0
102
RTVSPost2010PropOp41
 70
     1
102
RTVSPost2010Prop42
 90
       50
102
RTVSPost2010PropOp42
 70
     1
102
RTVSPost2010Prop43
 90
        3
102
RTVSPost2010PropOp43
 70
     1
102
RTVSPost2010Prop44ColorIndex
 90
        5
102
RTVSPost2010Prop44ColorRGB
 90
      255
102
RTVSPost2010PropOp44
 70
     1
102
RTVSPost2010Prop45
280
     0
102
RTVSPost2010PropOp45
 70
     1
102
RTVSPost2010Prop46
 90
       50
102
RTVSPost2010PropOp46
 70
     1
102
RTVSPost2010Prop47
 90
       50
102
RTVSPost2010PropOp47
 70
     1
102
RTVSPost2010Prop48
 90
       50
102
RTVSPost2010PropOp48
 70
     1
102
RTVSPost2010Prop49
280
     0
102
RTVSPost2010PropOp49
 70
     1
102
RTVSPost2010Prop50
 90
       50
102
RTVSPost2010PropOp50
 70
     1
102
RTVSPost2010Prop51ColorIndex
 90
      256
102
RTVSPost2010Prop51ColorRGB
 90
-16777216
102
RTVSPost2010PropOp51
 70
     0
102
RTVSPost2010Prop52
140
1.0
102
RTVSPost2010PropOp52
 70
     0
102
RTVSPost2010Prop53
 90
        2
102
RTVSPost2010PropOp53
 70
     1
102
RTVSPost2010Prop54
  1
strokes_ogs.tif
102
RTVSPost2010PropOp54
 70
     1
102
RTVSPost2010Prop55
280
     0
102
RTVSPost2010PropOp55
 70
     1
102
RTVSPost2010Prop56
140
1.0
102
RTVSPost2010PropOp56
 70
     1
102
RTVSPost2010Prop57
140
1.0
102
RTVSPost2010PropOp57
 70
     1
  0
XRECORD
  5
134
102
{ACAD_REACTORS
330
133
102
}
330
133
100
AcDbXrecord
280
     1
102
RTVSPost2010Prop28
280
     0
102
RTVSPost2010PropOp28
 70
     1
102
RTVSPost2010Prop29
280
     1
102
RTVSPost2010PropOp29
 70
     1
102
RTVSPost2010Prop30
280
     1
102
RTVSPost2010PropOp30
 70
     1
102
RTVSPost2010Prop31
280
     0
102
RTVSPost2010PropOp31
 70
     1
102
RTVSPost2010Prop32
280
     0
102
RTVSPost2010PropOp32
 70
     1
102
RTVSPost2010Prop33
280
     0
102
RTVSPost2010PropOp33
 70
     1
102
RTVSPost2010Prop34
280
     0
102
RTVSPost2010PropOp34
 70
     1
102
RTVSPost2010Prop35
280
     0
102
RTVSPost2010PropOp35
 70
     1
102
RTVSPost2010Prop36
280
     0
102
RTVSPost2010PropOp36
 70
     1
102
RTVSPost2010Prop37
 90
       50
102
RTVSPost2010PropOp37
 70
     1
102
RTVSPost2010Prop38
140
0.0
102
RTVSPost2010PropOp38
 70
     1
102
RTVSPost2010Prop39
140
1.0
102
RTVSPost2010PropOp39
 70
     1
102
RTVSPost2010Prop40
 90
        0
102
RTVSPost2010PropOp40
 70
     1
102
RTVSPost2010Prop41ColorIndex
 90
       18
102
RTVSPost2010Prop41ColorRGB
 90
        0
102
RTVSPost2010PropOp41
 70
     1
102
RTVSPost2010Prop42
 90
       50
102
RTVSPost2010PropOp42
 70
     1
102
RTVSPost2010Prop43
 90
        3
102
RTVSPost2010PropOp43
 70
     1
102
RTVSPost2010Prop44ColorIndex
 90
        5
102
RTVSPost2010Prop44ColorRGB
 90
      255
102
RTVSPost2010PropOp44
 70
     1
102
RTVSPost2010Prop45
280
     0
102
RTVSPost2010PropOp45
 70
     1
102
RTVSPost2010Prop46
 90
       50
102
RTVSPost2010PropOp46
 70
     1
102
RTVSPost2010Prop47
 90
       50
102
RTVSPost2010PropOp47
 70
     1
102
RTVSPost2010Prop48
 90
       50
102
RTVSPost2010PropOp48
 70
     1
102
RTVSPost2010Prop49
280
     0
102
RTVSPost2010PropOp49
 70
     1
102
RTVSPost2010Prop50
 90
       50
102
RTVSPost2010PropOp50
 70
     1
102
RTVSPost2010Prop51ColorIndex
 90
      256
102
RTVSPost2010Prop51ColorRGB
 90
-16777216
102
RTVSPost2010PropOp51
 70
     0
102
RTVSPost2010Prop52
140
1.0
102
RTVSPost2010PropOp52
 70
     0
102
RTVSPost2010Prop53
 90
        2
102
RTVSPost2010PropOp53
 70
     1
102
RTVSPost2010Prop54
  1
strokes_ogs.tif
102
RTVSPost2010PropOp54
 70
     1
102
RTVSPost2010Prop55
280
     0
102
RTVSPost2010PropOp55
 70
     1
102
RTVSPost2010Prop56
140
1.0
102
RTVSPost2010PropOp56
 70
     1
102
RTVSPost2010Prop57
140
1.0
102
RTVSPost2010PropOp57
 70
     1
  0
XRECORD
  5
136
102
{ACAD_REACTORS
330
135
102
}
330
135
100
AcDbXrecord
280
     1
102
RTVSPost2010Prop28
280
     0
102
RTVSPost2010PropOp28
 70
     1
102
RTVSPost2010Prop29
280
     1
102
RTVSPost2010PropOp29
 70
     1
102
RTVSPost2010Prop30
280
     1
102
RTVSPost2010PropOp30
 70
     1
102
RTVSPost2010Prop31
280
     0
102
RTVSPost2010PropOp31
 70
     1
102
RTVSPost2010Prop32
280
     0
102
RTVSPost2010PropOp32
 70
     1
102
RTVSPost2010Prop33
280
     0
102
RTVSPost2010PropOp33
 70
     1
102
RTVSPost2010Prop34
280
     0
102
RTVSPost2010PropOp34
 70
     1
102
RTVSPost2010Prop35
280
     0
102
RTVSPost2010PropOp35
 70
     1
102
RTVSPost2010Prop36
280
     0
102
RTVSPost2010PropOp36
 70
     1
102
RTVSPost2010Prop37
 90
       50
102
RTVSPost2010PropOp37
 70
     1
102
RTVSPost2010Prop38
140
0.0
102
RTVSPost2010PropOp38
 70
     1
102
RTVSPost2010Prop39
140
1.0
102
RTVSPost2010PropOp39
 70
     1
102
RTVSPost2010Prop40
 90
        0
102
RTVSPost2010PropOp40
 70
     1
102
RTVSPost2010Prop41ColorIndex
 90
       18
102
RTVSPost2010Prop41ColorRGB
 90
        0
102
RTVSPost2010PropOp41
 70
     1
102
RTVSPost2010Prop42
 90
       50
102
RTVSPost2010PropOp42
 70
     1
102
RTVSPost2010Prop43
 90
        3
102
RTVSPost2010PropOp43
 70
     1
102
RTVSPost2010Prop44ColorIndex
 90
        5
102
RTVSPost2010Prop44ColorRGB
 90
      255
102
RTVSPost2010PropOp44
 70
     1
102
RTVSPost2010Prop45
280
     0
102
RTVSPost2010PropOp45
 70
     1
102
RTVSPost2010Prop46
 90
       50
102
RTVSPost2010PropOp46
 70
     1
102
RTVSPost2010Prop47
 90
       50
102
RTVSPost2010PropOp47
 70
     1
102
RTVSPost2010Prop48
 90
       50
102
RTVSPost2010PropOp48
 70
     1
102
RTVSPost2010Prop49
280
     0
102
RTVSPost2010PropOp49
 70
     1
102
RTVSPost2010Prop50
 90
       50
102
RTVSPost2010PropOp50
 70
     1
102
RTVSPost2010Prop51ColorIndex
 90
      256
102
RTVSPost2010Prop51ColorRGB
 90
-16777216
102
RTVSPost2010PropOp51
 70
     0
102
RTVSPost2010Prop52
140
1.0
102
RTVSPost2010PropOp52
 70
     0
102
RTVSPost2010Prop53
 90
        2
102
RTVSPost2010PropOp53
 70
     1
102
RTVSPost2010Prop54
  1
strokes_ogs.tif
102
RTVSPost2010PropOp54
 70
     1
102
RTVSPost2010Prop55
280
     0
102
RTVSPost2010PropOp55
 70
     1
102
RTVSPost2010Prop56
140
1.0
102
RTVSPost2010PropOp56
 70
     1
102
RTVSPost2010Prop57
140
1.0
102
RTVSPost2010PropOp57
 70
     1
  0
XRECORD
  5
13E
102
{ACAD_REACTORS
330
13D
102
}
330
13D
100
AcDbXrecord
280
     1
102
RTVSPost2010Prop28
280
     0
102
RTVSPost2010PropOp28
 70
     1
102
RTVSPost2010Prop29
280
     1
102
RTVSPost2010PropOp29
 70
     1
102
RTVSPost2010Prop30
280
     1
102
RTVSPost2010PropOp30
 70
     1
102
RTVSPost2010Prop31
280
     0
102
RTVSPost2010PropOp31
 70
     1
102
RTVSPost2010Prop32
280
     0
102
RTVSPost2010PropOp32
 70
     1
102
RTVSPost2010Prop33
280
     0
102
RTVSPost2010PropOp33
 70
     1
102
RTVSPost2010Prop34
280
     0
102
RTVSPost2010PropOp34
 70
     1
102
RTVSPost2010Prop35
280
     0
102
RTVSPost2010PropOp35
 70
     1
102
RTVSPost2010Prop36
280
     0
102
RTVSPost2010PropOp36
 70
     1
102
RTVSPost2010Prop37
 90
       50
102
RTVSPost2010PropOp37
 70
     1
102
RTVSPost2010Prop38
140
0.0
102
RTVSPost2010PropOp38
 70
     1
102
RTVSPost2010Prop39
140
1.0
102
RTVSPost2010PropOp39
 70
     1
102
RTVSPost2010Prop40
 90
        0
102
RTVSPost2010PropOp40
 70
     1
102
RTVSPost2010Prop41ColorIndex
 90
       18
102
RTVSPost2010Prop41ColorRGB
 90
        0
102
RTVSPost2010PropOp41
 70
     1
102
RTVSPost2010Prop42
 90
       50
102
RTVSPost2010PropOp42
 70
     1
102
RTVSPost2010Prop43
 90
        3
102
RTVSPost2010PropOp43
 70
     1
102
RTVSPost2010Prop44ColorIndex
 90
        5
102
RTVSPost2010Prop44ColorRGB
 90
      255
102
RTVSPost2010PropOp44
 70
     1
102
RTVSPost2010Prop45
280
     0
102
RTVSPost2010PropOp45
 70
     1
102
RTVSPost2010Prop46
 90
       50
102
RTVSPost2010PropOp46
 70
     1
102
RTVSPost2010Prop47
 90
       50
102
RTVSPost2010PropOp47
 70
     1
102
RTVSPost2010Prop48
 90
       50
102
RTVSPost2010PropOp48
 70
     1
102
RTVSPost2010Prop49
280
     0
102
RTVSPost2010PropOp49
 70
     1
102
RTVSPost2010Prop50
 90
       50
102
RTVSPost2010PropOp50
 70
     1
102
RTVSPost2010Prop51ColorIndex
 90
      256
102
RTVSPost2010Prop51ColorRGB
 90
-16777216
102
RTVSPost2010PropOp51
 70
     0
102
RTVSPost2010Prop52
140
1.0
102
RTVSPost2010PropOp52
 70
     0
102
RTVSPost2010Prop53
 90
        2
102
RTVSPost2010PropOp53
 70
     1
102
RTVSPost2010Prop54
  1
strokes_ogs.tif
102
RTVSPost2010PropOp54
 70
     1
102
RTVSPost2010Prop55
280
     0
102
RTVSPost2010PropOp55
 70
     1
102
RTVSPost2010Prop56
140
1.0
102
RTVSPost2010PropOp56
 70
     1
102
RTVSPost2010Prop57
140
1.0
102
RTVSPost2010PropOp57
 70
     1
  0
XRECORD
  5
15A
102
{ACAD_REACTORS
330
159
102
}
330
159
100
AcDbXrecord
280
     1
102
RTVSPost2010Prop28
280
     0
102
RTVSPost2010PropOp28
 70
     0
102
RTVSPost2010Prop29
280
     1
102
RTVSPost2010PropOp29
 70
     0
102
RTVSPost2010Prop30
280
     1
102
RTVSPost2010PropOp30
 70
     0
102
RTVSPost2010Prop31
280
     0
102
RTVSPost2010PropOp31
 70
     0
102
RTVSPost2010Prop32
280
     0
102
RTVSPost2010PropOp32
 70
     0
102
RTVSPost2010Prop33
280
     0
102
RTVSPost2010PropOp33
 70
     0
102
RTVSPost2010Prop34
280
     0
102
RTVSPost2010PropOp34
 70
     0
102
RTVSPost2010Prop35
280
     0
102
RTVSPost2010PropOp35
 70
     0
102
RTVSPost2010Prop36
280
     0
102
RTVSPost2010PropOp36
 70
     0
102
RTVSPost2010Prop37
 90
       50
102
RTVSPost2010PropOp37
 70
     0
102
RTVSPost2010Prop38
140
0.0
102
RTVSPost2010PropOp38
 70
     0
102
RTVSPost2010Prop39
140
1.0
102
RTVSPost2010PropOp39
 70
     0
102
RTVSPost2010Prop40
 90
        0
102
RTVSPost2010PropOp40
 70
     0
102
RTVSPost2010Prop41ColorIndex
 90
       18
102
RTVSPost2010Prop41ColorRGB
 90
        0
102
RTVSPost2010PropOp41
 70
     0
102
RTVSPost2010Prop42
 90
       50
102
RTVSPost2010PropOp42
 70
     0
102
RTVSPost2010Prop43
 90
        3
102
RTVSPost2010PropOp43
 70
     0
102
RTVSPost2010Prop44ColorIndex
 90
        5
102
RTVSPost2010Prop44ColorRGB
 90
      255
102
RTVSPost2010PropOp44
 70
     0
102
RTVSPost2010Prop45
280
     0
102
RTVSPost2010PropOp45
 70
     0
102
RTVSPost2010Prop46
 90
       50
102
RTVSPost2010PropOp46
 70
     0
102
RTVSPost2010Prop47
 90
       50
102
RTVSPost2010PropOp47
 70
     0
102
RTVSPost2010Prop48
 90
       50
102
RTVSPost2010PropOp48
 70
     0
102
RTVSPost2010Prop49
280
     0
102
RTVSPost2010PropOp49
 70
     0
102
RTVSPost2010Prop50
 90
       50
102
RTVSPost2010PropOp50
 70
     0
102
RTVSPost2010Prop51ColorIndex
 90
      256
102
RTVSPost2010Prop51ColorRGB
 90
-16777216
102
RTVSPost2010PropOp51
 70
     0
102
RTVSPost2010Prop52
140
1.0
102
RTVSPost2010PropOp52
 70
     0
102
RTVSPost2010Prop53
 90
        2
102
RTVSPost2010PropOp53
 70
     0
102
RTVSPost2010Prop54
  1
strokes_ogs.tif
102
RTVSPost2010PropOp54
 70
     0
102
RTVSPost2010Prop55
280
     0
102
RTVSPost2010PropOp55
 70
     0
102
RTVSPost2010Prop56
140
1.0
102
RTVSPost2010PropOp56
 70
     0
102
RTVSPost2010Prop57
140
1.0
102
RTVSPost2010PropOp57
 70
     0
  0
XRECORD
  5
14A
102
{ACAD_REACTORS
330
149
102
}
330
149
100
AcDbXrecord
280
     1
102
RTVSPost2010Prop28
280
     0
102
RTVSPost2010PropOp28
 70
     1
102
RTVSPost2010Prop29
280
     1
102
RTVSPost2010PropOp29
 70
     1
102
RTVSPost2010Prop30
280
     1
102
RTVSPost2010PropOp30
 70
     1
102
RTVSPost2010Prop31
280
     0
102
RTVSPost2010PropOp31
 70
     1
102
RTVSPost2010Prop32
280
     0
102
RTVSPost2010PropOp32
 70
     1
102
RTVSPost2010Prop33
280
     0
102
RTVSPost2010PropOp33
 70
     1
102
RTVSPost2010Prop34
280
     0
102
RTVSPost2010PropOp34
 70
     1
102
RTVSPost2010Prop35
280
     0
102
RTVSPost2010PropOp35
 70
     1
102
RTVSPost2010Prop36
280
     0
102
RTVSPost2010PropOp36
 70
     1
102
RTVSPost2010Prop37
 90
       50
102
RTVSPost2010PropOp37
 70
     1
102
RTVSPost2010Prop38
140
0.0
102
RTVSPost2010PropOp38
 70
     1
102
RTVSPost2010Prop39
140
1.0
102
RTVSPost2010PropOp39
 70
     1
102
RTVSPost2010Prop40
 90
        0
102
RTVSPost2010PropOp40
 70
     1
102
RTVSPost2010Prop41ColorIndex
 90
       18
102
RTVSPost2010Prop41ColorRGB
 90
        0
102
RTVSPost2010PropOp41
 70
     1
102
RTVSPost2010Prop42
 90
       50
102
RTVSPost2010PropOp42
 70
     1
102
RTVSPost2010Prop43
 90
        3
102
RTVSPost2010PropOp43
 70
     1
102
RTVSPost2010Prop44ColorIndex
 90
        5
102
RTVSPost2010Prop44ColorRGB
 90
      255
102
RTVSPost2010PropOp44
 70
     1
102
RTVSPost2010Prop45
280
     0
102
RTVSPost2010PropOp45
 70
     1
102
RTVSPost2010Prop46
 90
       50
102
RTVSPost2010PropOp46
 70
     1
102
RTVSPost2010Prop47
 90
       50
102
RTVSPost2010PropOp47
 70
     1
102
RTVSPost2010Prop48
 90
       50
102
RTVSPost2010PropOp48
 70
     1
102
RTVSPost2010Prop49
280
     0
102
RTVSPost2010PropOp49
 70
     1
102
RTVSPost2010Prop50
 90
       50
102
RTVSPost2010PropOp50
 70
     1
102
RTVSPost2010Prop51ColorIndex
 90
      256
102
RTVSPost2010Prop51ColorRGB
 90
-16777216
102
RTVSPost2010PropOp51
 70
     0
102
RTVSPost2010Prop52
140
1.0
102
RTVSPost2010PropOp52
 70
     0
102
RTVSPost2010Prop53
 90
        2
102
RTVSPost2010PropOp53
 70
     1
102
RTVSPost2010Prop54
  1
strokes_ogs.tif
102
RTVSPost2010PropOp54
 70
     1
102
RTVSPost2010Prop55
280
     0
102
RTVSPost2010PropOp55
 70
     1
102
RTVSPost2010Prop56
140
1.0
102
RTVSPost2010PropOp56
 70
     1
102
RTVSPost2010Prop57
140
1.0
102
RTVSPost2010PropOp57
 70
     1
  0
XRECORD
  5
15C
102
{ACAD_REACTORS
330
15B
102
}
330
15B
100
AcDbXrecord
280
     1
102
RTVSPost2010Prop28
280
     0
102
RTVSPost2010PropOp28
 70
     0
102
RTVSPost2010Prop29
280
     1
102
RTVSPost2010PropOp29
 70
     0
102
RTVSPost2010Prop30
280
     1
102
RTVSPost2010PropOp30
 70
     0
102
RTVSPost2010Prop31
280
     0
102
RTVSPost2010PropOp31
 70
     0
102
RTVSPost2010Prop32
280
     0
102
RTVSPost2010PropOp32
 70
     0
102
RTVSPost2010Prop33
280
     0
102
RTVSPost2010PropOp33
 70
     0
102
RTVSPost2010Prop34
280
     0
102
RTVSPost2010PropOp34
 70
     0
102
RTVSPost2010Prop35
280
     0
102
RTVSPost2010PropOp35
 70
     0
102
RTVSPost2010Prop36
280
     0
102
RTVSPost2010PropOp36
 70
     0
102
RTVSPost2010Prop37
 90
       50
102
RTVSPost2010PropOp37
 70
     0
102
RTVSPost2010Prop38
140
0.0
102
RTVSPost2010PropOp38
 70
     0
102
RTVSPost2010Prop39
140
1.0
102
RTVSPost2010PropOp39
 70
     0
102
RTVSPost2010Prop40
 90
        0
102
RTVSPost2010PropOp40
 70
     0
102
RTVSPost2010Prop41ColorIndex
 90
       18
102
RTVSPost2010Prop41ColorRGB
 90
        0
102
RTVSPost2010PropOp41
 70
     0
102
RTVSPost2010Prop42
 90
       50
102
RTVSPost2010PropOp42
 70
     0
102
RTVSPost2010Prop43
 90
        3
102
RTVSPost2010PropOp43
 70
     0
102
RTVSPost2010Prop44ColorIndex
 90
        5
102
RTVSPost2010Prop44ColorRGB
 90
      255
102
RTVSPost2010PropOp44
 70
     0
102
RTVSPost2010Prop45
280
     0
102
RTVSPost2010PropOp45
 70
     0
102
RTVSPost2010Prop46
 90
       50
102
RTVSPost2010PropOp46
 70
     0
102
RTVSPost2010Prop47
 90
       50
102
RTVSPost2010PropOp47
 70
     0
102
RTVSPost2010Prop48
 90
       50
102
RTVSPost2010PropOp48
 70
     0
102
RTVSPost2010Prop49
280
     0
102
RTVSPost2010PropOp49
 70
     0
102
RTVSPost2010Prop50
 90
       50
102
RTVSPost2010PropOp50
 70
     0
102
RTVSPost2010Prop51ColorIndex
 90
      256
102
RTVSPost2010Prop51ColorRGB
 90
-16777216
102
RTVSPost2010PropOp51
 70
     0
102
RTVSPost2010Prop52
140
1.0
102
RTVSPost2010PropOp52
 70
     0
102
RTVSPost2010Prop53
 90
        2
102
RTVSPost2010PropOp53
 70
     0
102
RTVSPost2010Prop54
  1
strokes_ogs.tif
102
RTVSPost2010PropOp54
 70
     0
102
RTVSPost2010Prop55
280
     0
102
RTVSPost2010PropOp55
 70
     0
102
RTVSPost2010Prop56
140
1.0
102
RTVSPost2010PropOp56
 70
     0
102
RTVSPost2010Prop57
140
1.0
102
RTVSPost2010PropOp57
 70
     0
  0
XRECORD
  5
142
102
{ACAD_REACTORS
330
141
102
}
330
141
100
AcDbXrecord
280
     1
102
RTVSPost2010Prop28
280
     0
102
RTVSPost2010PropOp28
 70
     1
102
RTVSPost2010Prop29
280
     1
102
RTVSPost2010PropOp29
 70
     1
102
RTVSPost2010Prop30
280
     1
102
RTVSPost2010PropOp30
 70
     1
102
RTVSPost2010Prop31
280
     0
102
RTVSPost2010PropOp31
 70
     1
102
RTVSPost2010Prop32
280
     0
102
RTVSPost2010PropOp32
 70
     1
102
RTVSPost2010Prop33
280
     0
102
RTVSPost2010PropOp33
 70
     1
102
RTVSPost2010Prop34
280
     0
102
RTVSPost2010PropOp34
 70
     1
102
RTVSPost2010Prop35
280
     0
102
RTVSPost2010PropOp35
 70
     1
102
RTVSPost2010Prop36
280
     0
102
RTVSPost2010PropOp36
 70
     1
102
RTVSPost2010Prop37
 90
       50
102
RTVSPost2010PropOp37
 70
     1
102
RTVSPost2010Prop38
140
0.0
102
RTVSPost2010PropOp38
 70
     1
102
RTVSPost2010Prop39
140
1.0
102
RTVSPost2010PropOp39
 70
     1
102
RTVSPost2010Prop40
 90
        0
102
RTVSPost2010PropOp40
 70
     1
102
RTVSPost2010Prop41ColorIndex
 90
       18
102
RTVSPost2010Prop41ColorRGB
 90
        0
102
RTVSPost2010PropOp41
 70
     1
102
RTVSPost2010Prop42
 90
       50
102
RTVSPost2010PropOp42
 70
     1
102
RTVSPost2010Prop43
 90
        3
102
RTVSPost2010PropOp43
 70
     1
102
RTVSPost2010Prop44ColorIndex
 90
        5
102
RTVSPost2010Prop44ColorRGB
 90
      255
102
RTVSPost2010PropOp44
 70
     1
102
RTVSPost2010Prop45
280
     0
102
RTVSPost2010PropOp45
 70
     1
102
RTVSPost2010Prop46
 90
       50
102
RTVSPost2010PropOp46
 70
     1
102
RTVSPost2010Prop47
 90
       50
102
RTVSPost2010PropOp47
 70
     1
102
RTVSPost2010Prop48
 90
       50
102
RTVSPost2010PropOp48
 70
     1
102
RTVSPost2010Prop49
280
     0
102
RTVSPost2010PropOp49
 70
     1
102
RTVSPost2010Prop50
 90
       50
102
RTVSPost2010PropOp50
 70
     1
102
RTVSPost2010Prop51ColorIndex
 90
      256
102
RTVSPost2010Prop51ColorRGB
 90
-16777216
102
RTVSPost2010PropOp51
 70
     0
102
RTVSPost2010Prop52
140
1.0
102
RTVSPost2010PropOp52
 70
     0
102
RTVSPost2010Prop53
 90
        2
102
RTVSPost2010PropOp53
 70
     1
102
RTVSPost2010Prop54
  1
strokes_ogs.tif
102
RTVSPost2010PropOp54
 70
     1
102
RTVSPost2010Prop55
280
     0
102
RTVSPost2010PropOp55
 70
     1
102
RTVSPost2010Prop56
140
1.0
102
RTVSPost2010PropOp56
 70
     1
102
RTVSPost2010Prop57
140
1.0
102
RTVSPost2010PropOp57
 70
     1
  0
XRECORD
  5
158
102
{ACAD_REACTORS
330
157
102
}
330
157
100
AcDbXrecord
280
     1
102
RTVSPost2010Prop28
280
     0
102
RTVSPost2010PropOp28
 70
     1
102
RTVSPost2010Prop29
280
     1
102
RTVSPost2010PropOp29
 70
     1
102
RTVSPost2010Prop30
280
     1
102
RTVSPost2010PropOp30
 70
     1
102
RTVSPost2010Prop31
280
     0
102
RTVSPost2010PropOp31
 70
     1
102
RTVSPost2010Prop32
280
     0
102
RTVSPost2010PropOp32
 70
     1
102
RTVSPost2010Prop33
280
     0
102
RTVSPost2010PropOp33
 70
     1
102
RTVSPost2010Prop34
280
     0
102
RTVSPost2010PropOp34
 70
     1
102
RTVSPost2010Prop35
280
     0
102
RTVSPost2010PropOp35
 70
     1
102
RTVSPost2010Prop36
280
     0
102
RTVSPost2010PropOp36
 70
     1
102
RTVSPost2010Prop37
 90
       50
102
RTVSPost2010PropOp37
 70
     1
102
RTVSPost2010Prop38
140
0.0
102
RTVSPost2010PropOp38
 70
     1
102
RTVSPost2010Prop39
140
1.0
102
RTVSPost2010PropOp39
 70
     1
102
RTVSPost2010Prop40
 90
        0
102
RTVSPost2010PropOp40
 70
     1
102
RTVSPost2010Prop41ColorIndex
 90
       18
102
RTVSPost2010Prop41ColorRGB
 90
        0
102
RTVSPost2010PropOp41
 70
     1
102
RTVSPost2010Prop42
 90
       50
102
RTVSPost2010PropOp42
 70
     1
102
RTVSPost2010Prop43
 90
        3
102
RTVSPost2010PropOp43
 70
     1
102
RTVSPost2010Prop44ColorIndex
 90
        5
102
RTVSPost2010Prop44ColorRGB
 90
      255
102
RTVSPost2010PropOp44
 70
     1
102
RTVSPost2010Prop45
280
     0
102
RTVSPost2010PropOp45
 70
     1
102
RTVSPost2010Prop46
 90
       50
102
RTVSPost2010PropOp46
 70
     1
102
RTVSPost2010Prop47
 90
       50
102
RTVSPost2010PropOp47
 70
     1
102
RTVSPost2010Prop48
 90
       50
102
RTVSPost2010PropOp48
 70
     1
102
RTVSPost2010Prop49
280
     0
102
RTVSPost2010PropOp49
 70
     1
102
RTVSPost2010Prop50
 90
       50
102
RTVSPost2010PropOp50
 70
     1
102
RTVSPost2010Prop51ColorIndex
 90
      256
102
RTVSPost2010Prop51ColorRGB
 90
-16777216
102
RTVSPost2010PropOp51
 70
     0
102
RTVSPost2010Prop52
140
1.0
102
RTVSPost2010PropOp52
 70
     0
102
RTVSPost2010Prop53
 90
        2
102
RTVSPost2010PropOp53
 70
     1
102
RTVSPost2010Prop54
  1
strokes_ogs.tif
102
RTVSPost2010PropOp54
 70
     1
102
RTVSPost2010Prop55
280
     0
102
RTVSPost2010PropOp55
 70
     1
102
RTVSPost2010Prop56
140
1.0
102
RTVSPost2010PropOp56
 70
     1
102
RTVSPost2010Prop57
140
1.0
102
RTVSPost2010PropOp57
 70
     1
  0
XRECORD
  5
156
102
{ACAD_REACTORS
330
155
102
}
330
155
100
AcDbXrecord
280
     1
102
RTVSPost2010Prop28
280
     0
102
RTVSPost2010PropOp28
 70
     1
102
RTVSPost2010Prop29
280
     1
102
RTVSPost2010PropOp29
 70
     1
102
RTVSPost2010Prop30
280
     1
102
RTVSPost2010PropOp30
 70
     1
102
RTVSPost2010Prop31
280
     0
102
RTVSPost2010PropOp31
 70
     1
102
RTVSPost2010Prop32
280
     0
102
RTVSPost2010PropOp32
 70
     1
102
RTVSPost2010Prop33
280
     0
102
RTVSPost2010PropOp33
 70
     1
102
RTVSPost2010Prop34
280
     0
102
RTVSPost2010PropOp34
 70
     1
102
RTVSPost2010Prop35
280
     0
102
RTVSPost2010PropOp35
 70
     1
102
RTVSPost2010Prop36
280
     0
102
RTVSPost2010PropOp36
 70
     1
102
RTVSPost2010Prop37
 90
       50
102
RTVSPost2010PropOp37
 70
     1
102
RTVSPost2010Prop38
140
0.0
102
RTVSPost2010PropOp38
 70
     1
102
RTVSPost2010Prop39
140
1.0
102
RTVSPost2010PropOp39
 70
     1
102
RTVSPost2010Prop40
 90
        0
102
RTVSPost2010PropOp40
 70
     1
102
RTVSPost2010Prop41ColorIndex
 90
       18
102
RTVSPost2010Prop41ColorRGB
 90
        0
102
RTVSPost2010PropOp41
 70
     1
102
RTVSPost2010Prop42
 90
       50
102
RTVSPost2010PropOp42
 70
     1
102
RTVSPost2010Prop43
 90
        3
102
RTVSPost2010PropOp43
 70
     1
102
RTVSPost2010Prop44ColorIndex
 90
        5
102
RTVSPost2010Prop44ColorRGB
 90
      255
102
RTVSPost2010PropOp44
 70
     1
102
RTVSPost2010Prop45
280
     0
102
RTVSPost2010PropOp45
 70
     1
102
RTVSPost2010Prop46
 90
       50
102
RTVSPost2010PropOp46
 70
     1
102
RTVSPost2010Prop47
 90
       50
102
RTVSPost2010PropOp47
 70
     1
102
RTVSPost2010Prop48
 90
       50
102
RTVSPost2010PropOp48
 70
     1
102
RTVSPost2010Prop49
280
     0
102
RTVSPost2010PropOp49
 70
     1
102
RTVSPost2010Prop50
 90
       50
102
RTVSPost2010PropOp50
 70
     1
102
RTVSPost2010Prop51ColorIndex
 90
      256
102
RTVSPost2010Prop51ColorRGB
 90
-16777216
102
RTVSPost2010PropOp51
 70
     0
102
RTVSPost2010Prop52
140
1.0
102
RTVSPost2010PropOp52
 70
     0
102
RTVSPost2010Prop53
 90
        2
102
RTVSPost2010PropOp53
 70
     1
102
RTVSPost2010Prop54
  1
strokes_ogs.tif
102
RTVSPost2010PropOp54
 70
     1
102
RTVSPost2010Prop55
280
     0
102
RTVSPost2010PropOp55
 70
     1
102
RTVSPost2010Prop56
140
1.0
102
RTVSPost2010PropOp56
 70
     1
102
RTVSPost2010Prop57
140
1.0
102
RTVSPost2010PropOp57
 70
     1
  0
XRECORD
  5
150
102
{ACAD_REACTORS
330
14F
102
}
330
14F
100
AcDbXrecord
280
     1
102
RTVSPost2010Prop28
280
     0
102
RTVSPost2010PropOp28
 70
     1
102
RTVSPost2010Prop29
280
     1
102
RTVSPost2010PropOp29
 70
     1
102
RTVSPost2010Prop30
280
     1
102
RTVSPost2010PropOp30
 70
     1
102
RTVSPost2010Prop31
280
     0
102
RTVSPost2010PropOp31
 70
     1
102
RTVSPost2010Prop32
280
     0
102
RTVSPost2010PropOp32
 70
     1
102
RTVSPost2010Prop33
280
     0
102
RTVSPost2010PropOp33
 70
     1
102
RTVSPost2010Prop34
280
     0
102
RTVSPost2010PropOp34
 70
     1
102
RTVSPost2010Prop35
280
     0
102
RTVSPost2010PropOp35
 70
     1
102
RTVSPost2010Prop36
280
     0
102
RTVSPost2010PropOp36
 70
     1
102
RTVSPost2010Prop37
 90
       50
102
RTVSPost2010PropOp37
 70
     1
102
RTVSPost2010Prop38
140
0.0
102
RTVSPost2010PropOp38
 70
     1
102
RTVSPost2010Prop39
140
1.0
102
RTVSPost2010PropOp39
 70
     1
102
RTVSPost2010Prop40
 90
        0
102
RTVSPost2010PropOp40
 70
     1
102
RTVSPost2010Prop41ColorIndex
 90
       18
102
RTVSPost2010Prop41ColorRGB
 90
        0
102
RTVSPost2010PropOp41
 70
     1
102
RTVSPost2010Prop42
 90
       50
102
RTVSPost2010PropOp42
 70
     1
102
RTVSPost2010Prop43
 90
        3
102
RTVSPost2010PropOp43
 70
     1
102
RTVSPost2010Prop44ColorIndex
 90
        5
102
RTVSPost2010Prop44ColorRGB
 90
      255
102
RTVSPost2010PropOp44
 70
     1
102
RTVSPost2010Prop45
280
     0
102
RTVSPost2010PropOp45
 70
     1
102
RTVSPost2010Prop46
 90
       50
102
RTVSPost2010PropOp46
 70
     1
102
RTVSPost2010Prop47
 90
       50
102
RTVSPost2010PropOp47
 70
     1
102
RTVSPost2010Prop48
 90
       50
102
RTVSPost2010PropOp48
 70
     1
102
RTVSPost2010Prop49
280
     0
102
RTVSPost2010PropOp49
 70
     1
102
RTVSPost2010Prop50
 90
       50
102
RTVSPost2010PropOp50
 70
     1
102
RTVSPost2010Prop51ColorIndex
 90
      256
102
RTVSPost2010Prop51ColorRGB
 90
-16777216
102
RTVSPost2010PropOp51
 70
     0
102
RTVSPost2010Prop52
140
1.0
102
RTVSPost2010PropOp52
 70
     0
102
RTVSPost2010Prop53
 90
        2
102
RTVSPost2010PropOp53
 70
     1
102
RTVSPost2010Prop54
  1
strokes_ogs.tif
102
RTVSPost2010PropOp54
 70
     1
102
RTVSPost2010Prop55
280
     0
102
RTVSPost2010PropOp55
 70
     1
102
RTVSPost2010Prop56
140
1.0
102
RTVSPost2010PropOp56
 70
     1
102
RTVSPost2010Prop57
140
1.0
102
RTVSPost2010PropOp57
 70
     1
  0
XRECORD
  5
152
102
{ACAD_REACTORS
330
151
102
}
330
151
100
AcDbXrecord
280
     1
102
RTVSPost2010Prop28
280
     0
102
RTVSPost2010PropOp28
 70
     1
102
RTVSPost2010Prop29
280
     1
102
RTVSPost2010PropOp29
 70
     1
102
RTVSPost2010Prop30
280
     1
102
RTVSPost2010PropOp30
 70
     1
102
RTVSPost2010Prop31
280
     0
102
RTVSPost2010PropOp31
 70
     1
102
RTVSPost2010Prop32
280
     0
102
RTVSPost2010PropOp32
 70
     1
102
RTVSPost2010Prop33
280
     0
102
RTVSPost2010PropOp33
 70
     1
102
RTVSPost2010Prop34
280
     0
102
RTVSPost2010PropOp34
 70
     1
102
RTVSPost2010Prop35
280
     0
102
RTVSPost2010PropOp35
 70
     1
102
RTVSPost2010Prop36
280
     0
102
RTVSPost2010PropOp36
 70
     1
102
RTVSPost2010Prop37
 90
       50
102
RTVSPost2010PropOp37
 70
     1
102
RTVSPost2010Prop38
140
0.0
102
RTVSPost2010PropOp38
 70
     1
102
RTVSPost2010Prop39
140
1.0
102
RTVSPost2010PropOp39
 70
     1
102
RTVSPost2010Prop40
 90
        0
102
RTVSPost2010PropOp40
 70
     1
102
RTVSPost2010Prop41ColorIndex
 90
       18
102
RTVSPost2010Prop41ColorRGB
 90
        0
102
RTVSPost2010PropOp41
 70
     1
102
RTVSPost2010Prop42
 90
       50
102
RTVSPost2010PropOp42
 70
     1
102
RTVSPost2010Prop43
 90
        3
102
RTVSPost2010PropOp43
 70
     1
102
RTVSPost2010Prop44ColorIndex
 90
        5
102
RTVSPost2010Prop44ColorRGB
 90
      255
102
RTVSPost2010PropOp44
 70
     1
102
RTVSPost2010Prop45
280
     0
102
RTVSPost2010PropOp45
 70
     1
102
RTVSPost2010Prop46
 90
       50
102
RTVSPost2010PropOp46
 70
     1
102
RTVSPost2010Prop47
 90
       50
102
RTVSPost2010PropOp47
 70
     1
102
RTVSPost2010Prop48
 90
       50
102
RTVSPost2010PropOp48
 70
     1
102
RTVSPost2010Prop49
280
     0
102
RTVSPost2010PropOp49
 70
     1
102
RTVSPost2010Prop50
 90
       50
102
RTVSPost2010PropOp50
 70
     1
102
RTVSPost2010Prop51ColorIndex
 90
      256
102
RTVSPost2010Prop51ColorRGB
 90
-16777216
102
RTVSPost2010PropOp51
 70
     0
102
RTVSPost2010Prop52
140
1.0
102
RTVSPost2010PropOp52
 70
     0
102
RTVSPost2010Prop53
 90
        2
102
RTVSPost2010PropOp53
 70
     1
102
RTVSPost2010Prop54
  1
strokes_ogs.tif
102
RTVSPost2010PropOp54
 70
     1
102
RTVSPost2010Prop55
280
     0
102
RTVSPost2010PropOp55
 70
     1
102
RTVSPost2010Prop56
140
1.0
102
RTVSPost2010PropOp56
 70
     1
102
RTVSPost2010Prop57
140
1.0
102
RTVSPost2010PropOp57
 70
     1
  0
XRECORD
  5
148
102
{ACAD_REACTORS
330
147
102
}
330
147
100
AcDbXrecord
280
     1
102
RTVSPost2010Prop28
280
     0
102
RTVSPost2010PropOp28
 70
     1
102
RTVSPost2010Prop29
280
     1
102
RTVSPost2010PropOp29
 70
     1
102
RTVSPost2010Prop30
280
     1
102
RTVSPost2010PropOp30
 70
     1
102
RTVSPost2010Prop31
280
     0
102
RTVSPost2010PropOp31
 70
     1
102
RTVSPost2010Prop32
280
     0
102
RTVSPost2010PropOp32
 70
     1
102
RTVSPost2010Prop33
280
     0
102
RTVSPost2010PropOp33
 70
     1
102
RTVSPost2010Prop34
280
     0
102
RTVSPost2010PropOp34
 70
     1
102
RTVSPost2010Prop35
280
     0
102
RTVSPost2010PropOp35
 70
     1
102
RTVSPost2010Prop36
280
     0
102
RTVSPost2010PropOp36
 70
     1
102
RTVSPost2010Prop37
 90
       50
102
RTVSPost2010PropOp37
 70
     1
102
RTVSPost2010Prop38
140
0.0
102
RTVSPost2010PropOp38
 70
     1
102
RTVSPost2010Prop39
140
1.0
102
RTVSPost2010PropOp39
 70
     1
102
RTVSPost2010Prop40
 90
        0
102
RTVSPost2010PropOp40
 70
     1
102
RTVSPost2010Prop41ColorIndex
 90
       18
102
RTVSPost2010Prop41ColorRGB
 90
        0
102
RTVSPost2010PropOp41
 70
     1
102
RTVSPost2010Prop42
 90
       50
102
RTVSPost2010PropOp42
 70
     1
102
RTVSPost2010Prop43
 90
        3
102
RTVSPost2010PropOp43
 70
     1
102
RTVSPost2010Prop44ColorIndex
 90
        5
102
RTVSPost2010Prop44ColorRGB
 90
      255
102
RTVSPost2010PropOp44
 70
     1
102
RTVSPost2010Prop45
280
     0
102
RTVSPost2010PropOp45
 70
     1
102
RTVSPost2010Prop46
 90
       50
102
RTVSPost2010PropOp46
 70
     1
102
RTVSPost2010Prop47
 90
       50
102
RTVSPost2010PropOp47
 70
     1
102
RTVSPost2010Prop48
 90
       50
102
RTVSPost2010PropOp48
 70
     1
102
RTVSPost2010Prop49
280
     0
102
RTVSPost2010PropOp49
 70
     1
102
RTVSPost2010Prop50
 90
       50
102
RTVSPost2010PropOp50
 70
     1
102
RTVSPost2010Prop51ColorIndex
 90
      256
102
RTVSPost2010Prop51ColorRGB
 90
-16777216
102
RTVSPost2010PropOp51
 70
     0
102
RTVSPost2010Prop52
140
1.0
102
RTVSPost2010PropOp52
 70
     0
102
RTVSPost2010Prop53
 90
        2
102
RTVSPost2010PropOp53
 70
     1
102
RTVSPost2010Prop54
  1
strokes_ogs.tif
102
RTVSPost2010PropOp54
 70
     1
102
RTVSPost2010Prop55
280
     0
102
RTVSPost2010PropOp55
 70
     1
102
RTVSPost2010Prop56
140
1.0
102
RTVSPost2010PropOp56
 70
     1
102
RTVSPost2010Prop57
140
1.0
102
RTVSPost2010PropOp57
 70
     1
  0
XRECORD
  5
13C
102
{ACAD_REACTORS
330
13B
102
}
330
13B
100
AcDbXrecord
280
     1
102
RTVSPost2010Prop28
280
     0
102
RTVSPost2010PropOp28
 70
     1
102
RTVSPost2010Prop29
280
     1
102
RTVSPost2010PropOp29
 70
     1
102
RTVSPost2010Prop30
280
     1
102
RTVSPost2010PropOp30
 70
     1
102
RTVSPost2010Prop31
280
     0
102
RTVSPost2010PropOp31
 70
     1
102
RTVSPost2010Prop32
280
     0
102
RTVSPost2010PropOp32
 70
     1
102
RTVSPost2010Prop33
280
     0
102
RTVSPost2010PropOp33
 70
     1
102
RTVSPost2010Prop34
280
     0
102
RTVSPost2010PropOp34
 70
     1
102
RTVSPost2010Prop35
280
     0
102
RTVSPost2010PropOp35
 70
     1
102
RTVSPost2010Prop36
280
     0
102
RTVSPost2010PropOp36
 70
     1
102
RTVSPost2010Prop37
 90
       50
102
RTVSPost2010PropOp37
 70
     1
102
RTVSPost2010Prop38
140
0.0
102
RTVSPost2010PropOp38
 70
     1
102
RTVSPost2010Prop39
140
1.0
102
RTVSPost2010PropOp39
 70
     1
102
RTVSPost2010Prop40
 90
        0
102
RTVSPost2010PropOp40
 70
     1
102
RTVSPost2010Prop41ColorIndex
 90
       18
102
RTVSPost2010Prop41ColorRGB
 90
        0
102
RTVSPost2010PropOp41
 70
     1
102
RTVSPost2010Prop42
 90
       50
102
RTVSPost2010PropOp42
 70
     1
102
RTVSPost2010Prop43
 90
        3
102
RTVSPost2010PropOp43
 70
     1
102
RTVSPost2010Prop44ColorIndex
 90
        5
102
RTVSPost2010Prop44ColorRGB
 90
      255
102
RTVSPost2010PropOp44
 70
     1
102
RTVSPost2010Prop45
280
     0
102
RTVSPost2010PropOp45
 70
     1
102
RTVSPost2010Prop46
 90
       50
102
RTVSPost2010PropOp46
 70
     1
102
RTVSPost2010Prop47
 90
       50
102
RTVSPost2010PropOp47
 70
     1
102
RTVSPost2010Prop48
 90
       50
102
RTVSPost2010PropOp48
 70
     1
102
RTVSPost2010Prop49
280
     0
102
RTVSPost2010PropOp49
 70
     1
102
RTVSPost2010Prop50
 90
       50
102
RTVSPost2010PropOp50
 70
     1
102
RTVSPost2010Prop51ColorIndex
 90
      256
102
RTVSPost2010Prop51ColorRGB
 90
-16777216
102
RTVSPost2010PropOp51
 70
     0
102
RTVSPost2010Prop52
140
1.0
102
RTVSPost2010PropOp52
 70
     0
102
RTVSPost2010Prop53
 90
        2
102
RTVSPost2010PropOp53
 70
     1
102
RTVSPost2010Prop54
  1
strokes_ogs.tif
102
RTVSPost2010PropOp54
 70
     1
102
RTVSPost2010Prop55
280
     0
102
RTVSPost2010PropOp55
 70
     1
102
RTVSPost2010Prop56
140
1.0
102
RTVSPost2010PropOp56
 70
     1
102
RTVSPost2010Prop57
140
1.0
102
RTVSPost2010PropOp57
 70
     1
  0
XRECORD
  5
154
102
{ACAD_REACTORS
330
153
102
}
330
153
100
AcDbXrecord
280
     1
102
RTVSPost2010Prop28
280
     0
102
RTVSPost2010PropOp28
 70
     1
102
RTVSPost2010Prop29
280
     1
102
RTVSPost2010PropOp29
 70
     1
102
RTVSPost2010Prop30
280
     1
102
RTVSPost2010PropOp30
 70
     1
102
RTVSPost2010Prop31
280
     0
102
RTVSPost2010PropOp31
 70
     1
102
RTVSPost2010Prop32
280
     0
102
RTVSPost2010PropOp32
 70
     1
102
RTVSPost2010Prop33
280
     0
102
RTVSPost2010PropOp33
 70
     1
102
RTVSPost2010Prop34
280
     0
102
RTVSPost2010PropOp34
 70
     1
102
RTVSPost2010Prop35
280
     0
102
RTVSPost2010PropOp35
 70
     1
102
RTVSPost2010Prop36
280
     0
102
RTVSPost2010PropOp36
 70
     1
102
RTVSPost2010Prop37
 90
       50
102
RTVSPost2010PropOp37
 70
     1
102
RTVSPost2010Prop38
140
0.0
102
RTVSPost2010PropOp38
 70
     1
102
RTVSPost2010Prop39
140
1.0
102
RTVSPost2010PropOp39
 70
     1
102
RTVSPost2010Prop40
 90
        0
102
RTVSPost2010PropOp40
 70
     1
102
RTVSPost2010Prop41ColorIndex
 90
       18
102
RTVSPost2010Prop41ColorRGB
 90
        0
102
RTVSPost2010PropOp41
 70
     1
102
RTVSPost2010Prop42
 90
       50
102
RTVSPost2010PropOp42
 70
     1
102
RTVSPost2010Prop43
 90
        3
102
RTVSPost2010PropOp43
 70
     1
102
RTVSPost2010Prop44ColorIndex
 90
        5
102
RTVSPost2010Prop44ColorRGB
 90
      255
102
RTVSPost2010PropOp44
 70
     1
102
RTVSPost2010Prop45
280
     0
102
RTVSPost2010PropOp45
 70
     1
102
RTVSPost2010Prop46
 90
       50
102
RTVSPost2010PropOp46
 70
     1
102
RTVSPost2010Prop47
 90
       50
102
RTVSPost2010PropOp47
 70
     1
102
RTVSPost2010Prop48
 90
       50
102
RTVSPost2010PropOp48
 70
     1
102
RTVSPost2010Prop49
280
     0
102
RTVSPost2010PropOp49
 70
     1
102
RTVSPost2010Prop50
 90
       50
102
RTVSPost2010PropOp50
 70
     1
102
RTVSPost2010Prop51ColorIndex
 90
      256
102
RTVSPost2010Prop51ColorRGB
 90
-16777216
102
RTVSPost2010PropOp51
 70
     0
102
RTVSPost2010Prop52
140
1.0
102
RTVSPost2010PropOp52
 70
     0
102
RTVSPost2010Prop53
 90
        2
102
RTVSPost2010PropOp53
 70
     1
102
RTVSPost2010Prop54
  1
strokes_ogs.tif
102
RTVSPost2010PropOp54
 70
     1
102
RTVSPost2010Prop55
280
     0
102
RTVSPost2010PropOp55
 70
     1
102
RTVSPost2010Prop56
140
1.0
102
RTVSPost2010PropOp56
 70
     1
102
RTVSPost2010Prop57
140
1.0
102
RTVSPost2010PropOp57
 70
     1
  0
ENDSEC
  0
EOF
